  0
SECTION
  2
HEADER
  9
$ACADVER
  1
AC1015
  9
$ACADMAINTVER
 70
     6
  9
$DWGCODEPAGE
  3
ANSI_1252
  9
$INSBASE
 10
0.0
 20
0.0
 30
0.0
  9
$EXTMIN
 10
0.0
 20
0.0
 30
0.0
  9
$EXTMAX
 10
5940.0
 20
4200.0
 30
0.0
  9
$LIMMIN
 10
0.0
 20
0.0
  9
$LIMMAX
 10
5940.0
 20
4200.0
  9
$ORTHOMODE
 70
     0
  9
$REGENMODE
 70
     1
  9
$FILLMODE
 70
     1
  9
$QTEXTMODE
 70
     0
  9
$MIRRTEXT
 70
     1
  9
$LTSCALE
 40
10.0
  9
$ATTMODE
 70
     1
  9
$TEXTSIZE
 40
35.0
  9
$TRACEWID
 40
1.0
  9
$TEXTSTYLE
  7
Standard
  9
$CLAYER
  8
0
  9
$CELTYPE
  6
ByLayer
  9
$CECOLOR
 62
   256
  9
$CELTSCALE
 40
1.0
  9
$DISPSILH
 70
     0
  9
$DIMSCALE
 40
1.0
  9
$DIMASZ
 40
33.02
  9
$DIMEXO
 40
10.0
  9
$DIMDLI
 40
3.75
  9
$DIMRND
 40
0.0
  9
$DIMDLE
 40
0.0
  9
$DIMEXE
 40
10.0
  9
$DIMTP
 40
0.0
  9
$DIMTM
 40
0.0
  9
$DIMTXT
 40
35.0
  9
$DIMCEN
 40
2.5
  9
$DIMTSZ
 40
0.0
  9
$DIMTOL
 70
     0
  9
$DIMLIM
 70
     0
  9
$DIMTIH
 70
     1
  9
$DIMTOH
 70
     1
  9
$DIMSE1
 70
     0
  9
$DIMSE2
 70
     0
  9
$DIMTAD
 70
     1
  9
$DIMZIN
 70
     0
  9
$DIMBLK
  1

  9
$DIMASO
 70
     1
  9
$DIMSHO
 70
     1
  9
$DIMPOST
  1

  9
$DIMAPOST
  1

  9
$DIMALT
 70
     0
  9
$DIMALTD
 70
     3
  9
$DIMALTF
 40
0.0393700787
  9
$DIMLFAC
 40
1.0
  9
$DIMTOFL
 70
     1
  9
$DIMTVP
 40
0.0
  9
$DIMTIX
 70
     0
  9
$DIMSOXD
 70
     0
  9
$DIMSAH
 70
     0
  9
$DIMBLK1
  1

  9
$DIMBLK2
  1

  9
$DIMSTYLE
  2
ISO-25
  9
$DIMCLRD
 70
     0
  9
$DIMCLRE
 70
     0
  9
$DIMCLRT
 70
     0
  9
$DIMTFAC
 40
1.0
  9
$DIMGAP
 40
15.24
  9
$DIMJUST
 70
     0
  9
$DIMSD1
 70
     0
  9
$DIMSD2
 70
     0
  9
$DIMTOLJ
 70
     0
  9
$DIMTZIN
 70
     0
  9
$DIMALTZ
 70
     0
  9
$DIMALTTZ
 70
     0
  9
$DIMUPT
 70
     0
  9
$DIMDEC
 70
     2
  9
$DIMTDEC
 70
     2
  9
$DIMALTU
 70
     2
  9
$DIMALTTD
 70
     3
  9
$DIMTXSTY
  7
Standard
  9
$DIMAUNIT
 70
     0
  9
$DIMADEC
 70
     2
  9
$DIMALTRND
 40
0.0
  9
$DIMAZIN
 70
     0
  9
$DIMDSEP
 70
    44
  9
$DIMATFIT
 70
     3
  9
$DIMFRAC
 70
     0
  9
$DIMLDRBLK
  1

  9
$DIMLUNIT
 70
     2
  9
$DIMLWD
 70
    -2
  9
$DIMLWE
 70
    -2
  9
$DIMTMOVE
 70
     0
  9
$LUNITS
 70
     2
  9
$LUPREC
 70
     2
  9
$SKETCHINC
 40
1.0
  9
$FILLETRAD
 40
10.0
  9
$AUNITS
 70
     0
  9
$AUPREC
 70
     2
  9
$MENU
  1
.
  9
$ELEVATION
 40
0.0
  9
$PELEVATION
 40
0.0
  9
$THICKNESS
 40
0.0
  9
$LIMCHECK
 70
     0
  9
$CHAMFERA
 40
0.0
  9
$CHAMFERB
 40
0.0
  9
$CHAMFERC
 40
0.0
  9
$CHAMFERD
 40
0.0
  9
$SKPOLY
 70
     0
  9
$TDCREATE
 40
2458638.380492454
  9
$TDUCREATE
 40
2458638.29715912
  9
$TDUPDATE
 40
2458638.380494086
  9
$TDUUPDATE
 40
2458638.297160752
  9
$TDINDWG
 40
0.0000000116
  9
$TDUSRTIMER
 40
0.0000000116
  9
$USRTIMER
 70
     1
  9
$ANGBASE
 50
0.0
  9
$ANGDIR
 70
     0
  9
$PDMODE
 70
     0
  9
$PDSIZE
 40
-1.0
  9
$PLINEWID
 40
0.0
  9
$SPLFRAME
 70
     0
  9
$SPLINETYPE
 70
     6
  9
$SPLINESEGS
 70
     8
  9
$HANDSEED
  5
3C8
  9
$SURFTAB1
 70
     6
  9
$SURFTAB2
 70
     6
  9
$SURFTYPE
 70
     6
  9
$SURFU
 70
     6
  9
$SURFV
 70
     6
  9
$UCSBASE
  2

  9
$UCSNAME
  2

  9
$UCSORG
 10
0.0
 20
0.0
 30
0.0
  9
$UCSXDIR
 10
1.0
 20
0.0
 30
0.0
  9
$UCSYDIR
 10
0.0
 20
1.0
 30
0.0
  9
$UCSORTHOREF
  2

  9
$UCSORTHOVIEW
 70
     0
  9
$UCSORGTOP
 10
0.0
 20
0.0
 30
0.0
  9
$UCSORGBOTTOM
 10
0.0
 20
0.0
 30
0.0
  9
$UCSORGLEFT
 10
0.0
 20
0.0
 30
0.0
  9
$UCSORGRIGHT
 10
0.0
 20
0.0
 30
0.0
  9
$UCSORGFRONT
 10
0.0
 20
0.0
 30
0.0
  9
$UCSORGBACK
 10
0.0
 20
0.0
 30
0.0
  9
$PUCSBASE
  2

  9
$PUCSNAME
  2

  9
$PUCSORG
 10
0.0
 20
0.0
 30
0.0
  9
$PUCSXDIR
 10
1.0
 20
0.0
 30
0.0
  9
$PUCSYDIR
 10
0.0
 20
1.0
 30
0.0
  9
$PUCSORTHOREF
  2

  9
$PUCSORTHOVIEW
 70
     0
  9
$PUCSORGTOP
 10
0.0
 20
0.0
 30
0.0
  9
$PUCSORGBOTTOM
 10
0.0
 20
0.0
 30
0.0
  9
$PUCSORGLEFT
 10
0.0
 20
0.0
 30
0.0
  9
$PUCSORGRIGHT
 10
0.0
 20
0.0
 30
0.0
  9
$PUCSORGFRONT
 10
0.0
 20
0.0
 30
0.0
  9
$PUCSORGBACK
 10
0.0
 20
0.0
 30
0.0
  9
$USERI1
 70
     0
  9
$USERI2
 70
     0
  9
$USERI3
 70
     0
  9
$USERI4
 70
     0
  9
$USERI5
 70
     0
  9
$USERR1
 40
0.0
  9
$USERR2
 40
0.0
  9
$USERR3
 40
0.0
  9
$USERR4
 40
0.0
  9
$USERR5
 40
0.0
  9
$WORLDVIEW
 70
     1
  9
$SHADEDGE
 70
     3
  9
$SHADEDIF
 70
    70
  9
$TILEMODE
 70
     1
  9
$MAXACTVP
 70
    64
  9
$PINSBASE
 10
0.0
 20
0.0
 30
0.0
  9
$PLIMCHECK
 70
     0
  9
$PEXTMIN
 10
1.0000000000E+20
 20
1.0000000000E+20
 30
1.0000000000E+20
  9
$PEXTMAX
 10
-1.0000000000E+20
 20
-1.0000000000E+20
 30
-1.0000000000E+20
  9
$PLIMMIN
 10
0.0
 20
0.0
  9
$PLIMMAX
 10
420.0
 20
297.0
  9
$UNITMODE
 70
     0
  9
$VISRETAIN
 70
     1
  9
$PLINEGEN
 70
     0
  9
$PSLTSCALE
 70
     1
  9
$TREEDEPTH
 70
  3020
  9
$CMLSTYLE
  2
Standard
  9
$CMLJUST
 70
     0
  9
$CMLSCALE
 40
20.0
  9
$PROXYGRAPHICS
 70
     1
  9
$MEASUREMENT
 70
     1
  9
$CELWEIGHT
370
    -1
  9
$ENDCAPS
280
     0
  9
$JOINSTYLE
280
     0
  9
$LWDISPLAY
290
     1
  9
$INSUNITS
 70
     4
  9
$HYPERLINKBASE
  1

  9
$STYLESHEET
  1

  9
$XEDIT
290
     1
  9
$CEPSNTYPE
380
     0
  9
$PSTYLEMODE
290
     1
  9
$FINGERPRINTGUID
  2
{CDEB3608-4F6F-4D08-952A-4E654D6CA258}
  9
$VERSIONGUID
  2
{FAEB1C32-E019-11D5-929B-00C0DF256EC4}
  9
$EXTNAMES
290
     1
  9
$PSVPSCALE
 40
0.0
  9
$OLESTARTUP
290
     0
  0
ENDSEC
  0
SECTION
  2
CLASSES
  0
CLASS
  1
ACDBDICTIONARYWDFLT
  2
AcDbDictionaryWithDefault
  3
ObjectDBX Classes
 90
        0
280
     0
281
     0
  0
CLASS
  1
VISUALSTYLE
  2
AcDbVisualStyle
  3
ObjectDBX Classes
 90
     4095
280
     0
281
     0
  0
CLASS
  1
MATERIAL
  2
AcDbMaterial
  3
ObjectDBX Classes
 90
     1153
280
     0
281
     0
  0
CLASS
  1
SCALE
  2
AcDbScale
  3
ObjectDBX Classes
 90
     1153
280
     0
281
     0
  0
CLASS
  1
TABLESTYLE
  2
AcDbTableStyle
  3
ObjectDBX Classes
 90
     4095
280
     0
281
     0
  0
CLASS
  1
MLEADERSTYLE
  2
AcDbMLeaderStyle
  3
ACDB_MLEADERSTYLE_CLASS
 90
     4095
280
     0
281
     0
  0
CLASS
  1
SUN
  2
AcDbSun
  3
SCENEOE
 90
     1153
280
     0
281
     0
  0
CLASS
  1
ACDBPLACEHOLDER
  2
AcDbPlaceHolder
  3
ObjectDBX Classes
 90
        0
280
     0
281
     0
  0
CLASS
  1
LAYOUT
  2
AcDbLayout
  3
ObjectDBX Classes
 90
        0
280
     0
281
     0
  0
ENDSEC
  0
SECTION
  2
TABLES
  0
TABLE
  2
VPORT
  5
8
330
0
100
AcDbSymbolTable
 70
     1
  0
VPORT
  5
29
330
8
100
AcDbSymbolTableRecord
100
AcDbViewportTableRecord
  2
*Active
 70
     0
 10
0.0
 20
0.0
 11
1.0
 21
1.0
 12
2970.0
 22
2100.0
 13
0.0
 23
0.0
 14
10.0
 24
10.0
 15
10.0
 25
10.0
 16
0.0
 26
0.0
 36
1.0
 17
0.0
 27
0.0
 37
0.0
 40
4200.0
 41
1.4142857143
 42
50.0
 43
0.0
 44
0.0
 50
0.0
 51
0.0
 71
     0
 72
  2000
 73
     1
 74
     3
 75
     0
 76
     0
 77
     0
 78
     0
281
     0
 65
     1
110
0.0
120
0.0
130
0.0
111
1.0
121
0.0
131
0.0
112
0.0
122
1.0
132
0.0
 79
     0
146
0.0
  0
ENDTAB
  0
TABLE
  2
LTYPE
  5
5
330
0
100
AcDbSymbolTable
 70
     6
  0
LTYPE
  5
14
330
5
100
AcDbSymbolTableRecord
100
AcDbLinetypeTableRecord
  2
ByBlock
 70
     0
  3

 72
    65
 73
     0
 40
0.0
  0
LTYPE
  5
15
330
5
100
AcDbSymbolTableRecord
100
AcDbLinetypeTableRecord
  2
ByLayer
 70
     0
  3

 72
    65
 73
     0
 40
0.0
  0
LTYPE
  5
16
330
5
100
AcDbSymbolTableRecord
100
AcDbLinetypeTableRecord
  2
Continuous
 70
     0
  3
Solid line
 72
    65
 73
     0
 40
0.0
  0
LTYPE
  5
6E
330
5
100
AcDbSymbolTableRecord
100
AcDbLinetypeTableRecord
  2
HIDDEN
 70
     0
  3
Hidden __ __ __ __ __ __ __ __ __ __ __ __ __ __
 72
    65
 73
     2
 40
1.905
 49
1.27
 74
     0
 49
-0.635
 74
     0
  0
LTYPE
  5
6F
330
5
100
AcDbSymbolTableRecord
100
AcDbLinetypeTableRecord
  2
PHANTOM
 70
     0
  3
Phantom ______  __  __  ______  __  __  ______
 72
    65
 73
     6
 40
12.7
 49
6.35
 74
     0
 49
-1.27
 74
     0
 49
1.27
 74
     0
 49
-1.27
 74
     0
 49
1.27
 74
     0
 49
-1.27
 74
     0
  0
LTYPE
  5
70
330
5
100
AcDbSymbolTableRecord
100
AcDbLinetypeTableRecord
  2
CENTER
 70
     0
  3
Center ____ _ ____ _ ____ _ ____ _ ____ _ ____
 72
    65
 73
     4
 40
10.16
 49
6.35
 74
     0
 49
-1.27
 74
     0
 49
1.27
 74
     0
 49
-1.27
 74
     0
  0
LTYPE
  5
71
330
5
100
AcDbSymbolTableRecord
100
AcDbLinetypeTableRecord
  2
CENTERX2
 70
     0
  3
Center (2x) ________  __  ________  __  _____
 72
    65
 73
     4
 40
20.32
 49
12.7
 74
     0
 49
-2.54
 74
     0
 49
2.54
 74
     0
 49
-2.54
 74
     0
  0
LTYPE
  5
72
330
5
100
AcDbSymbolTableRecord
100
AcDbLinetypeTableRecord
  2
DOT2
 70
     0
  3
Dot (.5x) ........................................
 72
    65
 73
     2
 40
0.635
 49
0.0
 74
     0
 49
-0.635
 74
     0
  0
ENDTAB
  0
TABLE
  2
LAYER
  5
2
330
0
100
AcDbSymbolTable
 70
    37
  0
LAYER
  5
10
330
2
100
AcDbSymbolTableRecord
100
AcDbLayerTableRecord
  2
0
 70
     0
 62
     7
  6
Continuous
370
    -3
390
F
  0
LAYER
  5
73
330
2
100
AcDbSymbolTableRecord
100
AcDbLayerTableRecord
  2
SLD-0
 70
     0
 62
     7
  6
Continuous
370
    -3
390
F
  0
LAYER
  5
74
330
2
100
AcDbSymbolTableRecord
100
AcDbLayerTableRecord
  2
RAHMEN025
 70
     0
 62
     7
  6
Continuous
370
    -3
390
F
  0
LAYER
  5
75
330
2
100
AcDbSymbolTableRecord
100
AcDbLayerTableRecord
  2
RAHMEN07
 70
     0
 62
     5
  6
Continuous
370
    -3
390
F
  0
LAYER
  5
76
330
2
100
AcDbSymbolTableRecord
100
AcDbLayerTableRecord
  2
RAHMEN05
 70
     0
 62
     6
  6
Continuous
370
    -3
390
F
  0
LAYER
  5
77
330
2
100
AcDbSymbolTableRecord
100
AcDbLayerTableRecord
  2
TB
 70
     0
 62
     7
  6
Continuous
370
    -3
390
F
  0
LAYER
  5
78
330
2
100
AcDbSymbolTableRecord
100
AcDbLayerTableRecord
  2
1-VIDNO
 70
     0
 62
     5
  6
Continuous
370
    -3
390
F
  0
LAYER
  5
79
330
2
100
AcDbSymbolTableRecord
100
AcDbLayerTableRecord
  2
2-NEVIDNO
 70
     0
 62
     5
  6
HIDDEN
370
    -3
390
F
  0
LAYER
  5
7A
330
2
100
AcDbSymbolTableRecord
100
AcDbLayerTableRecord
  2
O-GLAVE
 70
     0
 62
     5
  6
Continuous
370
    -3
390
F
  0
LAYER
  5
7B
330
2
100
AcDbSymbolTableRecord
100
AcDbLayerTableRecord
  2
O-TEKST
 70
     0
 62
     7
  6
Continuous
370
    -3
390
F
  0
LAYER
  5
7C
330
2
100
AcDbSymbolTableRecord
100
AcDbLayerTableRecord
  2
O-ZUNANJI
 70
     0
 62
     7
  6
Continuous
370
    -3
390
F
  0
LAYER
  5
7D
330
2
100
AcDbSymbolTableRecord
100
AcDbLayerTableRecord
  2
SLD-DEFPOINTS
 70
     0
 62
     7
  6
Continuous
370
    -3
390
F
  0
LAYER
  5
7E
330
2
100
AcDbSymbolTableRecord
100
AcDbLayerTableRecord
  2
3-POMOZNO
 70
     0
 62
     4
  6
Continuous
370
    -3
390
F
  0
LAYER
  5
7F
330
2
100
AcDbSymbolTableRecord
100
AcDbLayerTableRecord
  2
4-SREDNJICA
 70
     0
 62
     1
  6
CENTER
370
    -3
390
F
  0
LAYER
  5
80
330
2
100
AcDbSymbolTableRecord
100
AcDbLayerTableRecord
  2
5-SRAFURA
 70
     0
 62
     7
  6
Continuous
370
    -3
390
F
  0
LAYER
  5
81
330
2
100
AcDbSymbolTableRecord
100
AcDbLayerTableRecord
  2
6-KOTE
 70
     0
 62
     7
  6
Continuous
370
    -3
390
F
  0
LAYER
  5
82
330
2
100
AcDbSymbolTableRecord
100
AcDbLayerTableRecord
  2
7-TEKST
 70
     0
 62
     7
  6
Continuous
370
    -3
390
F
  0
LAYER
  5
83
330
2
100
AcDbSymbolTableRecord
100
AcDbLayerTableRecord
  2
8-VARJENJA
 70
     0
 62
     1
  6
Continuous
370
    -3
390
F
  0
LAYER
  5
84
330
2
100
AcDbSymbolTableRecord
100
AcDbLayerTableRecord
  2
BEMASSUNG
 70
     0
 62
     7
  6
Continuous
370
    -3
390
F
  0
LAYER
  5
85
330
2
100
AcDbSymbolTableRecord
100
AcDbLayerTableRecord
  2
UMRISS03
 70
     0
 62
     7
  6
Continuous
370
    -3
390
F
  0
LAYER
  5
86
330
2
100
AcDbSymbolTableRecord
100
AcDbLayerTableRecord
  2
UMRISS02
 70
     0
 62
     7
  6
Continuous
370
    -3
390
F
  0
LAYER
  5
87
330
2
100
AcDbSymbolTableRecord
100
AcDbLayerTableRecord
  2
HILFSLINIEN
 70
     0
 62
     7
  6
Continuous
370
    -3
390
F
  0
LAYER
  5
88
330
2
100
AcDbSymbolTableRecord
100
AcDbLayerTableRecord
  2
UMRISS03_-PSPAC_
 70
     0
 62
     7
  6
Continuous
370
    -3
390
F
  0
LAYER
  5
89
330
2
100
AcDbSymbolTableRecord
100
AcDbLayerTableRecord
  2
ACA_VARSAVE
 70
     0
 62
     7
  6
Continuous
370
    -3
390
F
  0
LAYER
  5
8A
330
2
100
AcDbSymbolTableRecord
100
AcDbLayerTableRecord
  2
KONTUREN
 70
     0
 62
     7
  6
Continuous
370
    -3
390
F
  0
LAYER
  5
8B
330
2
100
AcDbSymbolTableRecord
100
AcDbLayerTableRecord
  2
ACHSE
 70
     0
 62
     7
  6
Continuous
370
    -3
390
F
  0
LAYER
  5
8C
330
2
100
AcDbSymbolTableRecord
100
AcDbLayerTableRecord
  2
UNSICHTBAR
 70
     0
 62
     7
  6
Continuous
370
    -3
390
F
  0
LAYER
  5
8D
330
2
100
AcDbSymbolTableRecord
100
AcDbLayerTableRecord
  2
MASSE
 70
     0
 62
     7
  6
Continuous
370
    -3
390
F
  0
LAYER
  5
8E
330
2
100
AcDbSymbolTableRecord
100
AcDbLayerTableRecord
  2
RAND
 70
     0
 62
     7
  6
Continuous
370
    -3
390
F
  0
LAYER
  5
8F
330
2
100
AcDbSymbolTableRecord
100
AcDbLayerTableRecord
  2
D-TEXT
 70
     0
 62
     7
  6
Continuous
370
    -3
390
F
  0
LAYER
  5
90
330
2
100
AcDbSymbolTableRecord
100
AcDbLayerTableRecord
  2
F-TEXT
 70
     0
 62
     7
  6
Continuous
370
    -3
390
F
  0
LAYER
  5
91
330
2
100
AcDbSymbolTableRecord
100
AcDbLayerTableRecord
  2
I-TEXT
 70
     0
 62
     7
  6
Continuous
370
    -3
390
F
  0
LAYER
  5
92
330
2
100
AcDbSymbolTableRecord
100
AcDbLayerTableRecord
  2
D-TEXT-FETT
 70
     0
 62
     7
  6
Continuous
370
    -3
390
F
  0
LAYER
  5
93
330
2
100
AcDbSymbolTableRecord
100
AcDbLayerTableRecord
  2
F-TEXT-FETT
 70
     0
 62
     7
  6
Continuous
370
    -3
390
F
  0
LAYER
  5
94
330
2
100
AcDbSymbolTableRecord
100
AcDbLayerTableRecord
  2
I-TEXT-FETT
 70
     0
 62
     7
  6
Continuous
370
    -3
390
F
  0
LAYER
  5
95
330
2
100
AcDbSymbolTableRecord
100
AcDbLayerTableRecord
  2
TEXT-D-F-I
 70
     0
 62
     7
  6
Continuous
370
    -3
390
F
  0
LAYER
  5
96
330
2
100
AcDbSymbolTableRecord
100
AcDbLayerTableRecord
  2
TEXT-D-F-I-FETT
 70
     0
 62
     7
  6
Continuous
370
    -3
390
F
  0
ENDTAB
  0
TABLE
  2
STYLE
  5
3
330
0
100
AcDbSymbolTable
 70
     2
  0
STYLE
  5
11
330
3
100
AcDbSymbolTableRecord
100
AcDbTextStyleTableRecord
  2
Standard
 70
     0
 40
0.0
 41
1.0
 50
0.0
 71
     0
 42
35.0
  3
txt
  4

  0
STYLE
  5
EC
330
3
100
AcDbSymbolTableRecord
100
AcDbTextStyleTableRecord
  2
SLDTEXTSTYLE0
 70
     0
 40
0.0
 41
0.75
 50
0.0
 71
     0
 42
35.0
  3
TXT
  4

  0
ENDTAB
  0
TABLE
  2
VIEW
  5
6
330
0
100
AcDbSymbolTable
 70
     0
  0
ENDTAB
  0
TABLE
  2
UCS
  5
7
330
0
100
AcDbSymbolTable
 70
     0
  0
ENDTAB
  0
TABLE
  2
APPID
  5
9
330
0
100
AcDbSymbolTable
 70
     1
  0
APPID
  5
12
330
9
100
AcDbSymbolTableRecord
100
AcDbRegAppTableRecord
  2
ACAD
 70
     0
  0
ENDTAB
  0
TABLE
  2
DIMSTYLE
  5
A
330
0
100
AcDbSymbolTable
 70
     1
100
AcDbDimStyleTable
  0
DIMSTYLE
105
27
330
A
100
AcDbSymbolTableRecord
100
AcDbDimStyleTableRecord
  2
ISO-25
 70
     0
 41
2.5
 42
0.625
 43
3.75
 44
1.25
 73
     0
 74
     0
 77
     1
 78
     8
140
2.5
141
2.5
143
0.0393700787
147
0.625
171
     3
172
     1
178
     0
271
     2
272
     2
274
     3
278
    44
283
     0
284
     8
340
11
  0
ENDTAB
  0
TABLE
  2
BLOCK_RECORD
  5
1
330
0
100
AcDbSymbolTable
 70
     3
  0
BLOCK_RECORD
  5
1F
330
1
100
AcDbSymbolTableRecord
100
AcDbBlockTableRecord
  2
*Model_Space
340
22
  0
BLOCK_RECORD
  5
1B
330
1
100
AcDbSymbolTableRecord
100
AcDbBlockTableRecord
  2
*Paper_Space
340
1E
  0
BLOCK_RECORD
  5
23
330
1
100
AcDbSymbolTableRecord
100
AcDbBlockTableRecord
  2
*Paper_Space0
340
26
  0
BLOCK_RECORD
  5
228
330
1
100
AcDbSymbolTableRecord
100
AcDbBlockTableRecord
  2
SW_NOTE_0
340
0
102
{BLKREFS
331
22D
102
}
  0
BLOCK_RECORD
  5
2AE
330
1
100
AcDbSymbolTableRecord
100
AcDbBlockTableRecord
  2
SW_NOTE_1
340
0
102
{BLKREFS
331
2B3
102
}
  0
ENDTAB
  0
ENDSEC
  0
SECTION
  2
BLOCKS
  0
BLOCK
  5
20
330
1F
100
AcDbEntity
  8
0
100
AcDbBlockBegin
  2
*Model_Space
 70
     0
 10
0.0
 20
0.0
 30
0.0
  3
*Model_Space
  1

  0
ENDBLK
  5
21
330
1F
100
AcDbEntity
  8
0
100
AcDbBlockEnd
  0
BLOCK
  5
1C
330
1B
100
AcDbEntity
 67
     1
  8
0
100
AcDbBlockBegin
  2
*Paper_Space
 70
     0
 10
0.0
 20
0.0
 30
0.0
  3
*Paper_Space
  1

  0
ENDBLK
  5
1D
330
1B
100
AcDbEntity
 67
     1
  8
0
100
AcDbBlockEnd
  0
BLOCK
  5
24
330
23
100
AcDbEntity
  8
0
100
AcDbBlockBegin
  2
*Paper_Space0
 70
     0
 10
0.0
 20
0.0
 30
0.0
  3
*Paper_Space0
  1

  0
ENDBLK
  5
25
330
23
100
AcDbEntity
  8
0
100
AcDbBlockEnd
  0
BLOCK
  5
229
330
228
100
AcDbEntity
  8
0
100
AcDbBlockBegin
  2
SW_NOTE_0
 70
     0
 10
0.0
 20
0.0
 30
0.0
  3
SW_NOTE_0
  1

  0
MTEXT
  5
22B
330
228
100
AcDbEntity
  8
O-TEKST
 62
     0
100
AcDbMText
 10
160.734375
 20
81.8558014755
 30
0.0
 40
63.5
 41
0.0
 71
     2
 72
     1
  1
SCHNITT
  7
SLDTEXTSTYLE0
 73
     1
 44
1.0
  0
MTEXT
  5
22C
330
228
100
AcDbEntity
  8
O-TEKST
 62
     0
100
AcDbMText
 10
385.5381760001
 20
53.4694577713
 30
0.0
 40
35.0
 41
0.0
 71
     2
 72
     1
  1
A-A
  7
SLDTEXTSTYLE0
 73
     1
 44
1.0
  0
ENDBLK
  5
22A
330
228
100
AcDbEntity
  8
0
100
AcDbBlockEnd
  0
BLOCK
  5
2AF
330
2AE
100
AcDbEntity
  8
0
100
AcDbBlockBegin
  2
SW_NOTE_1
 70
     0
 10
0.0
 20
0.0
 30
0.0
  3
SW_NOTE_1
  1

  0
MTEXT
  5
2B1
330
2AE
100
AcDbEntity
  8
O-TEKST
 62
     0
100
AcDbMText
 10
160.734375
 20
81.8558014755
 30
0.0
 40
63.5
 41
0.0
 71
     2
 72
     1
  1
SCHNITT
  7
SLDTEXTSTYLE0
 73
     1
 44
1.0
  0
MTEXT
  5
2B2
330
2AE
100
AcDbEntity
  8
O-TEKST
 62
     0
100
AcDbMText
 10
380.0694260001
 20
53.4694577713
 30
0.0
 40
35.0
 41
0.0
 71
     2
 72
     1
  1
B-B
  7
SLDTEXTSTYLE0
 73
     1
 44
1.0
  0
ENDBLK
  5
2B0
330
2AE
100
AcDbEntity
  8
0
100
AcDbBlockEnd
  0
ENDSEC
  0
SECTION
  2
ENTITIES
  0
LINE
  5
97
330
1F
100
AcDbEntity
  8
0
  6
Continuous
 62
     7
370
    25
100
AcDbLine
 10
1426.992161432
 20
689.2166284428
 30
0.0
 11
1426.992161432
 21
693.4716252194
 31
0.0
  0
ARC
  5
98
330
1F
100
AcDbEntity
  8
0
  6
Continuous
 62
     7
370
    25
100
AcDbCircle
 10
1431.9921569021
 20
689.2166276083
 30
0.0
 40
5.0
100
AcDbArc
 50
180.0
 51
0.0
  0
LINE
  5
99
330
1F
100
AcDbEntity
  8
0
  6
Continuous
 62
     7
370
    25
100
AcDbLine
 10
1436.9921518953
 20
693.4716252194
 30
0.0
 11
1436.9921518953
 21
689.2166284428
 31
0.0
  0
ARC
  5
9A
330
1F
100
AcDbEntity
  8
0
  6
Continuous
 62
     7
370
    25
100
AcDbCircle
 10
1431.9921569021
 20
699.7166276083
 30
0.0
 40
8.000000000000082
100
AcDbArc
 50
308.6821874535
 51
51.3178125465
  0
ARC
  5
9B
330
1F
100
AcDbEntity
  8
0
  6
Continuous
 62
     7
370
    25
100
AcDbCircle
 10
1431.9921569021
 20
1122.2166276083
 30
0.0
 40
5.0
100
AcDbArc
 50
0.0
 51
180.0
  0
LINE
  5
9C
330
1F
100
AcDbEntity
  8
0
  6
Continuous
 62
     7
370
    25
100
AcDbLine
 10
1426.992161432
 20
1122.2166267739
 30
0.0
 11
1426.992161432
 21
1117.9616299973
 31
0.0
  0
ARC
  5
9D
330
1F
100
AcDbEntity
  8
0
  6
Continuous
 62
     7
370
    25
100
AcDbCircle
 10
1431.9921569021
 20
1111.7166276083
 30
0.0
 40
8.000000000000082
100
AcDbArc
 50
128.6821874535
 51
231.3178125465
  0
LINE
  5
9E
330
1F
100
AcDbEntity
  8
0
  6
Continuous
 62
     7
370
    25
100
AcDbLine
 10
1075.9921569258
 20
569.7166321383
 30
0.0
 11
1075.9921569258
 21
1241.7166230784
 31
0.0
  0
ARC
  5
9F
330
1F
100
AcDbEntity
  8
0
  6
Continuous
 62
     7
370
    25
100
AcDbCircle
 10
1095.9921569021
 20
1241.7166276083
 30
0.0
 40
20.00000000000023
100
AcDbArc
 50
90.0
 51
180.0
  0
LINE
  5
A0
330
1F
100
AcDbEntity
  8
0
  6
Continuous
 62
     7
370
    25
100
AcDbLine
 10
1095.9921574683
 20
1261.7166338072
 30
0.0
 11
1767.9921521337
 21
1261.7166338072
 31
0.0
  0
ARC
  5
A1
330
1F
100
AcDbEntity
  8
0
  6
Continuous
 62
     7
370
    25
100
AcDbCircle
 10
1767.9921569021
 20
1241.7166276083
 30
0.0
 40
20.0
100
AcDbArc
 50
0.0
 51
90.0
  0
LINE
  5
A2
330
1F
100
AcDbEntity
  8
0
  6
Continuous
 62
     7
370
    25
100
AcDbLine
 10
1787.9921330602
 20
1241.7166230784
 30
0.0
 11
1787.9921330602
 21
569.7166321383
 31
0.0
  0
ARC
  5
A3
330
1F
100
AcDbEntity
  8
0
  6
Continuous
 62
     7
370
    25
100
AcDbCircle
 10
1767.9921569021
 20
569.7166276083
 30
0.0
 40
20.0
100
AcDbArc
 50
270.0
 51
0.0
  0
LINE
  5
A4
330
1F
100
AcDbEntity
  8
0
  6
Continuous
 62
     7
370
    25
100
AcDbLine
 10
1767.9921521337
 20
549.7166214095
 30
0.0
 11
1095.9921574683
 21
549.7166214095
 31
0.0
  0
ARC
  5
A5
330
1F
100
AcDbEntity
  8
0
  6
Continuous
 62
     7
370
    25
100
AcDbCircle
 10
1095.9921569021
 20
569.7166276083
 30
0.0
 40
20.00000000000023
100
AcDbArc
 50
180.0
 51
270.0
  0
LINE
  5
A6
330
1F
100
AcDbEntity
  8
0
  6
Continuous
 62
     7
370
    25
100
AcDbLine
 10
1436.9921518953
 20
710.216626297
 30
0.0
 11
1436.9921518953
 21
705.9616295205
 31
0.0
  0
ARC
  5
A7
330
1F
100
AcDbEntity
  8
0
  6
Continuous
 62
     7
370
    25
100
AcDbCircle
 10
1431.9921569021
 20
710.2166276083
 30
0.0
 40
5.0
100
AcDbArc
 50
0.0
 51
180.0
  0
LINE
  5
A8
330
1F
100
AcDbEntity
  8
0
  6
Continuous
 62
     7
370
    25
100
AcDbLine
 10
1426.992161432
 20
705.9616295205
 30
0.0
 11
1426.992161432
 21
710.216626297
 31
0.0
  0
ARC
  5
A9
330
1F
100
AcDbEntity
  8
0
  6
Continuous
 62
     7
370
    25
100
AcDbCircle
 10
1431.9921569021
 20
699.7166276083
 30
0.0
 40
8.000000000000082
100
AcDbArc
 50
128.6821874535
 51
231.3178125465
  0
LINE
  5
AA
330
1F
100
AcDbEntity
  8
0
  6
Continuous
 62
     7
370
    25
100
AcDbLine
 10
1426.992161432
 20
1105.4716256962
 30
0.0
 11
1426.992161432
 21
1101.2166289196
 31
0.0
  0
ARC
  5
AB
330
1F
100
AcDbEntity
  8
0
  6
Continuous
 62
     7
370
    25
100
AcDbCircle
 10
1431.9921569021
 20
1101.2166276083
 30
0.0
 40
5.0
100
AcDbArc
 50
180.0
 51
0.0
  0
LINE
  5
AC
330
1F
100
AcDbEntity
  8
0
  6
Continuous
 62
     7
370
    25
100
AcDbLine
 10
1436.9921518953
 20
1101.2166289196
 30
0.0
 11
1436.9921518953
 21
1105.4716256962
 31
0.0
  0
ARC
  5
AD
330
1F
100
AcDbEntity
  8
0
  6
Continuous
 62
     7
370
    25
100
AcDbCircle
 10
1431.9921569021
 20
1111.7166276083
 30
0.0
 40
8.000000000000082
100
AcDbArc
 50
308.6821874535
 51
51.3178125465
  0
LINE
  5
AE
330
1F
100
AcDbEntity
  8
0
  6
Continuous
 62
     7
370
    25
100
AcDbLine
 10
1436.9921518953
 20
1117.9616299973
 30
0.0
 11
1436.9921518953
 21
1122.2166267739
 31
0.0
  0
LINE
  5
AF
330
1F
100
AcDbEntity
  8
0
  6
Continuous
 62
     7
370
    25
100
AcDbLine
 10
713.9921619089
 20
689.2166284428
 30
0.0
 11
713.9921619089
 21
693.4716252194
 31
0.0
  0
ARC
  5
B0
330
1F
100
AcDbEntity
  8
0
  6
Continuous
 62
     7
370
    25
100
AcDbCircle
 10
718.9921569021
 20
689.2166276083
 30
0.0
 40
5.0
100
AcDbArc
 50
180.0
 51
0.0
  0
LINE
  5
B1
330
1F
100
AcDbEntity
  8
0
  6
Continuous
 62
     7
370
    25
100
AcDbLine
 10
723.9921523721
 20
693.4716252194
 30
0.0
 11
723.9921523721
 21
689.2166284428
 31
0.0
  0
ARC
  5
B2
330
1F
100
AcDbEntity
  8
0
  6
Continuous
 62
     7
370
    25
100
AcDbCircle
 10
718.9921569021
 20
699.7166276083
 30
0.0
 40
8.000000000000082
100
AcDbArc
 50
308.6821874535
 51
51.3178125465
  0
ARC
  5
B3
330
1F
100
AcDbEntity
  8
0
  6
Continuous
 62
     7
370
    25
100
AcDbCircle
 10
718.9921569021
 20
710.2166276083
 30
0.0
 40
5.0
100
AcDbArc
 50
0.0
 51
180.0
  0
LINE
  5
B4
330
1F
100
AcDbEntity
  8
0
  6
Continuous
 62
     7
370
    25
100
AcDbLine
 10
713.9921619089
 20
705.9616295205
 30
0.0
 11
713.9921619089
 21
710.216626297
 31
0.0
  0
ARC
  5
B5
330
1F
100
AcDbEntity
  8
0
  6
Continuous
 62
     7
370
    25
100
AcDbCircle
 10
718.9921569021
 20
699.7166276083
 30
0.0
 40
8.000000000000082
100
AcDbArc
 50
128.6821874535
 51
231.3178125465
  0
LINE
  5
B6
330
1F
100
AcDbEntity
  8
0
  6
Continuous
 62
     7
370
    25
100
AcDbLine
 10
362.9921807439
 20
569.7166321383
 30
0.0
 11
362.9921807439
 21
1241.7166230784
 31
0.0
  0
ARC
  5
B7
330
1F
100
AcDbEntity
  8
0
  6
Continuous
 62
     7
370
    25
100
AcDbCircle
 10
382.9921569021
 20
1241.7166276083
 30
0.0
 40
20.00000000000006
100
AcDbArc
 50
90.0
 51
180.0
  0
LINE
  5
B8
330
1F
100
AcDbEntity
  8
0
  6
Continuous
 62
     7
370
    25
100
AcDbLine
 10
382.9921616705
 20
1261.7166338072
 30
0.0
 11
1054.9921563358
 21
1261.7166338072
 31
0.0
  0
ARC
  5
B9
330
1F
100
AcDbEntity
  8
0
  6
Continuous
 62
     7
370
    25
100
AcDbCircle
 10
1054.9921569021
 20
1241.7166276083
 30
0.0
 40
20.0
100
AcDbArc
 50
0.0
 51
90.0
  0
LINE
  5
BA
330
1F
100
AcDbEntity
  8
0
  6
Continuous
 62
     7
370
    25
100
AcDbLine
 10
1074.9921568783
 20
1241.7166230784
 30
0.0
 11
1074.9921568783
 21
569.7166321383
 31
0.0
  0
ARC
  5
BB
330
1F
100
AcDbEntity
  8
0
  6
Continuous
 62
     7
370
    25
100
AcDbCircle
 10
1054.9921569021
 20
569.7166276083
 30
0.0
 40
20.00000000000011
100
AcDbArc
 50
270.0
 51
0.0
  0
ARC
  5
BC
330
1F
100
AcDbEntity
  8
0
  6
Continuous
 62
     7
370
    25
100
AcDbCircle
 10
382.9921569021
 20
569.7166276083
 30
0.0
 40
20.00000000000011
100
AcDbArc
 50
180.0
 51
270.0
  0
LINE
  5
BD
330
1F
100
AcDbEntity
  8
0
  6
Continuous
 62
     7
370
    25
100
AcDbLine
 10
723.9921523721
 20
710.216626297
 30
0.0
 11
723.9921523721
 21
705.9616295205
 31
0.0
  0
LINE
  5
BE
330
1F
100
AcDbEntity
  8
0
  6
Continuous
 62
     7
370
    25
100
AcDbLine
 10
713.9921619089
 20
1122.2166267739
 30
0.0
 11
713.9921619089
 21
1117.9616299973
 31
0.0
  0
ARC
  5
BF
330
1F
100
AcDbEntity
  8
0
  6
Continuous
 62
     7
370
    25
100
AcDbCircle
 10
718.9921569021
 20
1111.7166276083
 30
0.0
 40
8.000000000000082
100
AcDbArc
 50
128.6821874535
 51
231.3178125465
  0
LINE
  5
C0
330
1F
100
AcDbEntity
  8
0
  6
Continuous
 62
     7
370
    25
100
AcDbLine
 10
1054.9921563358
 20
549.7166214095
 30
0.0
 11
382.9921616705
 21
549.7166214095
 31
0.0
  0
LINE
  5
C1
330
1F
100
AcDbEntity
  8
0
  6
Continuous
 62
     7
370
    25
100
AcDbLine
 10
723.9921523721
 20
1117.9616299973
 30
0.0
 11
723.9921523721
 21
1122.2166267739
 31
0.0
  0
LINE
  5
C2
330
1F
100
AcDbEntity
  8
0
  6
Continuous
 62
     7
370
    25
100
AcDbLine
 10
713.9921619089
 20
1105.4716256962
 30
0.0
 11
713.9921619089
 21
1101.2166289196
 31
0.0
  0
ARC
  5
C3
330
1F
100
AcDbEntity
  8
0
  6
Continuous
 62
     7
370
    25
100
AcDbCircle
 10
718.9921569021
 20
1101.2166276083
 30
0.0
 40
5.0
100
AcDbArc
 50
180.0
 51
0.0
  0
LINE
  5
C4
330
1F
100
AcDbEntity
  8
0
  6
Continuous
 62
     7
370
    25
100
AcDbLine
 10
723.9921523721
 20
1101.2166289196
 30
0.0
 11
723.9921523721
 21
1105.4716256962
 31
0.0
  0
ARC
  5
C5
330
1F
100
AcDbEntity
  8
0
  6
Continuous
 62
     7
370
    25
100
AcDbCircle
 10
718.9921569021
 20
1111.7166276083
 30
0.0
 40
8.000000000000082
100
AcDbArc
 50
308.6821874535
 51
51.3178125465
  0
ARC
  5
C6
330
1F
100
AcDbEntity
  8
0
  6
Continuous
 62
     7
370
    25
100
AcDbCircle
 10
718.9921569021
 20
1122.2166276083
 30
0.0
 40
5.0
100
AcDbArc
 50
0.0
 51
180.0
  0
LINE
  5
C7
330
1F
100
AcDbEntity
  8
0
  6
Continuous
 62
     7
370
    25
100
AcDbLine
 10
713.7006653936
 20
705.7166246281
 30
0.0
 11
724.2836488874
 21
705.7166246281
 31
0.0
  0
LINE
  5
C8
330
1F
100
AcDbEntity
  8
0
  6
Continuous
 62
     7
370
    25
100
AcDbLine
 10
1074.9921568783
 20
705.7166246281
 30
0.0
 11
1075.9921569258
 21
705.7166246281
 31
0.0
  0
LINE
  5
C9
330
1F
100
AcDbEntity
  8
0
  6
Continuous
 62
     7
370
    25
100
AcDbLine
 10
1426.7006649168
 20
705.7166246281
 30
0.0
 11
1437.2836484106
 21
705.7166246281
 31
0.0
  0
LINE
  5
CA
330
1F
100
AcDbEntity
  8
0
  6
Continuous
 62
     7
370
    25
100
AcDbLine
 10
1437.2836484106
 20
1105.7166305886
 30
0.0
 11
1426.7006649168
 21
1105.7166305886
 31
0.0
  0
LINE
  5
CB
330
1F
100
AcDbEntity
  8
0
  6
Continuous
 62
     7
370
    25
100
AcDbLine
 10
1075.9921569258
 20
1105.7166305886
 30
0.0
 11
1074.9921568783
 21
1105.7166305886
 31
0.0
  0
LINE
  5
CC
330
1F
100
AcDbEntity
  8
0
  6
Continuous
 62
     7
370
    25
100
AcDbLine
 10
724.2836488874
 20
1105.7166305886
 30
0.0
 11
713.7006653936
 21
1105.7166305886
 31
0.0
  0
LINE
  5
CD
330
1F
100
AcDbEntity
  8
0
  6
Continuous
 62
     7
370
    25
100
AcDbLine
 10
1781.4921273382
 20
549.7166214095
 30
0.0
 11
1781.4921273382
 21
554.9602804289
 31
0.0
  0
LINE
  5
CE
330
1F
100
AcDbEntity
  8
0
  6
Continuous
 62
     7
370
    25
100
AcDbLine
 10
1781.4921273382
 20
1256.4729747878
 30
0.0
 11
1781.4921273382
 21
1261.7166338072
 31
0.0
  0
LINE
  5
CF
330
1F
100
AcDbEntity
  8
0
  6
Continuous
 62
     7
370
    25
100
AcDbLine
 10
369.492186466
 20
549.7166214095
 30
0.0
 11
382.9921616705
 21
549.7166214095
 31
0.0
  0
LINE
  5
D0
330
1F
100
AcDbEntity
  8
0
  6
Continuous
 62
     7
370
    25
100
AcDbLine
 10
1054.9921563358
 20
549.7166214095
 30
0.0
 11
1095.9921574683
 21
549.7166214095
 31
0.0
  0
LINE
  5
D1
330
1F
100
AcDbEntity
  8
0
  6
Continuous
 62
     7
370
    25
100
AcDbLine
 10
1767.9921521337
 20
549.7166214095
 30
0.0
 11
1781.4921273382
 21
549.7166214095
 31
0.0
  0
LINE
  5
D2
330
1F
100
AcDbEntity
  8
0
  6
Continuous
 62
     7
370
    25
100
AcDbLine
 10
369.492186466
 20
1261.7166338072
 30
0.0
 11
369.492186466
 21
1256.4729747878
 31
0.0
  0
LINE
  5
D3
330
1F
100
AcDbEntity
  8
0
  6
Continuous
 62
     7
370
    25
100
AcDbLine
 10
369.492186466
 20
554.9602804289
 30
0.0
 11
369.492186466
 21
549.7166214095
 31
0.0
  0
LINE
  5
D4
330
1F
100
AcDbEntity
  8
0
  6
Continuous
 62
     7
370
    25
100
AcDbLine
 10
1781.4921273382
 20
1261.7166338072
 30
0.0
 11
1767.9921521337
 21
1261.7166338072
 31
0.0
  0
LINE
  5
D5
330
1F
100
AcDbEntity
  8
0
  6
Continuous
 62
     7
370
    25
100
AcDbLine
 10
1095.9921574683
 20
1261.7166338072
 30
0.0
 11
1054.9921563358
 21
1261.7166338072
 31
0.0
  0
LINE
  5
D6
330
1F
100
AcDbEntity
  8
0
  6
Continuous
 62
     7
370
    25
100
AcDbLine
 10
382.9921616705
 20
1261.7166338072
 30
0.0
 11
369.492186466
 21
1261.7166338072
 31
0.0
  0
LINE
  5
D7
330
1F
100
AcDbEntity
  8
0
  6
Continuous
 62
     7
370
    25
100
AcDbLine
 10
1075.9921569258
 20
1205.7166395293
 30
0.0
 11
1074.9921568783
 21
1205.7166395293
 31
0.0
  0
LINE
  5
D8
330
1F
100
AcDbEntity
  8
0
  6
Continuous
 62
     7
370
    25
100
AcDbLine
 10
1074.9921568783
 20
605.7166156874
 30
0.0
 11
1075.9921569258
 21
605.7166156874
 31
0.0
  0
LINE
  5
D9
330
1F
100
AcDbEntity
  8
0
  6
Continuous
 62
     7
370
    25
100
AcDbLine
 10
1783.939613262
 20
547.2691950903
 30
0.0
 11
1781.4921273382
 21
549.7166214095
 31
0.0
  0
LINE
  5
DA
330
1F
100
AcDbEntity
  8
0
  6
Continuous
 62
     7
370
    25
100
AcDbLine
 10
367.0447005422
 20
547.2691950903
 30
0.0
 11
1783.939613262
 21
547.2691950903
 31
0.0
  0
LINE
  5
DB
330
1F
100
AcDbEntity
  8
0
  6
Continuous
 62
     7
370
    25
100
AcDbLine
 10
367.0447005422
 20
547.2691950903
 30
0.0
 11
369.492186466
 21
549.7166214095
 31
0.0
  0
LINE
  5
DC
330
1F
100
AcDbEntity
  8
0
  6
Continuous
 62
     7
370
    25
100
AcDbLine
 10
367.0447005422
 20
1264.1640601264
 30
0.0
 11
369.492186466
 21
1261.7166338072
 31
0.0
  0
LINE
  5
DD
330
1F
100
AcDbEntity
  8
0
  6
Continuous
 62
     7
370
    25
100
AcDbLine
 10
1783.939613262
 20
1264.1640601264
 30
0.0
 11
367.0447005422
 21
1264.1640601264
 31
0.0
  0
LINE
  5
DE
330
1F
100
AcDbEntity
  8
0
  6
Continuous
 62
     7
370
    25
100
AcDbLine
 10
1783.939613262
 20
1264.1640601264
 30
0.0
 11
1781.4921273382
 21
1261.7166338072
 31
0.0
  0
LINE
  5
DF
330
1F
100
AcDbEntity
  8
0
  6
Continuous
 62
     7
370
    25
100
AcDbLine
 10
1783.939613262
 20
547.2691950903
 30
0.0
 11
1783.939613262
 21
557.6468703852
 31
0.0
  0
LINE
  5
E0
330
1F
100
AcDbEntity
  8
0
  6
Continuous
 62
     7
370
    25
100
AcDbLine
 10
1783.939613262
 20
1253.7863848315
 30
0.0
 11
1783.939613262
 21
1264.1640601264
 31
0.0
  0
LINE
  5
E1
330
1F
100
AcDbEntity
  8
0
  6
Continuous
 62
     7
370
    25
100
AcDbLine
 10
367.0447005422
 20
1264.1640601264
 30
0.0
 11
367.0447005422
 21
1253.7863848315
 31
0.0
  0
LINE
  5
E2
330
1F
100
AcDbEntity
  8
0
  6
Continuous
 62
     7
370
    25
100
AcDbLine
 10
367.0447005422
 20
557.6468703852
 30
0.0
 11
367.0447005422
 21
547.2691950903
 31
0.0
  0
LINE
  5
E3
330
1F
100
AcDbEntity
  8
0
  6
Continuous
 62
     7
370
    25
100
AcDbLine
 10
325.4921569021
 20
505.7166216479
 30
0.0
 11
325.4921569021
 21
1305.7166335688
 31
0.0
  0
LINE
  5
E4
330
1F
100
AcDbEntity
  8
0
  6
Continuous
 62
     7
370
    25
100
AcDbLine
 10
1825.4921569021
 20
505.7166216479
 30
0.0
 11
325.4921569021
 21
505.7166216479
 31
0.0
  0
LINE
  5
E5
330
1F
100
AcDbEntity
  8
0
  6
Continuous
 62
     7
370
    25
100
AcDbLine
 10
1825.4921569021
 20
1305.7166335688
 30
0.0
 11
1825.4921569021
 21
505.7166216479
 31
0.0
  0
LINE
  5
E6
330
1F
100
AcDbEntity
  8
0
  6
Continuous
 62
     7
370
    25
100
AcDbLine
 10
325.4921569021
 20
1305.7166335688
 30
0.0
 11
1825.4921569021
 21
1305.7166335688
 31
0.0
  0
LINE
  5
E7
330
1F
100
AcDbEntity
  8
0
  6
PHANTOM
 62
     7
370
    35
100
AcDbLine
 10
1075.4921569021
 20
1410.6145924558
 30
0.0
 11
1075.4921569021
 21
400.8186627609
 31
0.0
  0
LINE
  5
E8
330
1F
100
AcDbEntity
  8
0
  6
Continuous
 62
     7
370
    35
100
AcDbLine
 10
955.4921569021
 20
1390.6145924558
 30
0.0
 11
1075.4921569021
 21
1390.6145924558
 31
0.0
  0
SOLID
  5
E9
330
1F
100
AcDbEntity
  8
0
  6
Continuous
 62
     7
370
    35
100
AcDbTrace
 10
1075.4921569021
 20
1390.6145924558
 30
0.0
 11
1015.4921569021
 21
1405.6145924558
 31
0.0
 12
1015.4921569021
 22
1375.6145924558
 32
0.0
 13
1015.4921569021
 23
1375.6145924558
 33
0.0
  0
LINE
  5
EA
330
1F
100
AcDbEntity
  8
0
  6
Continuous
 62
     7
370
    35
100
AcDbLine
 10
955.4921569021
 20
420.8186627609
 30
0.0
 11
1075.4921569021
 21
420.8186627609
 31
0.0
  0
SOLID
  5
EB
330
1F
100
AcDbEntity
  8
0
  6
Continuous
 62
     7
370
    35
100
AcDbTrace
 10
1075.4921569021
 20
420.8186627609
 30
0.0
 11
1015.4921569021
 21
435.8186627609
 31
0.0
 12
1015.4921569021
 22
405.8186627609
 32
0.0
 13
1015.4921569021
 23
405.8186627609
 33
0.0
  0
MTEXT
  5
ED
330
1F
100
AcDbEntity
  8
0
  6
Continuous
 62
     7
100
AcDbMText
 10
955.4921569021
 20
1491.4553975547
 30
0.0
 40
63.5
 41
0.0
 71
     1
 72
     1
  1
A
  7
SLDTEXTSTYLE0
 73
     1
 44
1.0
  0
MTEXT
  5
EE
330
1F
100
AcDbEntity
  8
0
  6
Continuous
 62
     7
100
AcDbMText
 10
955.4921569021
 20
387.2386746629
 30
0.0
 40
63.5
 41
0.0
 71
     1
 72
     1
  1
A
  7
SLDTEXTSTYLE0
 73
     1
 44
1.0
  0
LINE
  5
EF
330
1F
100
AcDbEntity
  8
0
  6
PHANTOM
 62
     7
370
    35
100
AcDbLine
 10
2005.4921569021
 20
905.7166276083
 30
0.0
 11
145.4921569021
 21
905.7166276083
 31
0.0
  0
LINE
  5
F0
330
1F
100
AcDbEntity
  8
0
  6
Continuous
 62
     7
370
    35
100
AcDbLine
 10
1985.4921569021
 20
785.7166276083
 30
0.0
 11
1985.4921569021
 21
905.7166276083
 31
0.0
  0
SOLID
  5
F1
330
1F
100
AcDbEntity
  8
0
  6
Continuous
 62
     7
370
    35
100
AcDbTrace
 10
1985.4921569021
 20
905.7166276083
 30
0.0
 11
1970.4921569021
 21
845.7166276083
 31
0.0
 12
2000.4921569021
 22
845.7166276083
 32
0.0
 13
2000.4921569021
 23
845.7166276083
 33
0.0
  0
LINE
  5
F2
330
1F
100
AcDbEntity
  8
0
  6
Continuous
 62
     7
370
    35
100
AcDbLine
 10
165.4921569021
 20
785.7166276083
 30
0.0
 11
165.4921569021
 21
905.7166276083
 31
0.0
  0
SOLID
  5
F3
330
1F
100
AcDbEntity
  8
0
  6
Continuous
 62
     7
370
    35
100
AcDbTrace
 10
165.4921569021
 20
905.7166276083
 30
0.0
 11
150.4921569021
 21
845.7166276083
 31
0.0
 12
180.4921569021
 22
845.7166276083
 32
0.0
 13
180.4921569021
 23
845.7166276083
 33
0.0
  0
MTEXT
  5
F4
330
1F
100
AcDbEntity
  8
0
  6
Continuous
 62
     7
100
AcDbMText
 10
2004.9297105724
 20
886.5574327073
 30
0.0
 40
63.5
 41
0.0
 71
     1
 72
     1
  1
B
  7
SLDTEXTSTYLE0
 73
     1
 44
1.0
  0
MTEXT
  5
F5
330
1F
100
AcDbEntity
  8
0
  6
Continuous
 62
     7
100
AcDbMText
 10
97.4607190561
 20
886.5574327073
 30
0.0
 40
63.5
 41
0.0
 71
     1
 72
     1
  1
B
  7
SLDTEXTSTYLE0
 73
     1
 44
1.0
  0
LINE
  5
F6
330
1F
100
AcDbEntity
  8
0
  6
Continuous
 62
     7
370
    25
100
AcDbLine
 10
2452.5246625992
 20
592.9666159258
 30
0.0
 11
2452.5246625992
 21
590.7166299925
 31
0.0
  0
LINE
  5
F7
330
1F
100
AcDbEntity
  8
0
  6
Continuous
 62
     7
370
    25
100
AcDbLine
 10
2452.5246625992
 20
592.9666159258
 30
0.0
 11
2510.024659917
 21
592.9666159258
 31
0.0
  0
LINE
  5
F8
330
1F
100
AcDbEntity
  8
0
  6
Continuous
 62
     7
370
    25
100
AcDbLine
 10
2510.024659917
 20
592.9666159258
 30
0.0
 11
2510.024659917
 21
590.7166299925
 31
0.0
  0
LINE
  5
F9
330
1F
100
AcDbEntity
  8
0
  6
Continuous
 62
     7
370
    25
100
AcDbLine
 10
2510.024659917
 20
590.7166299925
 30
0.0
 11
2452.5246625992
 21
590.7166299925
 31
0.0
  0
LINE
  5
FA
330
1F
100
AcDbEntity
  8
0
  6
Continuous
 62
     7
370
    25
100
AcDbLine
 10
2535.0246621522
 20
590.7166299925
 30
0.0
 11
2535.0246621522
 21
592.9666159258
 31
0.0
  0
LINE
  5
FB
330
1F
100
AcDbEntity
  8
0
  6
Continuous
 62
     7
370
    25
100
AcDbLine
 10
2532.5362837168
 20
592.9666159258
 30
0.0
 11
2535.0246621522
 21
592.9666159258
 31
0.0
  0
LINE
  5
FC
330
1F
100
AcDbEntity
  8
0
  6
Continuous
 62
     7
370
    25
100
AcDbLine
 10
2558.5246613475
 20
592.9666159258
 30
0.0
 11
2558.5246613475
 21
590.7166299925
 31
0.0
  0
LINE
  5
FD
330
1F
100
AcDbEntity
  8
0
  6
Continuous
 62
     7
370
    25
100
AcDbLine
 10
2535.0246621522
 20
592.9666159258
 30
0.0
 11
2558.5246613475
 21
592.9666159258
 31
0.0
  0
LINE
  5
FE
330
1F
100
AcDbEntity
  8
0
  6
Continuous
 62
     7
370
    25
100
AcDbLine
 10
2558.5246613475
 20
590.7166299925
 30
0.0
 11
2535.0246621522
 21
590.7166299925
 31
0.0
  0
LINE
  5
FF
330
1F
100
AcDbEntity
  8
0
  6
Continuous
 62
     7
370
    25
100
AcDbLine
 10
2583.5246607887
 20
590.7166299925
 30
0.0
 11
2583.5246607887
 21
592.9666159258
 31
0.0
  0
LINE
  5
100
330
1F
100
AcDbEntity
  8
0
  6
Continuous
 62
     7
370
    25
100
AcDbLine
 10
2581.0362832847
 20
592.9666159258
 30
0.0
 11
2583.5246607887
 21
592.9666159258
 31
0.0
  0
LINE
  5
101
330
1F
100
AcDbEntity
  8
0
  6
Continuous
 62
     7
370
    25
100
AcDbLine
 10
2607.0246590527
 20
592.9666159258
 30
0.0
 11
2607.0246590527
 21
590.7166299925
 31
0.0
  0
LINE
  5
102
330
1F
100
AcDbEntity
  8
0
  6
Continuous
 62
     7
370
    25
100
AcDbLine
 10
2583.5246607887
 20
592.9666159258
 30
0.0
 11
2607.0246590527
 21
592.9666159258
 31
0.0
  0
LINE
  5
103
330
1F
100
AcDbEntity
  8
0
  6
Continuous
 62
     7
370
    25
100
AcDbLine
 10
2607.0246590527
 20
590.7166299925
 30
0.0
 11
2583.5246607887
 21
590.7166299925
 31
0.0
  0
LINE
  5
104
330
1F
100
AcDbEntity
  8
0
  6
Continuous
 62
     7
370
    25
100
AcDbLine
 10
2632.0246612879
 20
590.7166299925
 30
0.0
 11
2632.0246612879
 21
592.9666159258
 31
0.0
  0
LINE
  5
105
330
1F
100
AcDbEntity
  8
0
  6
Continuous
 62
     7
370
    25
100
AcDbLine
 10
2629.5362828525
 20
592.9666159258
 30
0.0
 11
2632.0246612879
 21
592.9666159258
 31
0.0
  0
LINE
  5
106
330
1F
100
AcDbEntity
  8
0
  6
Continuous
 62
     7
370
    25
100
AcDbLine
 10
2655.5246642085
 20
592.9666159258
 30
0.0
 11
2655.5246642085
 21
590.7166299925
 31
0.0
  0
LINE
  5
107
330
1F
100
AcDbEntity
  8
0
  6
Continuous
 62
     7
370
    25
100
AcDbLine
 10
2632.0246612879
 20
592.9666159258
 30
0.0
 11
2655.5246642085
 21
592.9666159258
 31
0.0
  0
LINE
  5
108
330
1F
100
AcDbEntity
  8
0
  6
Continuous
 62
     7
370
    25
100
AcDbLine
 10
2655.5246642085
 20
590.7166299925
 30
0.0
 11
2632.0246612879
 21
590.7166299925
 31
0.0
  0
LINE
  5
109
330
1F
100
AcDbEntity
  8
0
  6
Continuous
 62
     7
370
    25
100
AcDbLine
 10
2680.5246627184
 20
590.7166299925
 30
0.0
 11
2680.5246627184
 21
592.9666159258
 31
0.0
  0
LINE
  5
10A
330
1F
100
AcDbEntity
  8
0
  6
Continuous
 62
     7
370
    25
100
AcDbLine
 10
2678.0362805578
 20
592.9666159258
 30
0.0
 11
2680.5246627184
 21
592.9666159258
 31
0.0
  0
LINE
  5
10B
330
1F
100
AcDbEntity
  8
0
  6
Continuous
 62
     7
370
    25
100
AcDbLine
 10
2704.0246581885
 20
592.9666159258
 30
0.0
 11
2704.0246581885
 21
590.7166299925
 31
0.0
  0
LINE
  5
10C
330
1F
100
AcDbEntity
  8
0
  6
Continuous
 62
     7
370
    25
100
AcDbLine
 10
2680.5246627184
 20
592.9666159258
 30
0.0
 11
2704.0246581885
 21
592.9666159258
 31
0.0
  0
LINE
  5
10D
330
1F
100
AcDbEntity
  8
0
  6
Continuous
 62
     7
370
    25
100
AcDbLine
 10
2704.0246581885
 20
590.7166299925
 30
0.0
 11
2680.5246627184
 21
590.7166299925
 31
0.0
  0
LINE
  5
10E
330
1F
100
AcDbEntity
  8
0
  6
Continuous
 62
     7
370
    25
100
AcDbLine
 10
2729.0246641489
 20
590.7166299925
 30
0.0
 11
2729.0246641489
 21
592.9666159258
 31
0.0
  0
LINE
  5
10F
330
1F
100
AcDbEntity
  8
0
  6
Continuous
 62
     7
370
    25
100
AcDbLine
 10
2726.5362894389
 20
592.9666159258
 30
0.0
 11
2729.0246641489
 21
592.9666159258
 31
0.0
  0
LINE
  5
110
330
1F
100
AcDbEntity
  8
0
  6
Continuous
 62
     7
370
    25
100
AcDbLine
 10
2752.524659619
 20
592.9666159258
 30
0.0
 11
2752.524659619
 21
590.7166299925
 31
0.0
  0
LINE
  5
111
330
1F
100
AcDbEntity
  8
0
  6
Continuous
 62
     7
370
    25
100
AcDbLine
 10
2729.0246641489
 20
592.9666159258
 30
0.0
 11
2752.524659619
 21
592.9666159258
 31
0.0
  0
LINE
  5
112
330
1F
100
AcDbEntity
  8
0
  6
Continuous
 62
     7
370
    25
100
AcDbLine
 10
2752.524659619
 20
590.7166299925
 30
0.0
 11
2729.0246641489
 21
590.7166299925
 31
0.0
  0
LINE
  5
113
330
1F
100
AcDbEntity
  8
0
  6
Continuous
 62
     7
370
    25
100
AcDbLine
 10
2777.5246655794
 20
590.7166299925
 30
0.0
 11
2777.5246655794
 21
592.9666159258
 31
0.0
  0
LINE
  5
114
330
1F
100
AcDbEntity
  8
0
  6
Continuous
 62
     7
370
    25
100
AcDbLine
 10
2775.0362759682
 20
592.9666159258
 30
0.0
 11
2777.5246655794
 21
592.9666159258
 31
0.0
  0
LINE
  5
115
330
1F
100
AcDbEntity
  8
0
  6
Continuous
 62
     7
370
    25
100
AcDbLine
 10
2801.0246610495
 20
592.9666159258
 30
0.0
 11
2801.0246610495
 21
590.7166299925
 31
0.0
  0
LINE
  5
116
330
1F
100
AcDbEntity
  8
0
  6
Continuous
 62
     7
370
    25
100
AcDbLine
 10
2777.5246655794
 20
592.9666159258
 30
0.0
 11
2801.0246610495
 21
592.9666159258
 31
0.0
  0
LINE
  5
117
330
1F
100
AcDbEntity
  8
0
  6
Continuous
 62
     7
370
    25
100
AcDbLine
 10
2801.0246610495
 20
590.7166299925
 30
0.0
 11
2777.5246655794
 21
590.7166299925
 31
0.0
  0
LINE
  5
118
330
1F
100
AcDbEntity
  8
0
  6
Continuous
 62
     7
370
    25
100
AcDbLine
 10
2826.02466701
 20
590.7166299925
 30
0.0
 11
2826.02466701
 21
592.9666159258
 31
0.0
  0
LINE
  5
119
330
1F
100
AcDbEntity
  8
0
  6
Continuous
 62
     7
370
    25
100
AcDbLine
 10
2823.5362922999
 20
592.9666159258
 30
0.0
 11
2826.02466701
 21
592.9666159258
 31
0.0
  0
LINE
  5
11A
330
1F
100
AcDbEntity
  8
0
  6
Continuous
 62
     7
370
    25
100
AcDbLine
 10
2849.52466248
 20
592.9666159258
 30
0.0
 11
2849.52466248
 21
590.7166299925
 31
0.0
  0
LINE
  5
11B
330
1F
100
AcDbEntity
  8
0
  6
Continuous
 62
     7
370
    25
100
AcDbLine
 10
2826.02466701
 20
592.9666159258
 30
0.0
 11
2849.52466248
 21
592.9666159258
 31
0.0
  0
LINE
  5
11C
330
1F
100
AcDbEntity
  8
0
  6
Continuous
 62
     7
370
    25
100
AcDbLine
 10
2849.52466248
 20
590.7166299925
 30
0.0
 11
2826.02466701
 21
590.7166299925
 31
0.0
  0
LINE
  5
11D
330
1F
100
AcDbEntity
  8
0
  6
Continuous
 62
     7
370
    25
100
AcDbLine
 10
2874.5246684405
 20
590.7166299925
 30
0.0
 11
2874.5246684405
 21
592.9666159258
 31
0.0
  0
LINE
  5
11E
330
1F
100
AcDbEntity
  8
0
  6
Continuous
 62
     7
370
    25
100
AcDbLine
 10
2872.0362937304
 20
592.9666159258
 30
0.0
 11
2874.5246684405
 21
592.9666159258
 31
0.0
  0
LINE
  5
11F
330
1F
100
AcDbEntity
  8
0
  6
Continuous
 62
     7
370
    25
100
AcDbLine
 10
2898.0246639105
 20
592.9666159258
 30
0.0
 11
2898.0246639105
 21
590.7166299925
 31
0.0
  0
LINE
  5
120
330
1F
100
AcDbEntity
  8
0
  6
Continuous
 62
     7
370
    25
100
AcDbLine
 10
2874.5246684405
 20
592.9666159258
 30
0.0
 11
2898.0246639105
 21
592.9666159258
 31
0.0
  0
LINE
  5
121
330
1F
100
AcDbEntity
  8
0
  6
Continuous
 62
     7
370
    25
100
AcDbLine
 10
2898.0246639105
 20
590.7166299925
 30
0.0
 11
2874.5246684405
 21
590.7166299925
 31
0.0
  0
LINE
  5
122
330
1F
100
AcDbEntity
  8
0
  6
Continuous
 62
     7
370
    25
100
AcDbLine
 10
2923.024669871
 20
590.7166299925
 30
0.0
 11
2923.024669871
 21
592.9666159258
 31
0.0
  0
LINE
  5
123
330
1F
100
AcDbEntity
  8
0
  6
Continuous
 62
     7
370
    25
100
AcDbLine
 10
2920.5362951609
 20
592.9666159258
 30
0.0
 11
2923.024669871
 21
592.9666159258
 31
0.0
  0
LINE
  5
124
330
1F
100
AcDbEntity
  8
0
  6
Continuous
 62
     7
370
    25
100
AcDbLine
 10
2946.524665341
 20
592.9666159258
 30
0.0
 11
2946.524665341
 21
590.7166299925
 31
0.0
  0
LINE
  5
125
330
1F
100
AcDbEntity
  8
0
  6
Continuous
 62
     7
370
    25
100
AcDbLine
 10
2923.024669871
 20
592.9666159258
 30
0.0
 11
2946.524665341
 21
592.9666159258
 31
0.0
  0
LINE
  5
126
330
1F
100
AcDbEntity
  8
0
  6
Continuous
 62
     7
370
    25
100
AcDbLine
 10
2946.524665341
 20
590.7166299925
 30
0.0
 11
2923.024669871
 21
590.7166299925
 31
0.0
  0
LINE
  5
127
330
1F
100
AcDbEntity
  8
0
  6
Continuous
 62
     7
370
    25
100
AcDbLine
 10
2971.5246713015
 20
590.7166299925
 30
0.0
 11
2971.5246713015
 21
592.9666159258
 31
0.0
  0
LINE
  5
128
330
1F
100
AcDbEntity
  8
0
  6
Continuous
 62
     7
370
    25
100
AcDbLine
 10
2969.0362965914
 20
592.9666159258
 30
0.0
 11
2971.5246713015
 21
592.9666159258
 31
0.0
  0
LINE
  5
129
330
1F
100
AcDbEntity
  8
0
  6
Continuous
 62
     7
370
    25
100
AcDbLine
 10
2995.0246667715
 20
592.9666159258
 30
0.0
 11
2995.0246667715
 21
590.7166299925
 31
0.0
  0
LINE
  5
12A
330
1F
100
AcDbEntity
  8
0
  6
Continuous
 62
     7
370
    25
100
AcDbLine
 10
2971.5246713015
 20
592.9666159258
 30
0.0
 11
2995.0246667715
 21
592.9666159258
 31
0.0
  0
LINE
  5
12B
330
1F
100
AcDbEntity
  8
0
  6
Continuous
 62
     7
370
    25
100
AcDbLine
 10
2995.0246667715
 20
590.7166299925
 30
0.0
 11
2971.5246713015
 21
590.7166299925
 31
0.0
  0
LINE
  5
12C
330
1F
100
AcDbEntity
  8
0
  6
Continuous
 62
     7
370
    25
100
AcDbLine
 10
3043.5246682021
 20
592.9666159258
 30
0.0
 11
3043.5246682021
 21
590.7166299925
 31
0.0
  0
LINE
  5
12D
330
1F
100
AcDbEntity
  8
0
  6
Continuous
 62
     7
370
    25
100
AcDbLine
 10
3020.024672732
 20
590.7166299925
 30
0.0
 11
3020.024672732
 21
592.9666159258
 31
0.0
  0
LINE
  5
12E
330
1F
100
AcDbEntity
  8
0
  6
Continuous
 62
     7
370
    25
100
AcDbLine
 10
3020.024672732
 20
592.9666159258
 30
0.0
 11
3043.5246682021
 21
592.9666159258
 31
0.0
  0
LINE
  5
12F
330
1F
100
AcDbEntity
  8
0
  6
Continuous
 62
     7
370
    25
100
AcDbLine
 10
3043.5246682021
 20
590.7166299925
 30
0.0
 11
3020.024672732
 21
590.7166299925
 31
0.0
  0
LINE
  5
130
330
1F
100
AcDbEntity
  8
0
  6
Continuous
 62
     7
370
    25
100
AcDbLine
 10
3017.5362682196
 20
592.9666159258
 30
0.0
 11
3020.024672732
 21
592.9666159258
 31
0.0
  0
LINE
  5
131
330
1F
100
AcDbEntity
  8
0
  6
Continuous
 62
     7
370
    25
100
AcDbLine
 10
3068.5246443602
 20
590.7166299925
 30
0.0
 11
3068.5246443602
 21
592.9666159258
 31
0.0
  0
LINE
  5
132
330
1F
100
AcDbEntity
  8
0
  6
Continuous
 62
     7
370
    25
100
AcDbLine
 10
3064.0246724936
 20
592.9666159258
 30
0.0
 11
3068.5246443602
 21
592.9666159258
 31
0.0
  0
LINE
  5
133
330
1F
100
AcDbEntity
  8
0
  6
Continuous
 62
     7
370
    25
100
AcDbLine
 10
3092.0246696326
 20
592.9666159258
 30
0.0
 11
3092.0246696326
 21
590.7166299925
 31
0.0
  0
LINE
  5
134
330
1F
100
AcDbEntity
  8
0
  6
Continuous
 62
     7
370
    25
100
AcDbLine
 10
3068.5246443602
 20
592.9666159258
 30
0.0
 11
3092.0246696326
 21
592.9666159258
 31
0.0
  0
LINE
  5
135
330
1F
100
AcDbEntity
  8
0
  6
Continuous
 62
     7
370
    25
100
AcDbLine
 10
3092.0246696326
 20
590.7166299925
 30
0.0
 11
3068.5246443602
 21
590.7166299925
 31
0.0
  0
LINE
  5
136
330
1F
100
AcDbEntity
  8
0
  6
Continuous
 62
     7
370
    25
100
AcDbLine
 10
3092.0246696326
 20
592.9666159258
 30
0.0
 11
3096.5246414992
 21
592.9666159258
 31
0.0
  0
LINE
  5
137
330
1F
100
AcDbEntity
  8
0
  6
Continuous
 62
     7
370
    25
100
AcDbLine
 10
3117.0246457907
 20
590.7166299925
 30
0.0
 11
3117.0246457907
 21
592.9666159258
 31
0.0
  0
LINE
  5
138
330
1F
100
AcDbEntity
  8
0
  6
Continuous
 62
     7
370
    25
100
AcDbLine
 10
3112.5246739241
 20
592.9666159258
 30
0.0
 11
3117.0246457907
 21
592.9666159258
 31
0.0
  0
LINE
  5
139
330
1F
100
AcDbEntity
  8
0
  6
Continuous
 62
     7
370
    25
100
AcDbLine
 10
3132.5246548506
 20
590.7166299925
 30
0.0
 11
3132.5246548506
 21
592.9666159258
 31
0.0
  0
LINE
  5
13A
330
1F
100
AcDbEntity
  8
0
  6
Continuous
 62
     7
370
    25
100
AcDbLine
 10
3117.0246457907
 20
592.9666159258
 30
0.0
 11
3132.5246548506
 21
592.9666159258
 31
0.0
  0
LINE
  5
13B
330
1F
100
AcDbEntity
  8
0
  6
Continuous
 62
     7
370
    25
100
AcDbLine
 10
3132.5246548506
 20
590.7166299925
 30
0.0
 11
3117.0246457907
 21
590.7166299925
 31
0.0
  0
LINE
  5
13C
330
1F
100
AcDbEntity
  8
0
  6
Continuous
 62
     7
370
    25
100
AcDbLine
 10
3055.5479085299
 20
592.9666159258
 30
0.0
 11
3064.0246724936
 21
592.9666159258
 31
0.0
  0
LINE
  5
13D
330
1F
100
AcDbEntity
  8
0
  6
Continuous
 62
     7
370
    25
100
AcDbLine
 10
3096.5246414992
 20
592.9666159258
 30
0.0
 11
3112.5246739241
 21
592.9666159258
 31
0.0
  0
LINE
  5
13E
330
1F
100
AcDbEntity
  8
0
  6
Continuous
 62
     7
370
    25
100
AcDbLine
 10
3132.5246548506
 20
605.7166156874
 30
0.0
 11
2452.5246625992
 21
605.7166156874
 31
0.0
  0
LINE
  5
13F
330
1F
100
AcDbEntity
  8
0
  6
Continuous
 62
     7
370
    25
100
AcDbLine
 10
3132.5246548506
 20
603.4666297541
 30
0.0
 11
2452.5246625992
 21
603.4666297541
 31
0.0
  0
LINE
  5
140
330
1F
100
AcDbEntity
  8
0
  6
Continuous
 62
     7
370
    25
100
AcDbLine
 10
2452.5246625992
 20
605.7166156874
 30
0.0
 11
2452.5246625992
 21
603.4666297541
 31
0.0
  0
LINE
  5
141
330
1F
100
AcDbEntity
  8
0
  6
Continuous
 62
     7
370
    25
100
AcDbLine
 10
2452.5246625992
 20
592.9666159258
 30
0.0
 11
2452.5246625992
 21
593.9666328536
 31
0.0
  0
LINE
  5
142
330
1F
100
AcDbEntity
  8
0
  6
Continuous
 62
     7
370
    25
100
AcDbLine
 10
2452.5246625992
 20
602.4666128264
 30
0.0
 11
2452.5246625992
 21
603.4666297541
 31
0.0
  0
LINE
  5
143
330
1F
100
AcDbEntity
  8
0
  6
Continuous
 62
     7
370
    25
100
AcDbLine
 10
2452.5246625992
 20
602.4666128264
 30
0.0
 11
2452.5246625992
 21
593.9666328536
 31
0.0
  0
LINE
  5
144
330
1F
100
AcDbEntity
  8
0
  6
Continuous
 62
     7
370
    25
100
AcDbLine
 10
2375.5479013773
 20
592.9666159258
 30
0.0
 11
2375.5479013773
 21
590.7166299925
 31
0.0
  0
LINE
  5
145
330
1F
100
AcDbEntity
  8
0
  6
Continuous
 62
     7
370
    25
100
AcDbLine
 10
2375.5479013773
 20
592.9666159258
 30
0.0
 11
2433.0479061457
 21
592.9666159258
 31
0.0
  0
LINE
  5
146
330
1F
100
AcDbEntity
  8
0
  6
Continuous
 62
     7
370
    25
100
AcDbLine
 10
2433.0479061457
 20
592.9666159258
 30
0.0
 11
2433.0479061457
 21
590.7166299925
 31
0.0
  0
LINE
  5
147
330
1F
100
AcDbEntity
  8
0
  6
Continuous
 62
     7
370
    25
100
AcDbLine
 10
2433.0479061457
 20
590.7166299925
 30
0.0
 11
2375.5479013773
 21
590.7166299925
 31
0.0
  0
LINE
  5
148
330
1F
100
AcDbEntity
  8
0
  6
Continuous
 62
     7
370
    25
100
AcDbLine
 10
2458.0479046556
 20
590.7166299925
 30
0.0
 11
2458.0479046556
 21
592.9666159258
 31
0.0
  0
LINE
  5
149
330
1F
100
AcDbEntity
  8
0
  6
Continuous
 62
     7
370
    25
100
AcDbLine
 10
2481.5479075762
 20
592.9666159258
 30
0.0
 11
2481.5479075762
 21
590.7166299925
 31
0.0
  0
LINE
  5
14A
330
1F
100
AcDbEntity
  8
0
  6
Continuous
 62
     7
370
    25
100
AcDbLine
 10
2458.0479046556
 20
592.9666159258
 30
0.0
 11
2481.5479075762
 21
592.9666159258
 31
0.0
  0
LINE
  5
14B
330
1F
100
AcDbEntity
  8
0
  6
Continuous
 62
     7
370
    25
100
AcDbLine
 10
2481.5479075762
 20
590.7166299925
 30
0.0
 11
2458.0479046556
 21
590.7166299925
 31
0.0
  0
LINE
  5
14C
330
1F
100
AcDbEntity
  8
0
  6
Continuous
 62
     7
370
    25
100
AcDbLine
 10
2506.5479060861
 20
590.7166299925
 30
0.0
 11
2506.5479060861
 21
592.9666159258
 31
0.0
  0
LINE
  5
14D
330
1F
100
AcDbEntity
  8
0
  6
Continuous
 62
     7
370
    25
100
AcDbLine
 10
2530.0479052814
 20
592.9666159258
 30
0.0
 11
2530.0479052814
 21
590.7166299925
 31
0.0
  0
LINE
  5
14E
330
1F
100
AcDbEntity
  8
0
  6
Continuous
 62
     7
370
    25
100
AcDbLine
 10
2506.5479060861
 20
592.9666159258
 30
0.0
 11
2530.0479052814
 21
592.9666159258
 31
0.0
  0
LINE
  5
14F
330
1F
100
AcDbEntity
  8
0
  6
Continuous
 62
     7
370
    25
100
AcDbLine
 10
2530.0479052814
 20
590.7166299925
 30
0.0
 11
2506.5479060861
 21
590.7166299925
 31
0.0
  0
LINE
  5
150
330
1F
100
AcDbEntity
  8
0
  6
Continuous
 62
     7
370
    25
100
AcDbLine
 10
2530.0479052814
 20
592.9666159258
 30
0.0
 11
2532.5362837168
 21
592.9666159258
 31
0.0
  0
LINE
  5
151
330
1F
100
AcDbEntity
  8
0
  6
Continuous
 62
     7
370
    25
100
AcDbLine
 10
2555.0479047226
 20
590.7166299925
 30
0.0
 11
2555.0479047226
 21
592.9666159258
 31
0.0
  0
LINE
  5
152
330
1F
100
AcDbEntity
  8
0
  6
Continuous
 62
     7
370
    25
100
AcDbLine
 10
2578.5479048493
 20
592.9666159258
 30
0.0
 11
2578.5479048493
 21
590.7166299925
 31
0.0
  0
LINE
  5
153
330
1F
100
AcDbEntity
  8
0
  6
Continuous
 62
     7
370
    25
100
AcDbLine
 10
2555.0479047226
 20
592.9666159258
 30
0.0
 11
2578.5479048493
 21
592.9666159258
 31
0.0
  0
LINE
  5
154
330
1F
100
AcDbEntity
  8
0
  6
Continuous
 62
     7
370
    25
100
AcDbLine
 10
2578.5479048493
 20
590.7166299925
 30
0.0
 11
2555.0479047226
 21
590.7166299925
 31
0.0
  0
LINE
  5
155
330
1F
100
AcDbEntity
  8
0
  6
Continuous
 62
     7
370
    25
100
AcDbLine
 10
2578.5479048493
 20
592.9666159258
 30
0.0
 11
2581.0362832847
 21
592.9666159258
 31
0.0
  0
LINE
  5
156
330
1F
100
AcDbEntity
  8
0
  6
Continuous
 62
     7
370
    25
100
AcDbLine
 10
2603.5479052218
 20
590.7166299925
 30
0.0
 11
2603.5479052218
 21
592.9666159258
 31
0.0
  0
LINE
  5
157
330
1F
100
AcDbEntity
  8
0
  6
Continuous
 62
     7
370
    25
100
AcDbLine
 10
2627.0479044172
 20
592.9666159258
 30
0.0
 11
2627.0479044172
 21
590.7166299925
 31
0.0
  0
LINE
  5
158
330
1F
100
AcDbEntity
  8
0
  6
Continuous
 62
     7
370
    25
100
AcDbLine
 10
2603.5479052218
 20
592.9666159258
 30
0.0
 11
2627.0479044172
 21
592.9666159258
 31
0.0
  0
LINE
  5
159
330
1F
100
AcDbEntity
  8
0
  6
Continuous
 62
     7
370
    25
100
AcDbLine
 10
2627.0479044172
 20
590.7166299925
 30
0.0
 11
2603.5479052218
 21
590.7166299925
 31
0.0
  0
LINE
  5
15A
330
1F
100
AcDbEntity
  8
0
  6
Continuous
 62
     7
370
    25
100
AcDbLine
 10
2627.0479044172
 20
592.9666159258
 30
0.0
 11
2629.5362828525
 21
592.9666159258
 31
0.0
  0
LINE
  5
15B
330
1F
100
AcDbEntity
  8
0
  6
Continuous
 62
     7
370
    25
100
AcDbLine
 10
2652.0479029271
 20
590.7166299925
 30
0.0
 11
2652.0479029271
 21
592.9666159258
 31
0.0
  0
LINE
  5
15C
330
1F
100
AcDbEntity
  8
0
  6
Continuous
 62
     7
370
    25
100
AcDbLine
 10
2675.5479058477
 20
592.9666159258
 30
0.0
 11
2675.5479058477
 21
590.7166299925
 31
0.0
  0
LINE
  5
15D
330
1F
100
AcDbEntity
  8
0
  6
Continuous
 62
     7
370
    25
100
AcDbLine
 10
2652.0479029271
 20
592.9666159258
 30
0.0
 11
2675.5479058477
 21
592.9666159258
 31
0.0
  0
LINE
  5
15E
330
1F
100
AcDbEntity
  8
0
  6
Continuous
 62
     7
370
    25
100
AcDbLine
 10
2675.5479058477
 20
590.7166299925
 30
0.0
 11
2652.0479029271
 21
590.7166299925
 31
0.0
  0
LINE
  5
15F
330
1F
100
AcDbEntity
  8
0
  6
Continuous
 62
     7
370
    25
100
AcDbLine
 10
2675.5479058477
 20
592.9666159258
 30
0.0
 11
2678.0362805578
 21
592.9666159258
 31
0.0
  0
LINE
  5
160
330
1F
100
AcDbEntity
  8
0
  6
Continuous
 62
     7
370
    25
100
AcDbLine
 10
2700.5479043576
 20
590.7166299925
 30
0.0
 11
2700.5479043576
 21
592.9666159258
 31
0.0
  0
LINE
  5
161
330
1F
100
AcDbEntity
  8
0
  6
Continuous
 62
     7
370
    25
100
AcDbLine
 10
2724.0478998276
 20
592.9666159258
 30
0.0
 11
2724.0478998276
 21
590.7166299925
 31
0.0
  0
LINE
  5
162
330
1F
100
AcDbEntity
  8
0
  6
Continuous
 62
     7
370
    25
100
AcDbLine
 10
2700.5479043576
 20
592.9666159258
 30
0.0
 11
2724.0478998276
 21
592.9666159258
 31
0.0
  0
LINE
  5
163
330
1F
100
AcDbEntity
  8
0
  6
Continuous
 62
     7
370
    25
100
AcDbLine
 10
2724.0478998276
 20
590.7166299925
 30
0.0
 11
2700.5479043576
 21
590.7166299925
 31
0.0
  0
LINE
  5
164
330
1F
100
AcDbEntity
  8
0
  6
Continuous
 62
     7
370
    25
100
AcDbLine
 10
2724.0478998276
 20
592.9666159258
 30
0.0
 11
2726.5362894389
 21
592.9666159258
 31
0.0
  0
LINE
  5
165
330
1F
100
AcDbEntity
  8
0
  6
Continuous
 62
     7
370
    25
100
AcDbLine
 10
2749.0479057881
 20
590.7166299925
 30
0.0
 11
2749.0479057881
 21
592.9666159258
 31
0.0
  0
LINE
  5
166
330
1F
100
AcDbEntity
  8
0
  6
Continuous
 62
     7
370
    25
100
AcDbLine
 10
2772.5479012581
 20
592.9666159258
 30
0.0
 11
2772.5479012581
 21
590.7166299925
 31
0.0
  0
LINE
  5
167
330
1F
100
AcDbEntity
  8
0
  6
Continuous
 62
     7
370
    25
100
AcDbLine
 10
2749.0479057881
 20
592.9666159258
 30
0.0
 11
2772.5479012581
 21
592.9666159258
 31
0.0
  0
LINE
  5
168
330
1F
100
AcDbEntity
  8
0
  6
Continuous
 62
     7
370
    25
100
AcDbLine
 10
2772.5479012581
 20
590.7166299925
 30
0.0
 11
2749.0479057881
 21
590.7166299925
 31
0.0
  0
LINE
  5
169
330
1F
100
AcDbEntity
  8
0
  6
Continuous
 62
     7
370
    25
100
AcDbLine
 10
2772.5479012581
 20
592.9666159258
 30
0.0
 11
2775.0362759682
 21
592.9666159258
 31
0.0
  0
LINE
  5
16A
330
1F
100
AcDbEntity
  8
0
  6
Continuous
 62
     7
370
    25
100
AcDbLine
 10
2797.5479072186
 20
590.7166299925
 30
0.0
 11
2797.5479072186
 21
592.9666159258
 31
0.0
  0
LINE
  5
16B
330
1F
100
AcDbEntity
  8
0
  6
Continuous
 62
     7
370
    25
100
AcDbLine
 10
2821.0479175898
 20
592.9666159258
 30
0.0
 11
2821.0479175898
 21
590.7166299925
 31
0.0
  0
LINE
  5
16C
330
1F
100
AcDbEntity
  8
0
  6
Continuous
 62
     7
370
    25
100
AcDbLine
 10
2797.5479072186
 20
592.9666159258
 30
0.0
 11
2821.0479175898
 21
592.9666159258
 31
0.0
  0
LINE
  5
16D
330
1F
100
AcDbEntity
  8
0
  6
Continuous
 62
     7
370
    25
100
AcDbLine
 10
2821.0479175898
 20
590.7166299925
 30
0.0
 11
2797.5479072186
 21
590.7166299925
 31
0.0
  0
LINE
  5
16E
330
1F
100
AcDbEntity
  8
0
  6
Continuous
 62
     7
370
    25
100
AcDbLine
 10
2821.0479175898
 20
592.9666159258
 30
0.0
 11
2823.5362922999
 21
592.9666159258
 31
0.0
  0
LINE
  5
16F
330
1F
100
AcDbEntity
  8
0
  6
Continuous
 62
     7
370
    25
100
AcDbLine
 10
2846.0478937479
 20
590.7166299925
 30
0.0
 11
2846.0478937479
 21
592.9666159258
 31
0.0
  0
LINE
  5
170
330
1F
100
AcDbEntity
  8
0
  6
Continuous
 62
     7
370
    25
100
AcDbLine
 10
2869.5479190203
 20
592.9666159258
 30
0.0
 11
2869.5479190203
 21
590.7166299925
 31
0.0
  0
LINE
  5
171
330
1F
100
AcDbEntity
  8
0
  6
Continuous
 62
     7
370
    25
100
AcDbLine
 10
2846.0478937479
 20
592.9666159258
 30
0.0
 11
2869.5479190203
 21
592.9666159258
 31
0.0
  0
LINE
  5
172
330
1F
100
AcDbEntity
  8
0
  6
Continuous
 62
     7
370
    25
100
AcDbLine
 10
2869.5479190203
 20
590.7166299925
 30
0.0
 11
2846.0478937479
 21
590.7166299925
 31
0.0
  0
LINE
  5
173
330
1F
100
AcDbEntity
  8
0
  6
Continuous
 62
     7
370
    25
100
AcDbLine
 10
2869.5479190203
 20
592.9666159258
 30
0.0
 11
2872.0362937304
 21
592.9666159258
 31
0.0
  0
LINE
  5
174
330
1F
100
AcDbEntity
  8
0
  6
Continuous
 62
     7
370
    25
100
AcDbLine
 10
2894.5478951784
 20
590.7166299925
 30
0.0
 11
2894.5478951784
 21
592.9666159258
 31
0.0
  0
LINE
  5
175
330
1F
100
AcDbEntity
  8
0
  6
Continuous
 62
     7
370
    25
100
AcDbLine
 10
2918.0478906485
 20
592.9666159258
 30
0.0
 11
2918.0478906485
 21
590.7166299925
 31
0.0
  0
LINE
  5
176
330
1F
100
AcDbEntity
  8
0
  6
Continuous
 62
     7
370
    25
100
AcDbLine
 10
2894.5478951784
 20
592.9666159258
 30
0.0
 11
2918.0478906485
 21
592.9666159258
 31
0.0
  0
LINE
  5
177
330
1F
100
AcDbEntity
  8
0
  6
Continuous
 62
     7
370
    25
100
AcDbLine
 10
2918.0478906485
 20
590.7166299925
 30
0.0
 11
2894.5478951784
 21
590.7166299925
 31
0.0
  0
LINE
  5
178
330
1F
100
AcDbEntity
  8
0
  6
Continuous
 62
     7
370
    25
100
AcDbLine
 10
2918.0478906485
 20
592.9666159258
 30
0.0
 11
2920.5362951609
 21
592.9666159258
 31
0.0
  0
LINE
  5
179
330
1F
100
AcDbEntity
  8
0
  6
Continuous
 62
     7
370
    25
100
AcDbLine
 10
2966.547892079
 20
592.9666159258
 30
0.0
 11
2966.547892079
 21
590.7166299925
 31
0.0
  0
LINE
  5
17A
330
1F
100
AcDbEntity
  8
0
  6
Continuous
 62
     7
370
    25
100
AcDbLine
 10
2943.047896609
 20
590.7166299925
 30
0.0
 11
2943.047896609
 21
592.9666159258
 31
0.0
  0
LINE
  5
17B
330
1F
100
AcDbEntity
  8
0
  6
Continuous
 62
     7
370
    25
100
AcDbLine
 10
2943.047896609
 20
592.9666159258
 30
0.0
 11
2966.547892079
 21
592.9666159258
 31
0.0
  0
LINE
  5
17C
330
1F
100
AcDbEntity
  8
0
  6
Continuous
 62
     7
370
    25
100
AcDbLine
 10
2966.547892079
 20
590.7166299925
 30
0.0
 11
2943.047896609
 21
590.7166299925
 31
0.0
  0
LINE
  5
17D
330
1F
100
AcDbEntity
  8
0
  6
Continuous
 62
     7
370
    25
100
AcDbLine
 10
2966.547892079
 20
592.9666159258
 30
0.0
 11
2969.0362965914
 21
592.9666159258
 31
0.0
  0
LINE
  5
17E
330
1F
100
AcDbEntity
  8
0
  6
Continuous
 62
     7
370
    25
100
AcDbLine
 10
2991.5478980395
 20
590.7166299925
 30
0.0
 11
2991.5478980395
 21
592.9666159258
 31
0.0
  0
LINE
  5
17F
330
1F
100
AcDbEntity
  8
0
  6
Continuous
 62
     7
370
    25
100
AcDbLine
 10
3015.0478935095
 20
592.9666159258
 30
0.0
 11
3015.0478935095
 21
590.7166299925
 31
0.0
  0
LINE
  5
180
330
1F
100
AcDbEntity
  8
0
  6
Continuous
 62
     7
370
    25
100
AcDbLine
 10
2991.5478980395
 20
592.9666159258
 30
0.0
 11
3015.0478935095
 21
592.9666159258
 31
0.0
  0
LINE
  5
181
330
1F
100
AcDbEntity
  8
0
  6
Continuous
 62
     7
370
    25
100
AcDbLine
 10
3015.0478935095
 20
590.7166299925
 30
0.0
 11
2991.5478980395
 21
590.7166299925
 31
0.0
  0
LINE
  5
182
330
1F
100
AcDbEntity
  8
0
  6
Continuous
 62
     7
370
    25
100
AcDbLine
 10
3015.0478935095
 20
592.9666159258
 30
0.0
 11
3017.5362682196
 21
592.9666159258
 31
0.0
  0
LINE
  5
183
330
1F
100
AcDbEntity
  8
0
  6
Continuous
 62
     7
370
    25
100
AcDbLine
 10
3040.04789947
 20
590.7166299925
 30
0.0
 11
3040.04789947
 21
592.9666159258
 31
0.0
  0
LINE
  5
184
330
1F
100
AcDbEntity
  8
0
  6
Continuous
 62
     7
370
    25
100
AcDbLine
 10
3055.5479085299
 20
590.7166299925
 30
0.0
 11
3055.5479085299
 21
592.9666159258
 31
0.0
  0
LINE
  5
185
330
1F
100
AcDbEntity
  8
0
  6
Continuous
 62
     7
370
    25
100
AcDbLine
 10
3040.04789947
 20
592.9666159258
 30
0.0
 11
3055.5479085299
 21
592.9666159258
 31
0.0
  0
LINE
  5
186
330
1F
100
AcDbEntity
  8
0
  6
Continuous
 62
     7
370
    25
100
AcDbLine
 10
3055.5479085299
 20
590.7166299925
 30
0.0
 11
3040.04789947
 21
590.7166299925
 31
0.0
  0
LINE
  5
187
330
1F
100
AcDbEntity
  8
0
  6
Continuous
 62
     7
370
    25
100
AcDbLine
 10
2442.5246572348
 20
592.9666159258
 30
0.0
 11
2452.5246625992
 21
592.9666159258
 31
0.0
  0
LINE
  5
188
330
1F
100
AcDbEntity
  8
0
  6
Continuous
 62
     7
370
    25
100
AcDbLine
 10
2442.5246572348
 20
590.7166299925
 30
0.0
 11
2452.5246625992
 21
590.7166299925
 31
0.0
  0
LINE
  5
189
330
1F
100
AcDbEntity
  8
0
  6
Continuous
 62
     7
370
    25
100
AcDbLine
 10
3055.5479085299
 20
605.7166156874
 30
0.0
 11
2442.5246572348
 21
605.7166156874
 31
0.0
  0
LINE
  5
18A
330
1F
100
AcDbEntity
  8
0
  6
Continuous
 62
     7
370
    25
100
AcDbLine
 10
3055.5479085299
 20
603.4666297541
 30
0.0
 11
2442.5246572348
 21
603.4666297541
 31
0.0
  0
LINE
  5
18B
330
1F
100
AcDbEntity
  8
0
  6
Continuous
 62
     7
370
    25
100
AcDbLine
 10
3055.5479085299
 20
605.7166156874
 30
0.0
 11
3055.5479085299
 21
603.4666297541
 31
0.0
  0
LINE
  5
18C
330
1F
100
AcDbEntity
  8
0
  6
Continuous
 62
     7
370
    25
100
AcDbLine
 10
3055.5479085299
 20
593.9666328536
 30
0.0
 11
3055.5479085299
 21
592.9666159258
 31
0.0
  0
LINE
  5
18D
330
1F
100
AcDbEntity
  8
0
  6
Continuous
 62
     7
370
    25
100
AcDbLine
 10
3055.5479085299
 20
603.4666297541
 30
0.0
 11
3055.5479085299
 21
602.4666128264
 31
0.0
  0
LINE
  5
18E
330
1F
100
AcDbEntity
  8
0
  6
Continuous
 62
     7
370
    25
100
AcDbLine
 10
3055.5479085299
 20
602.4666128264
 30
0.0
 11
3055.5479085299
 21
593.9666328536
 31
0.0
  0
LINE
  5
18F
330
1F
100
AcDbEntity
  8
0
  6
Continuous
 62
     7
370
    25
100
AcDbLine
 10
2407.5246608111
 20
547.7166173563
 30
0.0
 11
2442.5246572348
 21
547.7166173563
 31
0.0
  0
LINE
  5
190
330
1F
100
AcDbEntity
  8
0
  6
Continuous
 62
     7
370
    25
100
AcDbLine
 10
2362.5246590229
 20
705.7166246281
 30
0.0
 11
2442.5246572348
 21
705.7166246281
 31
0.0
  0
LINE
  5
191
330
1F
100
AcDbEntity
  8
0
  6
Continuous
 62
     7
370
    25
100
AcDbLine
 10
2407.5246608111
 20
505.7166216479
 30
0.0
 11
2362.5246590229
 21
505.7166216479
 31
0.0
  0
LINE
  5
192
330
1F
100
AcDbEntity
  8
0
  6
Continuous
 62
     7
370
    25
100
AcDbLine
 10
2362.5246590229
 20
705.7166246281
 30
0.0
 11
2362.5246590229
 21
505.7166216479
 31
0.0
  0
LINE
  5
193
330
1F
100
AcDbEntity
  8
0
  6
Continuous
 62
     7
370
    25
100
AcDbLine
 10
2442.5246572348
 20
547.7166173563
 30
0.0
 11
2442.5246572348
 21
705.7166246281
 31
0.0
  0
LINE
  5
194
330
1F
100
AcDbEntity
  8
0
  6
Continuous
 62
     7
370
    25
100
AcDbLine
 10
2407.5246608111
 20
505.7166216479
 30
0.0
 11
2407.5246608111
 21
547.7166173563
 31
0.0
  0
LINE
  5
195
330
1F
100
AcDbEntity
  8
0
  6
Continuous
 62
     7
370
    25
100
AcDbLine
 10
2442.5246572348
 20
1263.7166378603
 30
0.0
 11
2407.5246608111
 21
1263.7166378603
 31
0.0
  0
LINE
  5
196
330
1F
100
AcDbEntity
  8
0
  6
Continuous
 62
     7
370
    25
100
AcDbLine
 10
2442.5246572348
 20
1105.7166305886
 30
0.0
 11
2362.5246590229
 21
1105.7166305886
 31
0.0
  0
LINE
  5
197
330
1F
100
AcDbEntity
  8
0
  6
Continuous
 62
     7
370
    25
100
AcDbLine
 10
2407.5246608111
 20
1305.7166335688
 30
0.0
 11
2362.5246590229
 21
1305.7166335688
 31
0.0
  0
LINE
  5
198
330
1F
100
AcDbEntity
  8
0
  6
Continuous
 62
     7
370
    25
100
AcDbLine
 10
2362.5246590229
 20
1305.7166335688
 30
0.0
 11
2362.5246590229
 21
1105.7166305886
 31
0.0
  0
LINE
  5
199
330
1F
100
AcDbEntity
  8
0
  6
Continuous
 62
     7
370
    25
100
AcDbLine
 10
2442.5246572348
 20
1105.7166305886
 30
0.0
 11
2442.5246572348
 21
1263.7166378603
 31
0.0
  0
LINE
  5
19A
330
1F
100
AcDbEntity
  8
0
  6
Continuous
 62
     7
370
    25
100
AcDbLine
 10
2407.5246608111
 20
1263.7166378603
 30
0.0
 11
2407.5246608111
 21
1305.7166335688
 31
0.0
  0
LINE
  5
19B
330
1F
100
AcDbEntity
  8
0
  6
Continuous
 62
     7
370
    25
100
AcDbLine
 10
2362.5246590229
 20
705.7166246281
 30
0.0
 11
2362.5246590229
 21
1105.7166305886
 31
0.0
  0
LINE
  5
19C
330
1F
100
AcDbEntity
  8
0
  6
Continuous
 62
     7
370
    25
100
AcDbLine
 10
2442.5246572348
 20
705.7166246281
 30
0.0
 11
2442.5246572348
 21
1105.7166305886
 31
0.0
  0
LINE
  5
19D
330
1F
100
AcDbEntity
  8
0
  6
Continuous
 62
     7
370
    25
100
AcDbLine
 10
3314.524636254
 20
547.2691950903
 30
0.0
 11
3349.52466248
 21
549.7166214095
 31
0.0
  0
LINE
  5
19E
330
1F
100
AcDbEntity
  8
0
  6
Continuous
 62
     7
370
    25
100
AcDbLine
 10
3214.5246720167
 20
505.7166216479
 30
0.0
 11
3314.524636254
 21
505.7166216479
 31
0.0
  0
LINE
  5
19F
330
1F
100
AcDbEntity
  8
0
  6
Continuous
 62
     7
370
    25
100
AcDbLine
 10
3214.5246720167
 20
545.7166133032
 30
0.0
 11
3249.5246386381
 21
545.7166133032
 31
0.0
  0
LINE
  5
1A0
330
1F
100
AcDbEntity
  8
0
  6
Continuous
 62
     7
370
    25
100
AcDbLine
 10
3249.5246386381
 20
605.7166156874
 30
0.0
 11
3349.52466248
 21
605.7166156874
 31
0.0
  0
LINE
  5
1A1
330
1F
100
AcDbEntity
  8
0
  6
Continuous
 62
     7
370
    25
100
AcDbLine
 10
3349.52466248
 20
605.7166156874
 30
0.0
 11
3349.52466248
 21
549.7166214095
 31
0.0
  0
LINE
  5
1A2
330
1F
100
AcDbEntity
  8
0
  6
Continuous
 62
     7
370
    25
100
AcDbLine
 10
3314.524636254
 20
505.7166216479
 30
0.0
 11
3314.524636254
 21
547.2691950903
 31
0.0
  0
LINE
  5
1A3
330
1F
100
AcDbEntity
  8
0
  6
Continuous
 62
     7
370
    25
100
AcDbLine
 10
3249.5246386381
 20
605.7166156874
 30
0.0
 11
3249.5246386381
 21
545.7166133032
 31
0.0
  0
LINE
  5
1A4
330
1F
100
AcDbEntity
  8
0
  6
Continuous
 62
     7
370
    25
100
AcDbLine
 10
3214.5246720167
 20
545.7166133032
 30
0.0
 11
3214.5246720167
 21
505.7166216479
 31
0.0
  0
LINE
  5
1A5
330
1F
100
AcDbEntity
  8
0
  6
Continuous
 62
     7
370
    25
100
AcDbLine
 10
3314.524636254
 20
1305.7166335688
 30
0.0
 11
3214.5246720167
 21
1305.7166335688
 31
0.0
  0
LINE
  5
1A6
330
1F
100
AcDbEntity
  8
0
  6
Continuous
 62
     7
370
    25
100
AcDbLine
 10
3349.52466248
 20
1261.7166338072
 30
0.0
 11
3314.524636254
 21
1264.1640601264
 31
0.0
  0
LINE
  5
1A7
330
1F
100
AcDbEntity
  8
0
  6
Continuous
 62
     7
370
    25
100
AcDbLine
 10
3349.52466248
 20
1205.7166395293
 30
0.0
 11
3249.5246386381
 21
1205.7166395293
 31
0.0
  0
LINE
  5
1A8
330
1F
100
AcDbEntity
  8
0
  6
Continuous
 62
     7
370
    25
100
AcDbLine
 10
3249.5246386381
 20
1265.7166419135
 30
0.0
 11
3214.5246720167
 21
1265.7166419135
 31
0.0
  0
LINE
  5
1A9
330
1F
100
AcDbEntity
  8
0
  6
Continuous
 62
     7
370
    25
100
AcDbLine
 10
3349.52466248
 20
1261.7166338072
 30
0.0
 11
3349.52466248
 21
1205.7166395293
 31
0.0
  0
LINE
  5
1AA
330
1F
100
AcDbEntity
  8
0
  6
Continuous
 62
     7
370
    25
100
AcDbLine
 10
3314.524636254
 20
1264.1640601264
 30
0.0
 11
3314.524636254
 21
1305.7166335688
 31
0.0
  0
LINE
  5
1AB
330
1F
100
AcDbEntity
  8
0
  6
Continuous
 62
     7
370
    25
100
AcDbLine
 10
3249.5246386381
 20
1265.7166419135
 30
0.0
 11
3249.5246386381
 21
1205.7166395293
 31
0.0
  0
LINE
  5
1AC
330
1F
100
AcDbEntity
  8
0
  6
Continuous
 62
     7
370
    25
100
AcDbLine
 10
3214.5246720167
 20
1305.7166335688
 30
0.0
 11
3214.5246720167
 21
1265.7166419135
 31
0.0
  0
LINE
  5
1AD
330
1F
100
AcDbEntity
  8
0
  6
Continuous
 62
     7
370
    25
100
AcDbLine
 10
3249.5246386381
 20
605.7166156874
 30
0.0
 11
3249.5246386381
 21
1205.7166395293
 31
0.0
  0
LINE
  5
1AE
330
1F
100
AcDbEntity
  8
0
  6
Continuous
 62
     7
370
    25
100
AcDbLine
 10
3214.5246720167
 20
1265.7166419135
 30
0.0
 11
3214.5246720167
 21
1260.14518715
 31
0.0
  0
LINE
  5
1AF
330
1F
100
AcDbEntity
  8
0
  6
Continuous
 62
     7
370
    25
100
AcDbLine
 10
3214.5246720167
 20
551.2880680666
 30
0.0
 11
3214.5246720167
 21
545.7166133032
 31
0.0
  0
LINE
  5
1B0
330
1F
100
AcDbEntity
  8
0
  6
Continuous
 62
     7
370
    25
100
AcDbLine
 10
2417.5246661755
 20
544.2166326151
 30
0.0
 11
2452.5246625992
 21
545.6835625277
 31
0.0
  0
LINE
  5
1B1
330
1F
100
AcDbEntity
  8
0
  6
Continuous
 62
     7
370
    25
100
AcDbLine
 10
3132.5246548506
 20
590.7166299925
 30
0.0
 11
2452.5246625992
 21
590.7166299925
 31
0.0
  0
LINE
  5
1B2
330
1F
100
AcDbEntity
  8
0
  6
Continuous
 62
     7
370
    25
100
AcDbLine
 10
3132.5246548506
 20
605.7166156874
 30
0.0
 11
3132.5246548506
 21
590.7166299925
 31
0.0
  0
LINE
  5
1B3
330
1F
100
AcDbEntity
  8
0
  6
Continuous
 62
     7
370
    25
100
AcDbLine
 10
3239.5246481749
 20
605.7166156874
 30
0.0
 11
3132.5246548506
 21
605.7166156874
 31
0.0
  0
LINE
  5
1B4
330
1F
100
AcDbEntity
  8
0
  6
Continuous
 62
     7
370
    25
100
AcDbLine
 10
3239.5246481749
 20
605.7166156874
 30
0.0
 11
3239.5246481749
 21
552.7166423903
 31
0.0
  0
LINE
  5
1B5
330
1F
100
AcDbEntity
  8
0
  6
Continuous
 62
     7
370
    25
100
AcDbLine
 10
3239.5246481749
 20
552.7166423903
 30
0.0
 11
3204.5246815535
 21
550.7166383372
 31
0.0
  0
LINE
  5
1B6
330
1F
100
AcDbEntity
  8
0
  6
Continuous
 62
     7
370
    25
100
AcDbLine
 10
3204.5246815535
 20
505.7166216479
 30
0.0
 11
3204.5246815535
 21
550.7166383372
 31
0.0
  0
LINE
  5
1B7
330
1F
100
AcDbEntity
  8
0
  6
Continuous
 62
     7
370
    25
100
AcDbLine
 10
3204.5246815535
 20
505.7166216479
 30
0.0
 11
2417.5246661755
 21
505.7166216479
 31
0.0
  0
LINE
  5
1B8
330
1F
100
AcDbEntity
  8
0
  6
Continuous
 62
     7
370
    25
100
AcDbLine
 10
2452.5246625992
 20
545.6835625277
 30
0.0
 11
2452.5246625992
 21
590.7166299925
 31
0.0
  0
LINE
  5
1B9
330
1F
100
AcDbEntity
  8
0
  6
Continuous
 62
     7
370
    25
100
AcDbLine
 10
2417.5246661755
 20
544.2166326151
 30
0.0
 11
2417.5246661755
 21
505.7166216479
 31
0.0
  0
LINE
  5
1BA
330
1F
100
AcDbEntity
  8
0
  6
Continuous
 62
     7
370
    25
100
AcDbLine
 10
2417.5246661755
 20
1305.7166335688
 30
0.0
 11
3204.5246815535
 21
1305.7166335688
 31
0.0
  0
LINE
  5
1BB
330
1F
100
AcDbEntity
  8
0
  6
Continuous
 62
     7
370
    25
100
AcDbLine
 10
3204.5246815535
 20
1260.7166168795
 30
0.0
 11
3204.5246815535
 21
1305.7166335688
 31
0.0
  0
LINE
  5
1BC
330
1F
100
AcDbEntity
  8
0
  6
Continuous
 62
     7
370
    25
100
AcDbLine
 10
3204.5246815535
 20
1260.7166168795
 30
0.0
 11
3239.5246481749
 21
1258.7166128264
 31
0.0
  0
LINE
  5
1BD
330
1F
100
AcDbEntity
  8
0
  6
Continuous
 62
     7
370
    25
100
AcDbLine
 10
3239.5246481749
 20
1258.7166128264
 30
0.0
 11
3239.5246481749
 21
1205.7166395293
 31
0.0
  0
LINE
  5
1BE
330
1F
100
AcDbEntity
  8
0
  6
Continuous
 62
     7
370
    25
100
AcDbLine
 10
2452.5246625992
 20
1205.7166395293
 30
0.0
 11
3239.5246481749
 21
1205.7166395293
 31
0.0
  0
LINE
  5
1BF
330
1F
100
AcDbEntity
  8
0
  6
Continuous
 62
     7
370
    25
100
AcDbLine
 10
2452.5246625992
 20
1265.749692689
 30
0.0
 11
2417.5246661755
 21
1267.2166226016
 31
0.0
  0
LINE
  5
1C0
330
1F
100
AcDbEntity
  8
0
  6
Continuous
 62
     7
370
    25
100
AcDbLine
 10
2452.5246625992
 20
1205.7166395293
 30
0.0
 11
2452.5246625992
 21
1265.749692689
 31
0.0
  0
LINE
  5
1C1
330
1F
100
AcDbEntity
  8
0
  6
Continuous
 62
     7
370
    25
100
AcDbLine
 10
2417.5246661755
 20
1305.7166335688
 30
0.0
 11
2417.5246661755
 21
1267.2166226016
 31
0.0
  0
CIRCLE
  5
1C2
330
1F
100
AcDbEntity
  8
0
  6
Continuous
 62
     7
370
    25
100
AcDbCircle
 10
2857.5246609149
 20
1095.7166276083
 30
0.0
 40
50.0
  0
CIRCLE
  5
1C3
330
1F
100
AcDbEntity
  8
0
  6
Continuous
 62
     7
370
    25
100
AcDbCircle
 10
2677.5246609149
 20
915.7166276083
 30
0.0
 40
50.00000000000011
  0
CIRCLE
  5
1C4
330
1F
100
AcDbEntity
  8
0
  6
Continuous
 62
     7
370
    25
100
AcDbCircle
 10
2677.5246609149
 20
1095.7166276083
 30
0.0
 40
50.0
  0
CIRCLE
  5
1C5
330
1F
100
AcDbEntity
  8
0
  6
Continuous
 62
     7
370
    25
100
AcDbCircle
 10
2857.5246609149
 20
915.7166276083
 30
0.0
 40
50.00000000000011
  0
LINE
  5
1C6
330
1F
100
AcDbEntity
  8
0
  6
Continuous
 62
     7
370
    25
100
AcDbLine
 10
3239.5246481749
 20
605.7166156874
 30
0.0
 11
3239.5246481749
 21
1205.7166395293
 31
0.0
  0
LINE
  5
1C7
330
1F
100
AcDbEntity
  8
0
  6
Continuous
 62
     7
370
    25
100
AcDbLine
 10
2452.5246625992
 20
605.7166156874
 30
0.0
 11
2452.5246625992
 21
1205.7166395293
 31
0.0
  0
LINE
  5
1C8
330
1F
100
AcDbEntity
  8
0
  6
Continuous
 62
     7
370
    25
100
AcDbLine
 10
2417.5246661755
 20
1267.2166226016
 30
0.0
 11
2417.5246661755
 21
1263.7166378603
 31
0.0
  0
LINE
  5
1C9
330
1F
100
AcDbEntity
  8
0
  6
Continuous
 62
     7
370
    25
100
AcDbLine
 10
2417.5246661755
 20
547.7166173563
 30
0.0
 11
2417.5246661755
 21
544.2166326151
 31
0.0
  0
LINE
  5
1CA
330
1F
100
AcDbEntity
  8
0
  6
Continuous
 62
     7
370
    25
100
AcDbLine
 10
3345.5246543738
 20
610.7166407214
 30
0.0
 11
3303.5246586653
 21
610.7166407214
 31
0.0
  0
LINE
  5
1CB
330
1F
100
AcDbEntity
  8
0
  6
Continuous
 62
     7
370
    25
100
AcDbLine
 10
3299.5246505591
 20
610.7166407214
 30
0.0
 11
3299.5246505591
 21
880.7166272358
 31
0.0
  0
LINE
  5
1CC
330
1F
100
AcDbEntity
  8
0
  6
Continuous
 62
     7
370
    25
100
AcDbLine
 10
3303.5246586653
 20
880.7166272358
 30
0.0
 11
3299.5246505591
 21
880.7166272358
 31
0.0
  0
LINE
  5
1CD
330
1F
100
AcDbEntity
  8
0
  6
Continuous
 62
     7
370
    25
100
AcDbLine
 10
3303.5246586653
 20
610.7166407214
 30
0.0
 11
3299.5246505591
 21
610.7166407214
 31
0.0
  0
LINE
  5
1CE
330
1F
100
AcDbEntity
  8
0
  6
Continuous
 62
     7
370
    25
100
AcDbLine
 10
3349.52466248
 20
880.7166272358
 30
0.0
 11
3345.5246543738
 21
880.7166272358
 31
0.0
  0
LINE
  5
1CF
330
1F
100
AcDbEntity
  8
0
  6
Continuous
 62
     7
370
    25
100
AcDbLine
 10
3349.52466248
 20
610.7166407214
 30
0.0
 11
3345.5246543738
 21
610.7166407214
 31
0.0
  0
LINE
  5
1D0
330
1F
100
AcDbEntity
  8
0
  6
Continuous
 62
     7
370
    25
100
AcDbLine
 10
3345.5246543738
 20
1200.7166144953
 30
0.0
 11
3303.5246586653
 21
1200.7166144953
 31
0.0
  0
LINE
  5
1D1
330
1F
100
AcDbEntity
  8
0
  6
Continuous
 62
     7
370
    25
100
AcDbLine
 10
3299.5246505591
 20
930.7166279809
 30
0.0
 11
3299.5246505591
 21
1200.7166144953
 31
0.0
  0
LINE
  5
1D2
330
1F
100
AcDbEntity
  8
0
  6
Continuous
 62
     7
370
    25
100
AcDbLine
 10
3303.5246586653
 20
1200.7166144953
 30
0.0
 11
3299.5246505591
 21
1200.7166144953
 31
0.0
  0
LINE
  5
1D3
330
1F
100
AcDbEntity
  8
0
  6
Continuous
 62
     7
370
    25
100
AcDbLine
 10
3303.5246586653
 20
930.7166279809
 30
0.0
 11
3299.5246505591
 21
930.7166279809
 31
0.0
  0
LINE
  5
1D4
330
1F
100
AcDbEntity
  8
0
  6
Continuous
 62
     7
370
    25
100
AcDbLine
 10
3349.52466248
 20
1200.7166144953
 30
0.0
 11
3345.5246543738
 21
1200.7166144953
 31
0.0
  0
LINE
  5
1D5
330
1F
100
AcDbEntity
  8
0
  6
Continuous
 62
     7
370
    25
100
AcDbLine
 10
3349.52466248
 20
930.7166279809
 30
0.0
 11
3345.5246543738
 21
930.7166279809
 31
0.0
  0
LINE
  5
1D6
330
1F
100
AcDbEntity
  8
0
  6
Continuous
 62
     7
370
    25
100
AcDbLine
 10
3301.5246844145
 20
926.7166273252
 30
0.0
 11
3301.5246844145
 21
884.7166278915
 31
0.0
  0
ARC
  5
1D7
330
1F
100
AcDbEntity
  8
0
  6
Continuous
 62
     7
370
    25
100
AcDbCircle
 10
3303.5246609149
 20
884.7166276083
 30
0.0
 40
1.999999999999886
100
AcDbArc
 50
180.0
 51
270.0
  0
LINE
  5
1D8
330
1F
100
AcDbEntity
  8
0
  6
Continuous
 62
     7
370
    25
100
AcDbLine
 10
3303.5246586653
 20
882.7166275636
 30
0.0
 11
3345.5246543738
 21
882.7166275636
 31
0.0
  0
ARC
  5
1D9
330
1F
100
AcDbEntity
  8
0
  6
Continuous
 62
     7
370
    25
100
AcDbCircle
 10
3345.5246609149
 20
884.7166276083
 30
0.0
 40
2.0
100
AcDbArc
 50
270.0
 51
0.0
  0
LINE
  5
1DA
330
1F
100
AcDbEntity
  8
0
  6
Continuous
 62
     7
370
    25
100
AcDbLine
 10
3347.5246882292
 20
884.7166278915
 30
0.0
 11
3347.5246882292
 21
926.7166273252
 31
0.0
  0
ARC
  5
1DB
330
1F
100
AcDbEntity
  8
0
  6
Continuous
 62
     7
370
    25
100
AcDbCircle
 10
3345.5246609149
 20
926.7166276083
 30
0.0
 40
2.0
100
AcDbArc
 50
0.0
 51
90.0
  0
LINE
  5
1DC
330
1F
100
AcDbEntity
  8
0
  6
Continuous
 62
     7
370
    25
100
AcDbLine
 10
3345.5246543738
 20
928.7166276531
 30
0.0
 11
3303.5246586653
 21
928.7166276531
 31
0.0
  0
ARC
  5
1DD
330
1F
100
AcDbEntity
  8
0
  6
Continuous
 62
     7
370
    25
100
AcDbCircle
 10
3303.5246609149
 20
926.7166276083
 30
0.0
 40
1.999999999999886
100
AcDbArc
 50
90.0
 51
180.0
  0
LINE
  5
1DE
330
1F
100
AcDbEntity
  8
0
  6
Continuous
 62
     7
370
    25
100
AcDbLine
 10
3345.5246543738
 20
930.7166279809
 30
0.0
 11
3303.5246586653
 21
930.7166279809
 31
0.0
  0
ARC
  5
1DF
330
1F
100
AcDbEntity
  8
0
  6
Continuous
 62
     7
370
    25
100
AcDbCircle
 10
3345.5246609149
 20
926.7166276083
 30
0.0
 40
4.0
100
AcDbArc
 50
360.0
 51
90.0
  0
ARC
  5
1E0
330
1F
100
AcDbEntity
  8
0
  6
Continuous
 62
     7
370
    25
100
AcDbCircle
 10
3345.5246609149
 20
884.7166276083
 30
0.0
 40
4.0
100
AcDbArc
 50
270.0
 51
0.0
  0
LINE
  5
1E1
330
1F
100
AcDbEntity
  8
0
  6
Continuous
 62
     7
370
    25
100
AcDbLine
 10
3303.5246586653
 20
880.7166272358
 30
0.0
 11
3345.5246543738
 21
880.7166272358
 31
0.0
  0
LINE
  5
1E2
330
1F
100
AcDbEntity
  8
0
  6
Continuous
 62
     7
370
    25
100
AcDbLine
 10
3299.5246505591
 20
926.7166273252
 30
0.0
 11
3299.5246505591
 21
884.7166278915
 31
0.0
  0
ARC
  5
1E3
330
1F
100
AcDbEntity
  8
0
  6
Continuous
 62
     7
370
    25
100
AcDbCircle
 10
3303.5246609149
 20
926.7166276083
 30
0.0
 40
4.0
100
AcDbArc
 50
90.0
 51
180.0
  0
ARC
  5
1E4
330
1F
100
AcDbEntity
  8
0
  6
Continuous
 62
     7
370
    25
100
AcDbCircle
 10
3303.5246609149
 20
884.7166276083
 30
0.0
 40
4.0
100
AcDbArc
 50
180.0
 51
270.0
  0
LINE
  5
1E5
330
1F
100
AcDbEntity
  8
0
  6
Continuous
 62
     7
370
    25
100
AcDbLine
 10
3349.52466248
 20
549.7166214095
 30
0.0
 11
3352.5246834608
 21
549.7166214095
 31
0.0
  0
LINE
  5
1E6
330
1F
100
AcDbEntity
  8
0
  6
Continuous
 62
     7
370
    25
100
AcDbLine
 10
3352.5246834608
 20
549.7166214095
 30
0.0
 11
3352.5246834608
 21
569.7166321383
 31
0.0
  0
LINE
  5
1E7
330
1F
100
AcDbEntity
  8
0
  6
Continuous
 62
     7
370
    25
100
AcDbLine
 10
3352.5246834608
 20
569.7166321383
 30
0.0
 11
3352.5246834608
 21
1241.7166230784
 31
0.0
  0
LINE
  5
1E8
330
1F
100
AcDbEntity
  8
0
  6
Continuous
 62
     7
370
    25
100
AcDbLine
 10
3349.52466248
 20
605.7166156874
 30
0.0
 11
3349.52466248
 21
1205.7166395293
 31
0.0
  0
LINE
  5
1E9
330
1F
100
AcDbEntity
  8
0
  6
Continuous
 62
     7
370
    25
100
AcDbLine
 10
3349.52466248
 20
1261.7166338072
 30
0.0
 11
3352.5246834608
 21
1261.7166338072
 31
0.0
  0
LINE
  5
1EA
330
1F
100
AcDbEntity
  8
0
  6
Continuous
 62
     7
370
    25
100
AcDbLine
 10
3352.5246834608
 20
1241.7166230784
 30
0.0
 11
3352.5246834608
 21
1261.7166338072
 31
0.0
  0
LINE
  5
1EB
330
1F
100
AcDbEntity
  8
0
  6
PHANTOM
 62
     8
370
    18
100
AcDbLine
 10
3064.0246724936
 20
592.9666159258
 30
0.0
 11
3064.0246724936
 21
590.7166299925
 31
0.0
  0
LINE
  5
1EC
330
1F
100
AcDbEntity
  8
0
  6
PHANTOM
 62
     8
370
    18
100
AcDbLine
 10
3096.5246414992
 20
592.9666159258
 30
0.0
 11
3096.5246414992
 21
590.7166299925
 31
0.0
  0
LINE
  5
1ED
330
1F
100
AcDbEntity
  8
0
  6
PHANTOM
 62
     8
370
    18
100
AcDbLine
 10
3112.5246739241
 20
592.9666159258
 30
0.0
 11
3112.5246739241
 21
590.7166299925
 31
0.0
  0
LINE
  5
1EE
330
1F
100
AcDbEntity
  8
0
  6
PHANTOM
 62
     8
370
    18
100
AcDbLine
 10
2452.5246625992
 20
593.9666328536
 30
0.0
 11
3132.5246548506
 21
593.9666328536
 31
0.0
  0
LINE
  5
1EF
330
1F
100
AcDbEntity
  8
0
  6
PHANTOM
 62
     8
370
    18
100
AcDbLine
 10
3132.5246548506
 20
602.4666128264
 30
0.0
 11
2452.5246625992
 21
602.4666128264
 31
0.0
  0
LINE
  5
1F0
330
1F
100
AcDbEntity
  8
0
  6
PHANTOM
 62
     8
370
    18
100
AcDbLine
 10
2442.5246572348
 20
593.9666328536
 30
0.0
 11
3055.5479085299
 21
593.9666328536
 31
0.0
  0
LINE
  5
1F1
330
1F
100
AcDbEntity
  8
0
  6
PHANTOM
 62
     8
370
    18
100
AcDbLine
 10
3055.5479085299
 20
602.4666128264
 30
0.0
 11
2442.5246572348
 21
602.4666128264
 31
0.0
  0
LINE
  5
1F2
330
1F
100
AcDbEntity
  8
0
  6
PHANTOM
 62
     8
370
    18
100
AcDbLine
 10
3345.5246543738
 20
610.7166407214
 30
0.0
 11
3345.5246543738
 21
880.7166272358
 31
0.0
  0
LINE
  5
1F3
330
1F
100
AcDbEntity
  8
0
  6
PHANTOM
 62
     8
370
    18
100
AcDbLine
 10
3303.5246586653
 20
610.7166407214
 30
0.0
 11
3303.5246586653
 21
880.7166272358
 31
0.0
  0
LINE
  5
1F4
330
1F
100
AcDbEntity
  8
0
  6
PHANTOM
 62
     8
370
    18
100
AcDbLine
 10
3345.5246543738
 20
930.7166279809
 30
0.0
 11
3345.5246543738
 21
1200.7166144953
 31
0.0
  0
LINE
  5
1F5
330
1F
100
AcDbEntity
  8
0
  6
PHANTOM
 62
     8
370
    18
100
AcDbLine
 10
3303.5246586653
 20
930.7166279809
 30
0.0
 11
3303.5246586653
 21
1200.7166144953
 31
0.0
  0
LINE
  5
1F6
330
1F
100
AcDbEntity
  8
0
  6
PHANTOM
 62
     8
370
    18
100
AcDbLine
 10
3349.52466248
 20
569.7166321383
 30
0.0
 11
3352.5246834608
 21
569.7166321383
 31
0.0
  0
LINE
  5
1F7
330
1F
100
AcDbEntity
  8
0
  6
PHANTOM
 62
     8
370
    18
100
AcDbLine
 10
3349.52466248
 20
1241.7166230784
 30
0.0
 11
3352.5246834608
 21
1241.7166230784
 31
0.0
  0
HATCH
  5
1F8
330
1F
100
AcDbEntity
  8
0
  6
Continuous
 62
     7
370
    18
100
AcDbHatch
 10
0.0
 20
0.0
 30
0.0
210
0.0
220
0.0
230
1.0
  2
ANSI34
 70
     0
 71
     0
 91
        1
 92
        0
 93
        8
 72
     1
 10
2417.52466091493
 20
1267.216627608348
 11
2452.52466091493
 21
1265.74969297692
 72
     1
 10
2452.52466091493
 20
1265.74969297692
 11
2452.52466091493
 21
1205.716627608348
 72
     1
 10
2452.52466091493
 20
1205.716627608348
 11
3239.52466091493
 21
1205.716627608348
 72
     1
 10
3239.52466091493
 20
1205.716627608348
 11
3239.52466091493
 21
1258.716627608348
 72
     1
 10
3239.52466091493
 20
1258.716627608348
 11
3204.52466091493
 21
1260.716627608348
 72
     1
 10
3204.52466091493
 20
1260.716627608348
 11
3204.52466091493
 21
1305.716627608348
 72
     1
 10
3204.52466091493
 20
1305.716627608348
 11
2417.52466091493
 21
1305.716627608348
 72
     1
 10
2417.52466091493
 20
1305.716627608348
 11
2417.52466091493
 21
1267.216627608348
 97
        0
 75
     0
 76
     1
 52
0.0
 41
10.0
 77
     0
 78
     4
 53
45.0
 43
0.0
 44
0.0
 45
-134.7038418160373
 46
134.7038418160373
 79
     0
 53
45.0
 43
44.9013
 44
0.0
 45
-134.7038418160373
 46
134.7038418160373
 79
     0
 53
45.0
 43
89.8026
 44
0.0
 45
-134.7038418160373
 46
134.7038418160373
 79
     0
 53
45.0
 43
134.704
 44
0.0
 45
-134.7038418160373
 46
134.7038418160373
 79
     0
 98
        1
 10
0.0
 20
0.0
  0
HATCH
  5
1F9
330
1F
100
AcDbEntity
  8
0
  6
Continuous
 62
     7
370
    18
100
AcDbHatch
 10
0.0
 20
0.0
 30
0.0
210
0.0
220
0.0
230
1.0
  2
ANSI34
 70
     0
 71
     0
 91
        1
 92
        0
 93
       10
 72
     1
 10
2417.52466091493
 20
505.7166276083477
 11
3204.52466091493
 21
505.7166276083476
 72
     1
 10
3204.52466091493
 20
505.7166276083476
 11
3204.52466091493
 21
550.7166276083476
 72
     1
 10
3204.52466091493
 20
550.7166276083476
 11
3239.52466091493
 21
552.7166276083476
 72
     1
 10
3239.52466091493
 20
552.7166276083476
 11
3239.52466091493
 21
605.7166276083475
 72
     1
 10
3239.52466091493
 20
605.7166276083475
 11
3132.52466091493
 21
605.7166276083475
 72
     1
 10
3132.52466091493
 20
605.7166276083475
 11
3132.52466091493
 21
590.7166276083475
 72
     1
 10
3132.52466091493
 20
590.7166276083475
 11
2452.52466091493
 21
590.7166276083477
 72
     1
 10
2452.52466091493
 20
590.7166276083477
 11
2452.52466091493
 21
545.6835622397754
 72
     1
 10
2452.52466091493
 20
545.6835622397754
 11
2417.52466091493
 21
544.2166276083477
 72
     1
 10
2417.52466091493
 20
544.2166276083477
 11
2417.52466091493
 21
505.7166276083477
 97
        0
 75
     0
 76
     1
 52
0.0
 41
10.0
 77
     0
 78
     4
 53
45.0
 43
0.0
 44
0.0
 45
-134.7038418160373
 46
134.7038418160373
 79
     0
 53
45.0
 43
44.9013
 44
0.0
 45
-134.7038418160373
 46
134.7038418160373
 79
     0
 53
45.0
 43
89.8026
 44
0.0
 45
-134.7038418160373
 46
134.7038418160373
 79
     0
 53
45.0
 43
134.704
 44
0.0
 45
-134.7038418160373
 46
134.7038418160373
 79
     0
 98
        1
 10
0.0
 20
0.0
  0
HATCH
  5
1FA
330
1F
100
AcDbEntity
  8
0
  6
Continuous
 62
     7
370
    18
100
AcDbHatch
 10
0.0
 20
0.0
 30
0.0
210
0.0
220
0.0
230
1.0
  2
ANSI34
 70
     0
 71
     0
 91
        1
 92
        0
 93
        8
 72
     1
 10
3349.52466091493
 20
605.7166276083474
 11
3249.52466091493
 21
605.7166276083474
 72
     1
 10
3249.52466091493
 20
605.7166276083474
 11
3249.52466091493
 21
545.7166276083474
 72
     1
 10
3249.52466091493
 20
545.7166276083474
 11
3214.52466091493
 21
545.7166276083474
 72
     1
 10
3214.52466091493
 20
545.7166276083474
 11
3214.52466091493
 21
505.7166276083473
 72
     1
 10
3214.52466091493
 20
505.7166276083473
 11
3314.52466091493
 21
505.7166276083473
 72
     1
 10
3314.52466091493
 20
505.7166276083473
 11
3314.52466091493
 21
547.2691891903244
 72
     1
 10
3314.52466091493
 20
547.2691891903244
 11
3349.52466091493
 21
549.7166276083473
 72
     1
 10
3349.52466091493
 20
549.7166276083473
 11
3349.52466091493
 21
605.7166276083474
 97
        0
 75
     0
 76
     1
 52
0.0
 41
10.0
 77
     0
 78
     4
 53
45.0
 43
0.0
 44
0.0
 45
-134.7038418160373
 46
134.7038418160373
 79
     0
 53
45.0
 43
44.9013
 44
0.0
 45
-134.7038418160373
 46
134.7038418160373
 79
     0
 53
45.0
 43
89.8026
 44
0.0
 45
-134.7038418160373
 46
134.7038418160373
 79
     0
 53
45.0
 43
134.704
 44
0.0
 45
-134.7038418160373
 46
134.7038418160373
 79
     0
 98
        1
 10
0.0
 20
0.0
  0
HATCH
  5
1FB
330
1F
100
AcDbEntity
  8
0
  6
Continuous
 62
     7
370
    18
100
AcDbHatch
 10
0.0
 20
0.0
 30
0.0
210
0.0
220
0.0
230
1.0
  2
ANSI34
 70
     0
 71
     0
 91
        1
 92
        0
 93
        8
 72
     1
 10
3214.52466091493
 20
1265.716627608347
 11
3249.52466091493
 21
1265.716627608347
 72
     1
 10
3249.52466091493
 20
1265.716627608347
 11
3249.52466091493
 21
1205.716627608348
 72
     1
 10
3249.52466091493
 20
1205.716627608348
 11
3349.52466091493
 21
1205.716627608347
 72
     1
 10
3349.52466091493
 20
1205.716627608347
 11
3349.52466091493
 21
1261.716627608347
 72
     1
 10
3349.52466091493
 20
1261.716627608347
 11
3314.52466091493
 21
1264.16406602637
 72
     1
 10
3314.52466091493
 20
1264.16406602637
 11
3314.52466091493
 21
1305.716627608347
 72
     1
 10
3314.52466091493
 20
1305.716627608347
 11
3214.52466091493
 21
1305.716627608348
 72
     1
 10
3214.52466091493
 20
1305.716627608348
 11
3214.52466091493
 21
1265.716627608347
 97
        0
 75
     0
 76
     1
 52
0.0
 41
10.0
 77
     0
 78
     4
 53
45.0
 43
0.0
 44
0.0
 45
-134.7038418160373
 46
134.7038418160373
 79
     0
 53
45.0
 43
44.9013
 44
0.0
 45
-134.7038418160373
 46
134.7038418160373
 79
     0
 53
45.0
 43
89.8026
 44
0.0
 45
-134.7038418160373
 46
134.7038418160373
 79
     0
 53
45.0
 43
134.704
 44
0.0
 45
-134.7038418160373
 46
134.7038418160373
 79
     0
 98
        1
 10
0.0
 20
0.0
  0
HATCH
  5
1FC
330
1F
100
AcDbEntity
  8
0
  6
Continuous
 62
     7
370
    18
100
AcDbHatch
 10
0.0
 20
0.0
 30
0.0
210
0.0
220
0.0
230
1.0
  2
ANSI31
 70
     0
 71
     0
 91
        1
 92
        0
 93
        4
 72
     1
 10
3092.024660914931
 20
590.7166276083475
 11
3092.024660914931
 21
592.9666276083475
 72
     1
 10
3092.024660914931
 20
592.9666276083475
 11
3068.52466091493
 21
592.9666276083475
 72
     1
 10
3068.52466091493
 20
592.9666276083475
 11
3068.52466091493
 21
590.7166276083475
 72
     1
 10
3068.52466091493
 20
590.7166276083475
 11
3092.024660914931
 21
590.7166276083475
 97
        0
 75
     0
 76
     1
 52
90.0
 41
10.0
 77
     0
 78
     1
 53
135.0000000000002
 43
0.0
 44
0.0
 45
-22.45064030267281
 46
-22.45064030267296
 79
     0
 98
        1
 10
0.0
 20
0.0
  0
HATCH
  5
1FD
330
1F
100
AcDbEntity
  8
0
  6
Continuous
 62
     7
370
    18
100
AcDbHatch
 10
0.0
 20
0.0
 30
0.0
210
0.0
220
0.0
230
1.0
  2
ANSI31
 70
     0
 71
     0
 91
        1
 92
        0
 93
        4
 72
     1
 10
3020.02466091493
 20
592.9666276083475
 11
3020.02466091493
 21
590.7166276083475
 72
     1
 10
3020.02466091493
 20
590.7166276083475
 11
3043.524660914931
 21
590.7166276083475
 72
     1
 10
3043.524660914931
 20
590.7166276083475
 11
3043.524660914931
 21
592.9666276083475
 72
     1
 10
3043.524660914931
 20
592.9666276083475
 11
3020.02466091493
 21
592.9666276083475
 97
        0
 75
     0
 76
     1
 52
90.0
 41
10.0
 77
     0
 78
     1
 53
135.0000000000002
 43
0.0
 44
0.0
 45
-22.45064030267281
 46
-22.45064030267296
 79
     0
 98
        1
 10
0.0
 20
0.0
  0
HATCH
  5
1FE
330
1F
100
AcDbEntity
  8
0
  6
Continuous
 62
     7
370
    18
100
AcDbHatch
 10
0.0
 20
0.0
 30
0.0
210
0.0
220
0.0
230
1.0
  2
ANSI31
 70
     0
 71
     0
 91
        1
 92
        0
 93
        4
 72
     1
 10
3117.02466091493
 20
590.7166276083475
 11
3132.52466091493
 21
590.7166276083475
 72
     1
 10
3132.52466091493
 20
590.7166276083475
 11
3132.52466091493
 21
592.9666276083475
 72
     1
 10
3132.52466091493
 20
592.9666276083475
 11
3117.02466091493
 21
592.9666276083475
 72
     1
 10
3117.02466091493
 20
592.9666276083475
 11
3117.02466091493
 21
590.7166276083475
 97
        0
 75
     0
 76
     1
 52
90.0
 41
10.0
 77
     0
 78
     1
 53
135.0000000000002
 43
0.0
 44
0.0
 45
-22.45064030267281
 46
-22.45064030267296
 79
     0
 98
        1
 10
0.0
 20
0.0
  0
HATCH
  5
1FF
330
1F
100
AcDbEntity
  8
0
  6
Continuous
 62
     7
370
    18
100
AcDbHatch
 10
0.0
 20
0.0
 30
0.0
210
0.0
220
0.0
230
1.0
  2
ANSI31
 70
     0
 71
     0
 91
        1
 92
        0
 93
        4
 72
     1
 10
2971.52466091493
 20
590.7166276083475
 11
2995.024660914931
 21
590.7166276083475
 72
     1
 10
2995.024660914931
 20
590.7166276083475
 11
2995.024660914931
 21
592.9666276083475
 72
     1
 10
2995.024660914931
 20
592.9666276083475
 11
2971.52466091493
 21
592.9666276083475
 72
     1
 10
2971.52466091493
 20
592.9666276083475
 11
2971.52466091493
 21
590.7166276083475
 97
        0
 75
     0
 76
     1
 52
90.0
 41
10.0
 77
     0
 78
     1
 53
135.0000000000002
 43
0.0
 44
0.0
 45
-22.45064030267281
 46
-22.45064030267296
 79
     0
 98
        1
 10
0.0
 20
0.0
  0
HATCH
  5
200
330
1F
100
AcDbEntity
  8
0
  6
Continuous
 62
     7
370
    18
100
AcDbHatch
 10
0.0
 20
0.0
 30
0.0
210
0.0
220
0.0
230
1.0
  2
ANSI31
 70
     0
 71
     0
 91
        1
 92
        0
 93
        4
 72
     1
 10
2923.02466091493
 20
590.7166276083475
 11
2946.524660914931
 21
590.7166276083475
 72
     1
 10
2946.524660914931
 20
590.7166276083475
 11
2946.524660914931
 21
592.9666276083475
 72
     1
 10
2946.524660914931
 20
592.9666276083475
 11
2923.02466091493
 21
592.9666276083475
 72
     1
 10
2923.02466091493
 20
592.9666276083475
 11
2923.02466091493
 21
590.7166276083475
 97
        0
 75
     0
 76
     1
 52
90.0
 41
10.0
 77
     0
 78
     1
 53
135.0000000000002
 43
0.0
 44
0.0
 45
-22.45064030267281
 46
-22.45064030267296
 79
     0
 98
        1
 10
0.0
 20
0.0
  0
HATCH
  5
201
330
1F
100
AcDbEntity
  8
0
  6
Continuous
 62
     7
370
    18
100
AcDbHatch
 10
0.0
 20
0.0
 30
0.0
210
0.0
220
0.0
230
1.0
  2
ANSI31
 70
     0
 71
     0
 91
        1
 92
        0
 93
        4
 72
     1
 10
2874.52466091493
 20
590.7166276083475
 11
2898.024660914931
 21
590.7166276083475
 72
     1
 10
2898.024660914931
 20
590.7166276083475
 11
2898.024660914931
 21
592.9666276083475
 72
     1
 10
2898.024660914931
 20
592.9666276083475
 11
2874.52466091493
 21
592.9666276083475
 72
     1
 10
2874.52466091493
 20
592.9666276083475
 11
2874.52466091493
 21
590.7166276083475
 97
        0
 75
     0
 76
     1
 52
90.0
 41
10.0
 77
     0
 78
     1
 53
135.0000000000002
 43
0.0
 44
0.0
 45
-22.45064030267281
 46
-22.45064030267296
 79
     0
 98
        1
 10
0.0
 20
0.0
  0
HATCH
  5
202
330
1F
100
AcDbEntity
  8
0
  6
Continuous
 62
     7
370
    18
100
AcDbHatch
 10
0.0
 20
0.0
 30
0.0
210
0.0
220
0.0
230
1.0
  2
ANSI31
 70
     0
 71
     0
 91
        1
 92
        0
 93
        4
 72
     1
 10
2826.02466091493
 20
590.7166276083475
 11
2849.524660914931
 21
590.7166276083475
 72
     1
 10
2849.524660914931
 20
590.7166276083475
 11
2849.524660914931
 21
592.9666276083475
 72
     1
 10
2849.524660914931
 20
592.9666276083475
 11
2826.02466091493
 21
592.9666276083475
 72
     1
 10
2826.02466091493
 20
592.9666276083475
 11
2826.02466091493
 21
590.7166276083475
 97
        0
 75
     0
 76
     1
 52
90.0
 41
10.0
 77
     0
 78
     1
 53
135.0000000000002
 43
0.0
 44
0.0
 45
-22.45064030267281
 46
-22.45064030267296
 79
     0
 98
        1
 10
0.0
 20
0.0
  0
HATCH
  5
203
330
1F
100
AcDbEntity
  8
0
  6
Continuous
 62
     7
370
    18
100
AcDbHatch
 10
0.0
 20
0.0
 30
0.0
210
0.0
220
0.0
230
1.0
  2
ANSI31
 70
     0
 71
     0
 91
        1
 92
        0
 93
        4
 72
     1
 10
2777.52466091493
 20
590.7166276083475
 11
2801.024660914931
 21
590.7166276083475
 72
     1
 10
2801.024660914931
 20
590.7166276083475
 11
2801.024660914931
 21
592.9666276083475
 72
     1
 10
2801.024660914931
 20
592.9666276083475
 11
2777.52466091493
 21
592.9666276083475
 72
     1
 10
2777.52466091493
 20
592.9666276083475
 11
2777.52466091493
 21
590.7166276083475
 97
        0
 75
     0
 76
     1
 52
90.0
 41
10.0
 77
     0
 78
     1
 53
135.0000000000002
 43
0.0
 44
0.0
 45
-22.45064030267281
 46
-22.45064030267296
 79
     0
 98
        1
 10
0.0
 20
0.0
  0
HATCH
  5
204
330
1F
100
AcDbEntity
  8
0
  6
Continuous
 62
     7
370
    18
100
AcDbHatch
 10
0.0
 20
0.0
 30
0.0
210
0.0
220
0.0
230
1.0
  2
ANSI31
 70
     0
 71
     0
 91
        1
 92
        0
 93
        4
 72
     1
 10
2729.02466091493
 20
590.7166276083475
 11
2752.524660914931
 21
590.7166276083475
 72
     1
 10
2752.524660914931
 20
590.7166276083475
 11
2752.524660914931
 21
592.9666276083475
 72
     1
 10
2752.524660914931
 20
592.9666276083475
 11
2729.02466091493
 21
592.9666276083475
 72
     1
 10
2729.02466091493
 20
592.9666276083475
 11
2729.02466091493
 21
590.7166276083475
 97
        0
 75
     0
 76
     1
 52
90.0
 41
10.0
 77
     0
 78
     1
 53
135.0000000000002
 43
0.0
 44
0.0
 45
-22.45064030267281
 46
-22.45064030267296
 79
     0
 98
        1
 10
0.0
 20
0.0
  0
HATCH
  5
205
330
1F
100
AcDbEntity
  8
0
  6
Continuous
 62
     7
370
    18
100
AcDbHatch
 10
0.0
 20
0.0
 30
0.0
210
0.0
220
0.0
230
1.0
  2
ANSI31
 70
     0
 71
     0
 91
        1
 92
        0
 93
        4
 72
     1
 10
2680.52466091493
 20
590.7166276083476
 11
2704.024660914931
 21
590.7166276083476
 72
     1
 10
2704.024660914931
 20
590.7166276083476
 11
2704.024660914931
 21
592.9666276083476
 72
     1
 10
2704.024660914931
 20
592.9666276083476
 11
2680.52466091493
 21
592.9666276083476
 72
     1
 10
2680.52466091493
 20
592.9666276083476
 11
2680.52466091493
 21
590.7166276083476
 97
        0
 75
     0
 76
     1
 52
90.0
 41
10.0
 77
     0
 78
     1
 53
135.0000000000002
 43
0.0
 44
0.0
 45
-22.45064030267281
 46
-22.45064030267296
 79
     0
 98
        1
 10
0.0
 20
0.0
  0
HATCH
  5
206
330
1F
100
AcDbEntity
  8
0
  6
Continuous
 62
     7
370
    18
100
AcDbHatch
 10
0.0
 20
0.0
 30
0.0
210
0.0
220
0.0
230
1.0
  2
ANSI31
 70
     0
 71
     0
 91
        1
 92
        0
 93
        4
 72
     1
 10
2632.02466091493
 20
590.7166276083476
 11
2655.524660914931
 21
590.7166276083476
 72
     1
 10
2655.524660914931
 20
590.7166276083476
 11
2655.524660914931
 21
592.9666276083476
 72
     1
 10
2655.524660914931
 20
592.9666276083476
 11
2632.02466091493
 21
592.9666276083476
 72
     1
 10
2632.02466091493
 20
592.9666276083476
 11
2632.02466091493
 21
590.7166276083476
 97
        0
 75
     0
 76
     1
 52
90.0
 41
10.0
 77
     0
 78
     1
 53
135.0000000000002
 43
0.0
 44
0.0
 45
-22.45064030267281
 46
-22.45064030267296
 79
     0
 98
        1
 10
0.0
 20
0.0
  0
HATCH
  5
207
330
1F
100
AcDbEntity
  8
0
  6
Continuous
 62
     7
370
    18
100
AcDbHatch
 10
0.0
 20
0.0
 30
0.0
210
0.0
220
0.0
230
1.0
  2
ANSI31
 70
     0
 71
     0
 91
        1
 92
        0
 93
        4
 72
     1
 10
2583.52466091493
 20
590.7166276083476
 11
2607.024660914931
 21
590.7166276083476
 72
     1
 10
2607.024660914931
 20
590.7166276083476
 11
2607.024660914931
 21
592.9666276083476
 72
     1
 10
2607.024660914931
 20
592.9666276083476
 11
2583.52466091493
 21
592.9666276083476
 72
     1
 10
2583.52466091493
 20
592.9666276083476
 11
2583.52466091493
 21
590.7166276083476
 97
        0
 75
     0
 76
     1
 52
90.0
 41
10.0
 77
     0
 78
     1
 53
135.0000000000002
 43
0.0
 44
0.0
 45
-22.45064030267281
 46
-22.45064030267296
 79
     0
 98
        1
 10
0.0
 20
0.0
  0
HATCH
  5
208
330
1F
100
AcDbEntity
  8
0
  6
Continuous
 62
     7
370
    18
100
AcDbHatch
 10
0.0
 20
0.0
 30
0.0
210
0.0
220
0.0
230
1.0
  2
ANSI31
 70
     0
 71
     0
 91
        1
 92
        0
 93
        4
 72
     1
 10
2535.02466091493
 20
590.7166276083476
 11
2558.524660914931
 21
590.7166276083476
 72
     1
 10
2558.524660914931
 20
590.7166276083476
 11
2558.524660914931
 21
592.9666276083476
 72
     1
 10
2558.524660914931
 20
592.9666276083476
 11
2535.02466091493
 21
592.9666276083476
 72
     1
 10
2535.02466091493
 20
592.9666276083476
 11
2535.02466091493
 21
590.7166276083476
 97
        0
 75
     0
 76
     1
 52
90.0
 41
10.0
 77
     0
 78
     1
 53
135.0000000000002
 43
0.0
 44
0.0
 45
-22.45064030267281
 46
-22.45064030267296
 79
     0
 98
        1
 10
0.0
 20
0.0
  0
HATCH
  5
209
330
1F
100
AcDbEntity
  8
0
  6
Continuous
 62
     7
370
    18
100
AcDbHatch
 10
0.0
 20
0.0
 30
0.0
210
0.0
220
0.0
230
1.0
  2
ANSI31
 70
     0
 71
     0
 91
        1
 92
        0
 93
        4
 72
     1
 10
2452.52466091493
 20
590.7166276083476
 11
2510.024660914931
 21
590.7166276083476
 72
     1
 10
2510.024660914931
 20
590.7166276083476
 11
2510.024660914931
 21
592.9666276083476
 72
     1
 10
2510.024660914931
 20
592.9666276083476
 11
2452.52466091493
 21
592.9666276083476
 72
     1
 10
2452.52466091493
 20
592.9666276083476
 11
2452.52466091493
 21
590.7166276083476
 97
        0
 75
     0
 76
     1
 52
90.0
 41
10.0
 77
     0
 78
     1
 53
135.0000000000002
 43
0.0
 44
0.0
 45
-22.45064030267281
 46
-22.45064030267296
 79
     0
 98
        1
 10
0.0
 20
0.0
  0
HATCH
  5
20A
330
1F
100
AcDbEntity
  8
0
  6
Continuous
 62
     7
370
    18
100
AcDbHatch
 10
0.0
 20
0.0
 30
0.0
210
0.0
220
0.0
230
1.0
  2
ANSI34
 70
     0
 71
     0
 91
        1
 92
        0
 93
        6
 72
     1
 10
2442.52466091493
 20
705.7166276083476
 11
2362.52466091493
 21
705.7166276083476
 72
     1
 10
2362.52466091493
 20
705.7166276083476
 11
2362.52466091493
 21
505.7166276083476
 72
     1
 10
2362.52466091493
 20
505.7166276083476
 11
2407.52466091493
 21
505.7166276083476
 72
     1
 10
2407.52466091493
 20
505.7166276083476
 11
2407.52466091493
 21
547.7166276083476
 72
     1
 10
2407.52466091493
 20
547.7166276083476
 11
2442.52466091493
 21
547.7166276083475
 72
     1
 10
2442.52466091493
 20
547.7166276083475
 11
2442.52466091493
 21
705.7166276083476
 97
        0
 75
     0
 76
     1
 52
0.0
 41
10.0
 77
     0
 78
     4
 53
45.0
 43
0.0
 44
0.0
 45
-134.7038418160373
 46
134.7038418160373
 79
     0
 53
45.0
 43
44.9013
 44
0.0
 45
-134.7038418160373
 46
134.7038418160373
 79
     0
 53
45.0
 43
89.8026
 44
0.0
 45
-134.7038418160373
 46
134.7038418160373
 79
     0
 53
45.0
 43
134.704
 44
0.0
 45
-134.7038418160373
 46
134.7038418160373
 79
     0
 98
        1
 10
0.0
 20
0.0
  0
HATCH
  5
20B
330
1F
100
AcDbEntity
  8
0
  6
Continuous
 62
     7
370
    18
100
AcDbHatch
 10
0.0
 20
0.0
 30
0.0
210
0.0
220
0.0
230
1.0
  2
ANSI34
 70
     0
 71
     0
 91
        1
 92
        0
 93
        6
 72
     1
 10
2407.52466091493
 20
1305.716627608348
 11
2362.52466091493
 21
1305.716627608348
 72
     1
 10
2362.52466091493
 20
1305.716627608348
 11
2362.52466091493
 21
1105.716627608348
 72
     1
 10
2362.52466091493
 20
1105.716627608348
 11
2442.52466091493
 21
1105.716627608348
 72
     1
 10
2442.52466091493
 20
1105.716627608348
 11
2442.52466091493
 21
1263.716627608348
 72
     1
 10
2442.52466091493
 20
1263.716627608348
 11
2407.52466091493
 21
1263.716627608348
 72
     1
 10
2407.52466091493
 20
1263.716627608348
 11
2407.52466091493
 21
1305.716627608348
 97
        0
 75
     0
 76
     1
 52
0.0
 41
10.0
 77
     0
 78
     4
 53
45.0
 43
0.0
 44
0.0
 45
-134.7038418160373
 46
134.7038418160373
 79
     0
 53
45.0
 43
44.9013
 44
0.0
 45
-134.7038418160373
 46
134.7038418160373
 79
     0
 53
45.0
 43
89.8026
 44
0.0
 45
-134.7038418160373
 46
134.7038418160373
 79
     0
 53
45.0
 43
134.704
 44
0.0
 45
-134.7038418160373
 46
134.7038418160373
 79
     0
 98
        1
 10
0.0
 20
0.0
  0
HATCH
  5
20C
330
1F
100
AcDbEntity
  8
0
  6
Continuous
 62
     7
370
    18
100
AcDbHatch
 10
0.0
 20
0.0
 30
0.0
210
0.0
220
0.0
230
1.0
  2
ANSI31
 70
     0
 71
     0
 91
        1
 92
        0
 93
        4
 72
     1
 10
3015.047904879906
 20
590.7166276083475
 11
3015.047904879906
 21
592.9666276083475
 72
     1
 10
3015.047904879906
 20
592.9666276083475
 11
2991.547904879905
 21
592.9666276083476
 72
     1
 10
2991.547904879905
 20
592.9666276083476
 11
2991.547904879905
 21
590.7166276083476
 72
     1
 10
2991.547904879905
 20
590.7166276083476
 11
3015.047904879906
 21
590.7166276083475
 97
        0
 75
     0
 76
     1
 52
0.0
 41
10.0
 77
     0
 78
     1
 53
45.0
 43
0.0
 44
0.0
 45
-22.45064030267288
 46
22.45064030267288
 79
     0
 98
        1
 10
0.0
 20
0.0
  0
HATCH
  5
20D
330
1F
100
AcDbEntity
  8
0
  6
Continuous
 62
     7
370
    18
100
AcDbHatch
 10
0.0
 20
0.0
 30
0.0
210
0.0
220
0.0
230
1.0
  2
ANSI31
 70
     0
 71
     0
 91
        1
 92
        0
 93
        4
 72
     1
 10
2943.047904879906
 20
592.9666276083476
 11
2943.047904879906
 21
590.7166276083476
 72
     1
 10
2943.047904879906
 20
590.7166276083476
 11
2966.547904879907
 21
590.7166276083476
 72
     1
 10
2966.547904879907
 20
590.7166276083476
 11
2966.547904879907
 21
592.9666276083476
 72
     1
 10
2966.547904879907
 20
592.9666276083476
 11
2943.047904879906
 21
592.9666276083476
 97
        0
 75
     0
 76
     1
 52
0.0
 41
10.0
 77
     0
 78
     1
 53
45.0
 43
0.0
 44
0.0
 45
-22.45064030267288
 46
22.45064030267288
 79
     0
 98
        1
 10
0.0
 20
0.0
  0
HATCH
  5
20E
330
1F
100
AcDbEntity
  8
0
  6
Continuous
 62
     7
370
    18
100
AcDbHatch
 10
0.0
 20
0.0
 30
0.0
210
0.0
220
0.0
230
1.0
  2
ANSI31
 70
     0
 71
     0
 91
        1
 92
        0
 93
        4
 72
     1
 10
3040.047904879906
 20
590.7166276083475
 11
3055.547904879906
 21
590.7166276083475
 72
     1
 10
3055.547904879906
 20
590.7166276083475
 11
3055.547904879906
 21
592.9666276083475
 72
     1
 10
3055.547904879906
 20
592.9666276083475
 11
3040.047904879906
 21
592.9666276083475
 72
     1
 10
3040.047904879906
 20
592.9666276083475
 11
3040.047904879906
 21
590.7166276083475
 97
        0
 75
     0
 76
     1
 52
0.0
 41
10.0
 77
     0
 78
     1
 53
45.0
 43
0.0
 44
0.0
 45
-22.45064030267288
 46
22.45064030267288
 79
     0
 98
        1
 10
0.0
 20
0.0
  0
HATCH
  5
20F
330
1F
100
AcDbEntity
  8
0
  6
Continuous
 62
     7
370
    18
100
AcDbHatch
 10
0.0
 20
0.0
 30
0.0
210
0.0
220
0.0
230
1.0
  2
ANSI31
 70
     0
 71
     0
 91
        1
 92
        0
 93
        4
 72
     1
 10
2894.547904879906
 20
590.7166276083476
 11
2918.047904879906
 21
590.7166276083476
 72
     1
 10
2918.047904879906
 20
590.7166276083476
 11
2918.047904879906
 21
592.9666276083476
 72
     1
 10
2918.047904879906
 20
592.9666276083476
 11
2894.547904879906
 21
592.9666276083476
 72
     1
 10
2894.547904879906
 20
592.9666276083476
 11
2894.547904879906
 21
590.7166276083476
 97
        0
 75
     0
 76
     1
 52
0.0
 41
10.0
 77
     0
 78
     1
 53
45.0
 43
0.0
 44
0.0
 45
-22.45064030267288
 46
22.45064030267288
 79
     0
 98
        1
 10
0.0
 20
0.0
  0
HATCH
  5
210
330
1F
100
AcDbEntity
  8
0
  6
Continuous
 62
     7
370
    18
100
AcDbHatch
 10
0.0
 20
0.0
 30
0.0
210
0.0
220
0.0
230
1.0
  2
ANSI31
 70
     0
 71
     0
 91
        1
 92
        0
 93
        4
 72
     1
 10
2846.047904879905
 20
590.7166276083476
 11
2869.547904879906
 21
590.7166276083476
 72
     1
 10
2869.547904879906
 20
590.7166276083476
 11
2869.547904879906
 21
592.9666276083476
 72
     1
 10
2869.547904879906
 20
592.9666276083476
 11
2846.047904879905
 21
592.9666276083476
 72
     1
 10
2846.047904879905
 20
592.9666276083476
 11
2846.047904879905
 21
590.7166276083476
 97
        0
 75
     0
 76
     1
 52
0.0
 41
10.0
 77
     0
 78
     1
 53
45.0
 43
0.0
 44
0.0
 45
-22.45064030267288
 46
22.45064030267288
 79
     0
 98
        1
 10
0.0
 20
0.0
  0
HATCH
  5
211
330
1F
100
AcDbEntity
  8
0
  6
Continuous
 62
     7
370
    18
100
AcDbHatch
 10
0.0
 20
0.0
 30
0.0
210
0.0
220
0.0
230
1.0
  2
ANSI31
 70
     0
 71
     0
 91
        1
 92
        0
 93
        4
 72
     1
 10
2797.547904879906
 20
590.7166276083476
 11
2821.047904879907
 21
590.7166276083476
 72
     1
 10
2821.047904879907
 20
590.7166276083476
 11
2821.047904879907
 21
592.9666276083476
 72
     1
 10
2821.047904879907
 20
592.9666276083476
 11
2797.547904879906
 21
592.9666276083476
 72
     1
 10
2797.547904879906
 20
592.9666276083476
 11
2797.547904879906
 21
590.7166276083476
 97
        0
 75
     0
 76
     1
 52
0.0
 41
10.0
 77
     0
 78
     1
 53
45.0
 43
0.0
 44
0.0
 45
-22.45064030267288
 46
22.45064030267288
 79
     0
 98
        1
 10
0.0
 20
0.0
  0
HATCH
  5
212
330
1F
100
AcDbEntity
  8
0
  6
Continuous
 62
     7
370
    18
100
AcDbHatch
 10
0.0
 20
0.0
 30
0.0
210
0.0
220
0.0
230
1.0
  2
ANSI31
 70
     0
 71
     0
 91
        1
 92
        0
 93
        4
 72
     1
 10
2749.047904879906
 20
590.7166276083476
 11
2772.547904879906
 21
590.7166276083476
 72
     1
 10
2772.547904879906
 20
590.7166276083476
 11
2772.547904879906
 21
592.9666276083476
 72
     1
 10
2772.547904879906
 20
592.9666276083476
 11
2749.047904879906
 21
592.9666276083476
 72
     1
 10
2749.047904879906
 20
592.9666276083476
 11
2749.047904879906
 21
590.7166276083476
 97
        0
 75
     0
 76
     1
 52
0.0
 41
10.0
 77
     0
 78
     1
 53
45.0
 43
0.0
 44
0.0
 45
-22.45064030267288
 46
22.45064030267288
 79
     0
 98
        1
 10
0.0
 20
0.0
  0
HATCH
  5
213
330
1F
100
AcDbEntity
  8
0
  6
Continuous
 62
     7
370
    18
100
AcDbHatch
 10
0.0
 20
0.0
 30
0.0
210
0.0
220
0.0
230
1.0
  2
ANSI31
 70
     0
 71
     0
 91
        1
 92
        0
 93
        4
 72
     1
 10
2700.547904879905
 20
590.7166276083477
 11
2724.047904879906
 21
590.7166276083476
 72
     1
 10
2724.047904879906
 20
590.7166276083476
 11
2724.047904879906
 21
592.9666276083476
 72
     1
 10
2724.047904879906
 20
592.9666276083476
 11
2700.547904879905
 21
592.9666276083476
 72
     1
 10
2700.547904879905
 20
592.9666276083476
 11
2700.547904879905
 21
590.7166276083477
 97
        0
 75
     0
 76
     1
 52
0.0
 41
10.0
 77
     0
 78
     1
 53
45.0
 43
0.0
 44
0.0
 45
-22.45064030267288
 46
22.45064030267288
 79
     0
 98
        1
 10
0.0
 20
0.0
  0
HATCH
  5
214
330
1F
100
AcDbEntity
  8
0
  6
Continuous
 62
     7
370
    18
100
AcDbHatch
 10
0.0
 20
0.0
 30
0.0
210
0.0
220
0.0
230
1.0
  2
ANSI31
 70
     0
 71
     0
 91
        1
 92
        0
 93
        4
 72
     1
 10
2652.047904879906
 20
590.7166276083477
 11
2675.547904879906
 21
590.7166276083477
 72
     1
 10
2675.547904879906
 20
590.7166276083477
 11
2675.547904879906
 21
592.9666276083476
 72
     1
 10
2675.547904879906
 20
592.9666276083476
 11
2652.047904879906
 21
592.9666276083476
 72
     1
 10
2652.047904879906
 20
592.9666276083476
 11
2652.047904879906
 21
590.7166276083477
 97
        0
 75
     0
 76
     1
 52
0.0
 41
10.0
 77
     0
 78
     1
 53
45.0
 43
0.0
 44
0.0
 45
-22.45064030267288
 46
22.45064030267288
 79
     0
 98
        1
 10
0.0
 20
0.0
  0
HATCH
  5
215
330
1F
100
AcDbEntity
  8
0
  6
Continuous
 62
     7
370
    18
100
AcDbHatch
 10
0.0
 20
0.0
 30
0.0
210
0.0
220
0.0
230
1.0
  2
ANSI31
 70
     0
 71
     0
 91
        1
 92
        0
 93
        4
 72
     1
 10
2603.547904879905
 20
590.7166276083477
 11
2627.047904879906
 21
590.7166276083477
 72
     1
 10
2627.047904879906
 20
590.7166276083477
 11
2627.047904879906
 21
592.9666276083476
 72
     1
 10
2627.047904879906
 20
592.9666276083476
 11
2603.547904879905
 21
592.9666276083476
 72
     1
 10
2603.547904879905
 20
592.9666276083476
 11
2603.547904879905
 21
590.7166276083477
 97
        0
 75
     0
 76
     1
 52
0.0
 41
10.0
 77
     0
 78
     1
 53
45.0
 43
0.0
 44
0.0
 45
-22.45064030267288
 46
22.45064030267288
 79
     0
 98
        1
 10
0.0
 20
0.0
  0
HATCH
  5
216
330
1F
100
AcDbEntity
  8
0
  6
Continuous
 62
     7
370
    18
100
AcDbHatch
 10
0.0
 20
0.0
 30
0.0
210
0.0
220
0.0
230
1.0
  2
ANSI31
 70
     0
 71
     0
 91
        1
 92
        0
 93
        4
 72
     1
 10
2555.047904879906
 20
590.7166276083477
 11
2578.547904879906
 21
590.7166276083477
 72
     1
 10
2578.547904879906
 20
590.7166276083477
 11
2578.547904879906
 21
592.9666276083476
 72
     1
 10
2578.547904879906
 20
592.9666276083476
 11
2555.047904879906
 21
592.9666276083476
 72
     1
 10
2555.047904879906
 20
592.9666276083476
 11
2555.047904879906
 21
590.7166276083477
 97
        0
 75
     0
 76
     1
 52
0.0
 41
10.0
 77
     0
 78
     1
 53
45.0
 43
0.0
 44
0.0
 45
-22.45064030267288
 46
22.45064030267288
 79
     0
 98
        1
 10
0.0
 20
0.0
  0
HATCH
  5
217
330
1F
100
AcDbEntity
  8
0
  6
Continuous
 62
     7
370
    18
100
AcDbHatch
 10
0.0
 20
0.0
 30
0.0
210
0.0
220
0.0
230
1.0
  2
ANSI31
 70
     0
 71
     0
 91
        1
 92
        0
 93
        4
 72
     1
 10
2506.547904879906
 20
590.7166276083477
 11
2530.047904879906
 21
590.7166276083477
 72
     1
 10
2530.047904879906
 20
590.7166276083477
 11
2530.047904879906
 21
592.9666276083476
 72
     1
 10
2530.047904879906
 20
592.9666276083476
 11
2506.547904879906
 21
592.9666276083476
 72
     1
 10
2506.547904879906
 20
592.9666276083476
 11
2506.547904879906
 21
590.7166276083477
 97
        0
 75
     0
 76
     1
 52
0.0
 41
10.0
 77
     0
 78
     1
 53
45.0
 43
0.0
 44
0.0
 45
-22.45064030267288
 46
22.45064030267288
 79
     0
 98
        1
 10
0.0
 20
0.0
  0
HATCH
  5
218
330
1F
100
AcDbEntity
  8
0
  6
Continuous
 62
     7
370
    18
100
AcDbHatch
 10
0.0
 20
0.0
 30
0.0
210
0.0
220
0.0
230
1.0
  2
ANSI31
 70
     0
 71
     0
 91
        1
 92
        0
 93
        4
 72
     1
 10
2458.047904879906
 20
590.7166276083477
 11
2481.547904879906
 21
590.7166276083477
 72
     1
 10
2481.547904879906
 20
590.7166276083477
 11
2481.547904879906
 21
592.9666276083476
 72
     1
 10
2481.547904879906
 20
592.9666276083476
 11
2458.047904879906
 21
592.9666276083476
 72
     1
 10
2458.047904879906
 20
592.9666276083476
 11
2458.047904879906
 21
590.7166276083477
 97
        0
 75
     0
 76
     1
 52
0.0
 41
10.0
 77
     0
 78
     1
 53
45.0
 43
0.0
 44
0.0
 45
-22.45064030267288
 46
22.45064030267288
 79
     0
 98
        1
 10
0.0
 20
0.0
  0
HATCH
  5
219
330
1F
100
AcDbEntity
  8
0
  6
Continuous
 62
     7
370
    18
100
AcDbHatch
 10
0.0
 20
0.0
 30
0.0
210
0.0
220
0.0
230
1.0
  2
ANSI31
 70
     0
 71
     0
 91
        1
 92
        0
 93
        4
 72
     1
 10
2375.547904879906
 20
590.7166276083477
 11
2433.047904879906
 21
590.7166276083477
 72
     1
 10
2433.047904879906
 20
590.7166276083477
 11
2433.047904879906
 21
592.9666276083476
 72
     1
 10
2433.047904879906
 20
592.9666276083476
 11
2375.547904879906
 21
592.9666276083477
 72
     1
 10
2375.547904879906
 20
592.9666276083477
 11
2375.547904879906
 21
590.7166276083477
 97
        0
 75
     0
 76
     1
 52
0.0
 41
10.0
 77
     0
 78
     1
 53
45.0
 43
0.0
 44
0.0
 45
-22.45064030267288
 46
22.45064030267288
 79
     0
 98
        1
 10
0.0
 20
0.0
  0
HATCH
  5
21A
330
1F
100
AcDbEntity
  8
0
  6
Continuous
 62
     7
370
    18
100
AcDbHatch
 10
0.0
 20
0.0
 30
0.0
210
0.0
220
0.0
230
1.0
  2
ANSI31
 70
     0
 71
     0
 91
        1
 92
        0
 93
        4
 72
     1
 10
3092.024660914931
 20
590.7166276083475
 11
3092.024660914931
 21
592.9666276083475
 72
     1
 10
3092.024660914931
 20
592.9666276083475
 11
3068.52466091493
 21
592.9666276083475
 72
     1
 10
3068.52466091493
 20
592.9666276083475
 11
3068.52466091493
 21
590.7166276083475
 72
     1
 10
3068.52466091493
 20
590.7166276083475
 11
3092.024660914931
 21
590.7166276083475
 97
        0
 75
     0
 76
     1
 52
90.0
 41
10.0
 77
     0
 78
     1
 53
135.0000000000002
 43
0.0
 44
0.0
 45
-22.45064030267281
 46
-22.45064030267296
 79
     0
 98
        1
 10
0.0
 20
0.0
  0
HATCH
  5
21B
330
1F
100
AcDbEntity
  8
0
  6
Continuous
 62
     7
370
    18
100
AcDbHatch
 10
0.0
 20
0.0
 30
0.0
210
0.0
220
0.0
230
1.0
  2
ANSI31
 70
     0
 71
     0
 91
        1
 92
        0
 93
        4
 72
     1
 10
3020.02466091493
 20
592.9666276083475
 11
3020.02466091493
 21
590.7166276083475
 72
     1
 10
3020.02466091493
 20
590.7166276083475
 11
3043.524660914931
 21
590.7166276083475
 72
     1
 10
3043.524660914931
 20
590.7166276083475
 11
3043.524660914931
 21
592.9666276083475
 72
     1
 10
3043.524660914931
 20
592.9666276083475
 11
3020.02466091493
 21
592.9666276083475
 97
        0
 75
     0
 76
     1
 52
90.0
 41
10.0
 77
     0
 78
     1
 53
135.0000000000002
 43
0.0
 44
0.0
 45
-22.45064030267281
 46
-22.45064030267296
 79
     0
 98
        1
 10
0.0
 20
0.0
  0
HATCH
  5
21C
330
1F
100
AcDbEntity
  8
0
  6
Continuous
 62
     7
370
    18
100
AcDbHatch
 10
0.0
 20
0.0
 30
0.0
210
0.0
220
0.0
230
1.0
  2
ANSI31
 70
     0
 71
     0
 91
        1
 92
        0
 93
        4
 72
     1
 10
3117.02466091493
 20
590.7166276083475
 11
3132.52466091493
 21
590.7166276083475
 72
     1
 10
3132.52466091493
 20
590.7166276083475
 11
3132.52466091493
 21
592.9666276083475
 72
     1
 10
3132.52466091493
 20
592.9666276083475
 11
3117.02466091493
 21
592.9666276083475
 72
     1
 10
3117.02466091493
 20
592.9666276083475
 11
3117.02466091493
 21
590.7166276083475
 97
        0
 75
     0
 76
     1
 52
90.0
 41
10.0
 77
     0
 78
     1
 53
135.0000000000002
 43
0.0
 44
0.0
 45
-22.45064030267281
 46
-22.45064030267296
 79
     0
 98
        1
 10
0.0
 20
0.0
  0
HATCH
  5
21D
330
1F
100
AcDbEntity
  8
0
  6
Continuous
 62
     7
370
    18
100
AcDbHatch
 10
0.0
 20
0.0
 30
0.0
210
0.0
220
0.0
230
1.0
  2
ANSI31
 70
     0
 71
     0
 91
        1
 92
        0
 93
        4
 72
     1
 10
2971.52466091493
 20
590.7166276083475
 11
2995.024660914931
 21
590.7166276083475
 72
     1
 10
2995.024660914931
 20
590.7166276083475
 11
2995.024660914931
 21
592.9666276083475
 72
     1
 10
2995.024660914931
 20
592.9666276083475
 11
2971.52466091493
 21
592.9666276083475
 72
     1
 10
2971.52466091493
 20
592.9666276083475
 11
2971.52466091493
 21
590.7166276083475
 97
        0
 75
     0
 76
     1
 52
90.0
 41
10.0
 77
     0
 78
     1
 53
135.0000000000002
 43
0.0
 44
0.0
 45
-22.45064030267281
 46
-22.45064030267296
 79
     0
 98
        1
 10
0.0
 20
0.0
  0
HATCH
  5
21E
330
1F
100
AcDbEntity
  8
0
  6
Continuous
 62
     7
370
    18
100
AcDbHatch
 10
0.0
 20
0.0
 30
0.0
210
0.0
220
0.0
230
1.0
  2
ANSI31
 70
     0
 71
     0
 91
        1
 92
        0
 93
        4
 72
     1
 10
2923.02466091493
 20
590.7166276083475
 11
2946.524660914931
 21
590.7166276083475
 72
     1
 10
2946.524660914931
 20
590.7166276083475
 11
2946.524660914931
 21
592.9666276083475
 72
     1
 10
2946.524660914931
 20
592.9666276083475
 11
2923.02466091493
 21
592.9666276083475
 72
     1
 10
2923.02466091493
 20
592.9666276083475
 11
2923.02466091493
 21
590.7166276083475
 97
        0
 75
     0
 76
     1
 52
90.0
 41
10.0
 77
     0
 78
     1
 53
135.0000000000002
 43
0.0
 44
0.0
 45
-22.45064030267281
 46
-22.45064030267296
 79
     0
 98
        1
 10
0.0
 20
0.0
  0
HATCH
  5
21F
330
1F
100
AcDbEntity
  8
0
  6
Continuous
 62
     7
370
    18
100
AcDbHatch
 10
0.0
 20
0.0
 30
0.0
210
0.0
220
0.0
230
1.0
  2
ANSI31
 70
     0
 71
     0
 91
        1
 92
        0
 93
        4
 72
     1
 10
2874.52466091493
 20
590.7166276083475
 11
2898.024660914931
 21
590.7166276083475
 72
     1
 10
2898.024660914931
 20
590.7166276083475
 11
2898.024660914931
 21
592.9666276083475
 72
     1
 10
2898.024660914931
 20
592.9666276083475
 11
2874.52466091493
 21
592.9666276083475
 72
     1
 10
2874.52466091493
 20
592.9666276083475
 11
2874.52466091493
 21
590.7166276083475
 97
        0
 75
     0
 76
     1
 52
90.0
 41
10.0
 77
     0
 78
     1
 53
135.0000000000002
 43
0.0
 44
0.0
 45
-22.45064030267281
 46
-22.45064030267296
 79
     0
 98
        1
 10
0.0
 20
0.0
  0
HATCH
  5
220
330
1F
100
AcDbEntity
  8
0
  6
Continuous
 62
     7
370
    18
100
AcDbHatch
 10
0.0
 20
0.0
 30
0.0
210
0.0
220
0.0
230
1.0
  2
ANSI31
 70
     0
 71
     0
 91
        1
 92
        0
 93
        4
 72
     1
 10
2826.02466091493
 20
590.7166276083475
 11
2849.524660914931
 21
590.7166276083475
 72
     1
 10
2849.524660914931
 20
590.7166276083475
 11
2849.524660914931
 21
592.9666276083475
 72
     1
 10
2849.524660914931
 20
592.9666276083475
 11
2826.02466091493
 21
592.9666276083475
 72
     1
 10
2826.02466091493
 20
592.9666276083475
 11
2826.02466091493
 21
590.7166276083475
 97
        0
 75
     0
 76
     1
 52
90.0
 41
10.0
 77
     0
 78
     1
 53
135.0000000000002
 43
0.0
 44
0.0
 45
-22.45064030267281
 46
-22.45064030267296
 79
     0
 98
        1
 10
0.0
 20
0.0
  0
HATCH
  5
221
330
1F
100
AcDbEntity
  8
0
  6
Continuous
 62
     7
370
    18
100
AcDbHatch
 10
0.0
 20
0.0
 30
0.0
210
0.0
220
0.0
230
1.0
  2
ANSI31
 70
     0
 71
     0
 91
        1
 92
        0
 93
        4
 72
     1
 10
2777.52466091493
 20
590.7166276083475
 11
2801.024660914931
 21
590.7166276083475
 72
     1
 10
2801.024660914931
 20
590.7166276083475
 11
2801.024660914931
 21
592.9666276083475
 72
     1
 10
2801.024660914931
 20
592.9666276083475
 11
2777.52466091493
 21
592.9666276083475
 72
     1
 10
2777.52466091493
 20
592.9666276083475
 11
2777.52466091493
 21
590.7166276083475
 97
        0
 75
     0
 76
     1
 52
90.0
 41
10.0
 77
     0
 78
     1
 53
135.0000000000002
 43
0.0
 44
0.0
 45
-22.45064030267281
 46
-22.45064030267296
 79
     0
 98
        1
 10
0.0
 20
0.0
  0
HATCH
  5
222
330
1F
100
AcDbEntity
  8
0
  6
Continuous
 62
     7
370
    18
100
AcDbHatch
 10
0.0
 20
0.0
 30
0.0
210
0.0
220
0.0
230
1.0
  2
ANSI31
 70
     0
 71
     0
 91
        1
 92
        0
 93
        4
 72
     1
 10
2729.02466091493
 20
590.7166276083475
 11
2752.524660914931
 21
590.7166276083475
 72
     1
 10
2752.524660914931
 20
590.7166276083475
 11
2752.524660914931
 21
592.9666276083475
 72
     1
 10
2752.524660914931
 20
592.9666276083475
 11
2729.02466091493
 21
592.9666276083475
 72
     1
 10
2729.02466091493
 20
592.9666276083475
 11
2729.02466091493
 21
590.7166276083475
 97
        0
 75
     0
 76
     1
 52
90.0
 41
10.0
 77
     0
 78
     1
 53
135.0000000000002
 43
0.0
 44
0.0
 45
-22.45064030267281
 46
-22.45064030267296
 79
     0
 98
        1
 10
0.0
 20
0.0
  0
HATCH
  5
223
330
1F
100
AcDbEntity
  8
0
  6
Continuous
 62
     7
370
    18
100
AcDbHatch
 10
0.0
 20
0.0
 30
0.0
210
0.0
220
0.0
230
1.0
  2
ANSI31
 70
     0
 71
     0
 91
        1
 92
        0
 93
        4
 72
     1
 10
2680.52466091493
 20
590.7166276083476
 11
2704.024660914931
 21
590.7166276083476
 72
     1
 10
2704.024660914931
 20
590.7166276083476
 11
2704.024660914931
 21
592.9666276083476
 72
     1
 10
2704.024660914931
 20
592.9666276083476
 11
2680.52466091493
 21
592.9666276083476
 72
     1
 10
2680.52466091493
 20
592.9666276083476
 11
2680.52466091493
 21
590.7166276083476
 97
        0
 75
     0
 76
     1
 52
90.0
 41
10.0
 77
     0
 78
     1
 53
135.0000000000002
 43
0.0
 44
0.0
 45
-22.45064030267281
 46
-22.45064030267296
 79
     0
 98
        1
 10
0.0
 20
0.0
  0
HATCH
  5
224
330
1F
100
AcDbEntity
  8
0
  6
Continuous
 62
     7
370
    18
100
AcDbHatch
 10
0.0
 20
0.0
 30
0.0
210
0.0
220
0.0
230
1.0
  2
ANSI31
 70
     0
 71
     0
 91
        1
 92
        0
 93
        4
 72
     1
 10
2632.02466091493
 20
590.7166276083476
 11
2655.524660914931
 21
590.7166276083476
 72
     1
 10
2655.524660914931
 20
590.7166276083476
 11
2655.524660914931
 21
592.9666276083476
 72
     1
 10
2655.524660914931
 20
592.9666276083476
 11
2632.02466091493
 21
592.9666276083476
 72
     1
 10
2632.02466091493
 20
592.9666276083476
 11
2632.02466091493
 21
590.7166276083476
 97
        0
 75
     0
 76
     1
 52
90.0
 41
10.0
 77
     0
 78
     1
 53
135.0000000000002
 43
0.0
 44
0.0
 45
-22.45064030267281
 46
-22.45064030267296
 79
     0
 98
        1
 10
0.0
 20
0.0
  0
HATCH
  5
225
330
1F
100
AcDbEntity
  8
0
  6
Continuous
 62
     7
370
    18
100
AcDbHatch
 10
0.0
 20
0.0
 30
0.0
210
0.0
220
0.0
230
1.0
  2
ANSI31
 70
     0
 71
     0
 91
        1
 92
        0
 93
        4
 72
     1
 10
2583.52466091493
 20
590.7166276083476
 11
2607.024660914931
 21
590.7166276083476
 72
     1
 10
2607.024660914931
 20
590.7166276083476
 11
2607.024660914931
 21
592.9666276083476
 72
     1
 10
2607.024660914931
 20
592.9666276083476
 11
2583.52466091493
 21
592.9666276083476
 72
     1
 10
2583.52466091493
 20
592.9666276083476
 11
2583.52466091493
 21
590.7166276083476
 97
        0
 75
     0
 76
     1
 52
90.0
 41
10.0
 77
     0
 78
     1
 53
135.0000000000002
 43
0.0
 44
0.0
 45
-22.45064030267281
 46
-22.45064030267296
 79
     0
 98
        1
 10
0.0
 20
0.0
  0
HATCH
  5
226
330
1F
100
AcDbEntity
  8
0
  6
Continuous
 62
     7
370
    18
100
AcDbHatch
 10
0.0
 20
0.0
 30
0.0
210
0.0
220
0.0
230
1.0
  2
ANSI31
 70
     0
 71
     0
 91
        1
 92
        0
 93
        4
 72
     1
 10
2535.02466091493
 20
590.7166276083476
 11
2558.524660914931
 21
590.7166276083476
 72
     1
 10
2558.524660914931
 20
590.7166276083476
 11
2558.524660914931
 21
592.9666276083476
 72
     1
 10
2558.524660914931
 20
592.9666276083476
 11
2535.02466091493
 21
592.9666276083476
 72
     1
 10
2535.02466091493
 20
592.9666276083476
 11
2535.02466091493
 21
590.7166276083476
 97
        0
 75
     0
 76
     1
 52
90.0
 41
10.0
 77
     0
 78
     1
 53
135.0000000000002
 43
0.0
 44
0.0
 45
-22.45064030267281
 46
-22.45064030267296
 79
     0
 98
        1
 10
0.0
 20
0.0
  0
HATCH
  5
227
330
1F
100
AcDbEntity
  8
0
  6
Continuous
 62
     7
370
    18
100
AcDbHatch
 10
0.0
 20
0.0
 30
0.0
210
0.0
220
0.0
230
1.0
  2
ANSI31
 70
     0
 71
     0
 91
        1
 92
        0
 93
        4
 72
     1
 10
2452.52466091493
 20
590.7166276083476
 11
2510.024660914931
 21
590.7166276083476
 72
     1
 10
2510.024660914931
 20
590.7166276083476
 11
2510.024660914931
 21
592.9666276083476
 72
     1
 10
2510.024660914931
 20
592.9666276083476
 11
2452.52466091493
 21
592.9666276083476
 72
     1
 10
2452.52466091493
 20
592.9666276083476
 11
2452.52466091493
 21
590.7166276083476
 97
        0
 75
     0
 76
     1
 52
90.0
 41
10.0
 77
     0
 78
     1
 53
135.0000000000002
 43
0.0
 44
0.0
 45
-22.45064030267281
 46
-22.45064030267296
 79
     0
 98
        1
 10
0.0
 20
0.0
  0
INSERT
  5
22D
330
1F
100
AcDbEntity
  8
O-TEKST
100
AcDbBlockReference
  2
SW_NOTE_0
 10
2642.1757242976
 20
303.2466635488
 30
0.0
  0
LINE
  5
22E
330
1F
100
AcDbEntity
  8
0
  6
Continuous
 62
     7
370
    25
100
AcDbLine
 10
423.9921702535
 20
2626.1492353776
 30
0.0
 11
1013.9921552034
 21
2626.1492353776
 31
0.0
  0
LINE
  5
22F
330
1F
100
AcDbEntity
  8
0
  6
Continuous
 62
     7
370
    25
100
AcDbLine
 10
1013.9921552034
 20
2626.1492353776
 30
0.0
 11
1013.9921552034
 21
2624.1492015222
 31
0.0
  0
LINE
  5
230
330
1F
100
AcDbEntity
  8
0
  6
Continuous
 62
     7
370
    25
100
AcDbLine
 10
423.9921702535
 20
2626.1492353776
 30
0.0
 11
423.9921702535
 21
2624.1492015222
 31
0.0
  0
LINE
  5
231
330
1F
100
AcDbEntity
  8
0
  6
Continuous
 62
     7
370
    25
100
AcDbLine
 10
423.9921702535
 20
2624.1492015222
 30
0.0
 11
1013.9921552034
 21
2624.1492015222
 31
0.0
  0
LINE
  5
232
330
1F
100
AcDbEntity
  8
0
  6
Continuous
 62
     7
370
    25
100
AcDbLine
 10
1013.9921552034
 20
2672.1492391923
 30
0.0
 11
423.9921702535
 21
2672.1492391923
 31
0.0
  0
LINE
  5
233
330
1F
100
AcDbEntity
  8
0
  6
Continuous
 62
     7
370
    25
100
AcDbLine
 10
423.9921702535
 20
2674.1492134431
 30
0.0
 11
423.9921702535
 21
2672.1492391923
 31
0.0
  0
LINE
  5
234
330
1F
100
AcDbEntity
  8
0
  6
Continuous
 62
     7
370
    25
100
AcDbLine
 10
1013.9921552034
 20
2674.1492134431
 30
0.0
 11
423.9921702535
 21
2674.1492134431
 31
0.0
  0
LINE
  5
235
330
1F
100
AcDbEntity
  8
0
  6
Continuous
 62
     7
370
    25
100
AcDbLine
 10
1013.9921552034
 20
2674.1492134431
 30
0.0
 11
1013.9921552034
 21
2672.1492391923
 31
0.0
  0
LINE
  5
236
330
1F
100
AcDbEntity
  8
0
  6
Continuous
 62
     7
370
    25
100
AcDbLine
 10
1013.9921552034
 20
2628.1492096284
 30
0.0
 11
1013.9921552034
 21
2626.1492353776
 31
0.0
  0
LINE
  5
237
330
1F
100
AcDbEntity
  8
0
  6
Continuous
 62
     7
370
    25
100
AcDbLine
 10
1013.9921552034
 20
2672.1492391923
 30
0.0
 11
1013.9921552034
 21
2670.1492053369
 31
0.0
  0
LINE
  5
238
330
1F
100
AcDbEntity
  8
0
  6
Continuous
 62
     7
370
    25
100
AcDbLine
 10
1013.9921552034
 20
2670.1492053369
 30
0.0
 11
1013.9921552034
 21
2628.1492096284
 31
0.0
  0
LINE
  5
239
330
1F
100
AcDbEntity
  8
0
  6
Continuous
 62
     7
370
    25
100
AcDbLine
 10
1074.9921568783
 20
2674.1492134431
 30
0.0
 11
1074.9921568783
 21
2677.1492344239
 31
0.0
  0
LINE
  5
23A
330
1F
100
AcDbEntity
  8
0
  6
Continuous
 62
     7
370
    25
100
AcDbLine
 10
1074.9921568783
 20
2674.1492134431
 30
0.0
 11
362.9921807439
 21
2674.1492134431
 31
0.0
  0
LINE
  5
23B
330
1F
100
AcDbEntity
  8
0
  6
Continuous
 62
     7
370
    25
100
AcDbLine
 10
362.9921807439
 20
2677.1492344239
 30
0.0
 11
362.9921807439
 21
2674.1492134431
 31
0.0
  0
LINE
  5
23C
330
1F
100
AcDbEntity
  8
0
  6
Continuous
 62
     7
370
    25
100
AcDbLine
 10
1074.9921568783
 20
2677.1492344239
 30
0.0
 11
362.9921807439
 21
2677.1492344239
 31
0.0
  0
LINE
  5
23D
330
1F
100
AcDbEntity
  8
0
  6
Continuous
 62
     7
370
    25
100
AcDbLine
 10
1136.9921586008
 20
2626.1492353776
 30
0.0
 11
1726.9921435506
 21
2626.1492353776
 31
0.0
  0
LINE
  5
23E
330
1F
100
AcDbEntity
  8
0
  6
Continuous
 62
     7
370
    25
100
AcDbLine
 10
1726.9921435506
 20
2626.1492353776
 30
0.0
 11
1726.9921435506
 21
2624.1492015222
 31
0.0
  0
LINE
  5
23F
330
1F
100
AcDbEntity
  8
0
  6
Continuous
 62
     7
370
    25
100
AcDbLine
 10
1136.9921586008
 20
2626.1492353776
 30
0.0
 11
1136.9921586008
 21
2624.1492015222
 31
0.0
  0
LINE
  5
240
330
1F
100
AcDbEntity
  8
0
  6
Continuous
 62
     7
370
    25
100
AcDbLine
 10
1136.9921586008
 20
2624.1492015222
 30
0.0
 11
1726.9921435506
 21
2624.1492015222
 31
0.0
  0
LINE
  5
241
330
1F
100
AcDbEntity
  8
0
  6
Continuous
 62
     7
370
    25
100
AcDbLine
 10
1726.9921435506
 20
2672.1492391923
 30
0.0
 11
1136.9921586008
 21
2672.1492391923
 31
0.0
  0
LINE
  5
242
330
1F
100
AcDbEntity
  8
0
  6
Continuous
 62
     7
370
    25
100
AcDbLine
 10
1136.9921586008
 20
2674.1492134431
 30
0.0
 11
1136.9921586008
 21
2672.1492391923
 31
0.0
  0
LINE
  5
243
330
1F
100
AcDbEntity
  8
0
  6
Continuous
 62
     7
370
    25
100
AcDbLine
 10
1726.9921435506
 20
2674.1492134431
 30
0.0
 11
1136.9921586008
 21
2674.1492134431
 31
0.0
  0
LINE
  5
244
330
1F
100
AcDbEntity
  8
0
  6
Continuous
 62
     7
370
    25
100
AcDbLine
 10
1726.9921435506
 20
2674.1492134431
 30
0.0
 11
1726.9921435506
 21
2672.1492391923
 31
0.0
  0
LINE
  5
245
330
1F
100
AcDbEntity
  8
0
  6
Continuous
 62
     7
370
    25
100
AcDbLine
 10
1136.9921586008
 20
2628.1492096284
 30
0.0
 11
1136.9921586008
 21
2626.1492353776
 31
0.0
  0
LINE
  5
246
330
1F
100
AcDbEntity
  8
0
  6
Continuous
 62
     7
370
    25
100
AcDbLine
 10
1136.9921586008
 20
2672.1492391923
 30
0.0
 11
1136.9921586008
 21
2670.1492053369
 31
0.0
  0
LINE
  5
247
330
1F
100
AcDbEntity
  8
0
  6
Continuous
 62
     7
370
    25
100
AcDbLine
 10
1136.9921586008
 20
2670.1492053369
 30
0.0
 11
1136.9921586008
 21
2628.1492096284
 31
0.0
  0
LINE
  5
248
330
1F
100
AcDbEntity
  8
0
  6
Continuous
 62
     7
370
    25
100
AcDbLine
 10
1787.9921330602
 20
2674.1492134431
 30
0.0
 11
1787.9921330602
 21
2677.1492344239
 31
0.0
  0
LINE
  5
249
330
1F
100
AcDbEntity
  8
0
  6
Continuous
 62
     7
370
    25
100
AcDbLine
 10
1787.9921330602
 20
2674.1492134431
 30
0.0
 11
1075.9921569258
 21
2674.1492134431
 31
0.0
  0
LINE
  5
24A
330
1F
100
AcDbEntity
  8
0
  6
Continuous
 62
     7
370
    25
100
AcDbLine
 10
1075.9921569258
 20
2677.1492344239
 30
0.0
 11
1075.9921569258
 21
2674.1492134431
 31
0.0
  0
LINE
  5
24B
330
1F
100
AcDbEntity
  8
0
  6
Continuous
 62
     7
370
    25
100
AcDbLine
 10
1787.9921330602
 20
2677.1492344239
 30
0.0
 11
1075.9921569258
 21
2677.1492344239
 31
0.0
  0
LINE
  5
24C
330
1F
100
AcDbEntity
  8
0
  6
Continuous
 62
     7
370
    25
100
AcDbLine
 10
325.4921569021
 20
1687.149209986
 30
0.0
 11
325.4921569021
 21
1732.1492117742
 31
0.0
  0
LINE
  5
24D
330
1F
100
AcDbEntity
  8
0
  6
Continuous
 62
     7
370
    25
100
AcDbLine
 10
367.4921526106
 20
1732.1492117742
 30
0.0
 11
367.4921526106
 21
1767.1492081979
 31
0.0
  0
LINE
  5
24E
330
1F
100
AcDbEntity
  8
0
  6
Continuous
 62
     7
370
    25
100
AcDbLine
 10
525.4921449812
 20
1687.149209986
 30
0.0
 11
525.4921449812
 21
1767.1492081979
 31
0.0
  0
LINE
  5
24F
330
1F
100
AcDbEntity
  8
0
  6
Continuous
 62
     7
370
    25
100
AcDbLine
 10
367.4921526106
 20
1767.1492081979
 30
0.0
 11
525.4921449812
 21
1767.1492081979
 31
0.0
  0
LINE
  5
250
330
1F
100
AcDbEntity
  8
0
  6
Continuous
 62
     7
370
    25
100
AcDbLine
 10
325.4921569021
 20
1732.1492117742
 30
0.0
 11
367.4921526106
 21
1732.1492117742
 31
0.0
  0
LINE
  5
251
330
1F
100
AcDbEntity
  8
0
  6
Continuous
 62
     7
370
    25
100
AcDbLine
 10
525.4921449812
 20
1687.149209986
 30
0.0
 11
325.4921569021
 21
1687.149209986
 31
0.0
  0
LINE
  5
252
330
1F
100
AcDbEntity
  8
0
  6
Continuous
 62
     7
370
    25
100
AcDbLine
 10
1625.492168823
 20
1767.1492081979
 30
0.0
 11
1625.492168823
 21
1687.149209986
 31
0.0
  0
LINE
  5
253
330
1F
100
AcDbEntity
  8
0
  6
Continuous
 62
     7
370
    25
100
AcDbLine
 10
1783.4921611936
 20
1767.1492081979
 30
0.0
 11
1783.4921611936
 21
1732.1492117742
 31
0.0
  0
LINE
  5
254
330
1F
100
AcDbEntity
  8
0
  6
Continuous
 62
     7
370
    25
100
AcDbLine
 10
1825.4921569021
 20
1732.1492117742
 30
0.0
 11
1825.4921569021
 21
1687.149209986
 31
0.0
  0
LINE
  5
255
330
1F
100
AcDbEntity
  8
0
  6
Continuous
 62
     7
370
    25
100
AcDbLine
 10
1625.492168823
 20
1767.1492081979
 30
0.0
 11
1783.4921611936
 21
1767.1492081979
 31
0.0
  0
LINE
  5
256
330
1F
100
AcDbEntity
  8
0
  6
Continuous
 62
     7
370
    25
100
AcDbLine
 10
1783.4921611936
 20
1732.1492117742
 30
0.0
 11
1825.4921569021
 21
1732.1492117742
 31
0.0
  0
LINE
  5
257
330
1F
100
AcDbEntity
  8
0
  6
Continuous
 62
     7
370
    25
100
AcDbLine
 10
1825.4921569021
 20
1687.149209986
 30
0.0
 11
1625.492168823
 21
1687.149209986
 31
0.0
  0
LINE
  5
258
330
1F
100
AcDbEntity
  8
0
  6
Continuous
 62
     7
370
    25
100
AcDbLine
 10
1625.492168823
 20
1767.1492081979
 30
0.0
 11
525.4921449812
 21
1767.1492081979
 31
0.0
  0
LINE
  5
259
330
1F
100
AcDbEntity
  8
0
  6
Continuous
 62
     7
370
    25
100
AcDbLine
 10
1625.492168823
 20
1687.149209986
 30
0.0
 11
525.4921449812
 21
1687.149209986
 31
0.0
  0
LINE
  5
25A
330
1F
100
AcDbEntity
  8
0
  6
Continuous
 62
     7
370
    25
100
AcDbLine
 10
1725.4921330602
 20
2674.1492134431
 30
0.0
 11
1725.4921330602
 21
2574.1491896012
 31
0.0
  0
LINE
  5
25B
330
1F
100
AcDbEntity
  8
0
  6
Continuous
 62
     7
370
    25
100
AcDbLine
 10
1781.4921273382
 20
2674.1492134431
 30
0.0
 11
1783.939613262
 21
2639.149187217
 31
0.0
  0
LINE
  5
25C
330
1F
100
AcDbEntity
  8
0
  6
Continuous
 62
     7
370
    25
100
AcDbLine
 10
1825.4921569021
 20
2639.149187217
 30
0.0
 11
1825.4921569021
 21
2539.1492229798
 31
0.0
  0
LINE
  5
25D
330
1F
100
AcDbEntity
  8
0
  6
Continuous
 62
     7
370
    25
100
AcDbLine
 10
1785.4921354444
 20
2574.1491896012
 30
0.0
 11
1785.4921354444
 21
2539.1492229798
 31
0.0
  0
LINE
  5
25E
330
1F
100
AcDbEntity
  8
0
  6
Continuous
 62
     7
370
    25
100
AcDbLine
 10
1781.4921273382
 20
2674.1492134431
 30
0.0
 11
1725.4921330602
 21
2674.1492134431
 31
0.0
  0
LINE
  5
25F
330
1F
100
AcDbEntity
  8
0
  6
Continuous
 62
     7
370
    25
100
AcDbLine
 10
1785.4921354444
 20
2574.1491896012
 30
0.0
 11
1725.4921330602
 21
2574.1491896012
 31
0.0
  0
LINE
  5
260
330
1F
100
AcDbEntity
  8
0
  6
Continuous
 62
     7
370
    25
100
AcDbLine
 10
1783.939613262
 20
2639.149187217
 30
0.0
 11
1825.4921569021
 21
2639.149187217
 31
0.0
  0
LINE
  5
261
330
1F
100
AcDbEntity
  8
0
  6
Continuous
 62
     7
370
    25
100
AcDbLine
 10
1825.4921569021
 20
2539.1492229798
 30
0.0
 11
1785.4921354444
 21
2539.1492229798
 31
0.0
  0
LINE
  5
262
330
1F
100
AcDbEntity
  8
0
  6
Continuous
 62
     7
370
    25
100
AcDbLine
 10
365.4921783598
 20
2539.1492229798
 30
0.0
 11
365.4921783598
 21
2574.1491896012
 31
0.0
  0
LINE
  5
263
330
1F
100
AcDbEntity
  8
0
  6
Continuous
 62
     7
370
    25
100
AcDbLine
 10
325.4921569021
 20
2539.1492229798
 30
0.0
 11
325.4921569021
 21
2639.149187217
 31
0.0
  0
LINE
  5
264
330
1F
100
AcDbEntity
  8
0
  6
Continuous
 62
     7
370
    25
100
AcDbLine
 10
367.0447005422
 20
2639.149187217
 30
0.0
 11
369.492186466
 21
2674.1492134431
 31
0.0
  0
LINE
  5
265
330
1F
100
AcDbEntity
  8
0
  6
Continuous
 62
     7
370
    25
100
AcDbLine
 10
425.4921807439
 20
2574.1491896012
 30
0.0
 11
425.4921807439
 21
2674.1492134431
 31
0.0
  0
LINE
  5
266
330
1F
100
AcDbEntity
  8
0
  6
Continuous
 62
     7
370
    25
100
AcDbLine
 10
425.4921807439
 20
2674.1492134431
 30
0.0
 11
369.492186466
 21
2674.1492134431
 31
0.0
  0
LINE
  5
267
330
1F
100
AcDbEntity
  8
0
  6
Continuous
 62
     7
370
    25
100
AcDbLine
 10
425.4921807439
 20
2574.1491896012
 30
0.0
 11
365.4921783598
 21
2574.1491896012
 31
0.0
  0
LINE
  5
268
330
1F
100
AcDbEntity
  8
0
  6
Continuous
 62
     7
370
    25
100
AcDbLine
 10
325.4921569021
 20
2639.149187217
 30
0.0
 11
367.0447005422
 21
2639.149187217
 31
0.0
  0
LINE
  5
269
330
1F
100
AcDbEntity
  8
0
  6
Continuous
 62
     7
370
    25
100
AcDbLine
 10
365.4921783598
 20
2539.1492229798
 30
0.0
 11
325.4921569021
 21
2539.1492229798
 31
0.0
  0
LINE
  5
26A
330
1F
100
AcDbEntity
  8
0
  6
Continuous
 62
     7
370
    25
100
AcDbLine
 10
1075.9921569258
 20
2674.1492134431
 30
0.0
 11
1074.9921568783
 21
2674.1492134431
 31
0.0
  0
LINE
  5
26B
330
1F
100
AcDbEntity
  8
0
  6
Continuous
 62
     7
370
    25
100
AcDbLine
 10
1725.4921330602
 20
2574.1491896012
 30
0.0
 11
425.4921807439
 21
2574.1491896012
 31
0.0
  0
LINE
  5
26C
330
1F
100
AcDbEntity
  8
0
  6
Continuous
 62
     7
370
    25
100
AcDbLine
 10
365.4921783598
 20
2539.1492229798
 30
0.0
 11
371.0636033208
 21
2539.1492229798
 31
0.0
  0
LINE
  5
26D
330
1F
100
AcDbEntity
  8
0
  6
Continuous
 62
     7
370
    25
100
AcDbLine
 10
1779.9207104833
 20
2539.1492229798
 30
0.0
 11
1785.4921354444
 21
2539.1492229798
 31
0.0
  0
LINE
  5
26E
330
1F
100
AcDbEntity
  8
0
  6
Continuous
 62
     7
370
    25
100
AcDbLine
 10
1785.5252160223
 20
1777.1492135623
 30
0.0
 11
1786.9921459348
 21
1742.1492171386
 31
0.0
  0
LINE
  5
26F
330
1F
100
AcDbEntity
  8
0
  6
Continuous
 62
     7
370
    25
100
AcDbLine
 10
1725.4921330602
 20
1777.1492135623
 30
0.0
 11
1725.4921330602
 21
1953.1594161787
 31
0.0
  0
LINE
  5
270
330
1F
100
AcDbEntity
  8
0
  6
Continuous
 62
     7
370
    25
100
AcDbLine
 10
1825.4921569021
 20
1953.1594161787
 30
0.0
 11
1725.4921330602
 21
1953.1594161787
 31
0.0
  0
LINE
  5
271
330
1F
100
AcDbEntity
  8
0
  6
Continuous
 62
     7
370
    25
100
AcDbLine
 10
1825.4921569021
 20
1742.1492171386
 30
0.0
 11
1825.4921569021
 21
1953.1594161787
 31
0.0
  0
LINE
  5
272
330
1F
100
AcDbEntity
  8
0
  6
Continuous
 62
     7
370
    25
100
AcDbLine
 10
1725.4921330602
 20
1777.1492135623
 30
0.0
 11
1785.5252160223
 21
1777.1492135623
 31
0.0
  0
LINE
  5
273
330
1F
100
AcDbEntity
  8
0
  6
Continuous
 62
     7
370
    25
100
AcDbLine
 10
1825.4921569021
 20
1742.1492171386
 30
0.0
 11
1786.9921459348
 21
1742.1492171386
 31
0.0
  0
LINE
  5
274
330
1F
100
AcDbEntity
  8
0
  6
Continuous
 62
     7
370
    25
100
AcDbLine
 10
1725.4921330602
 20
2231.1390024522
 30
0.0
 11
1825.4921569021
 21
2231.1390024522
 31
0.0
  0
LINE
  5
275
330
1F
100
AcDbEntity
  8
0
  6
Continuous
 62
     7
370
    25
100
AcDbLine
 10
1725.4921330602
 20
2231.1390024522
 30
0.0
 11
1725.4921330602
 21
2564.149199138
 31
0.0
  0
LINE
  5
276
330
1F
100
AcDbEntity
  8
0
  6
Continuous
 62
     7
370
    25
100
AcDbLine
 10
1780.4921402128
 20
2529.1492325166
 30
0.0
 11
1778.492165962
 21
2564.149199138
 31
0.0
  0
LINE
  5
277
330
1F
100
AcDbEntity
  8
0
  6
Continuous
 62
     7
370
    25
100
AcDbLine
 10
1778.492165962
 20
2564.149199138
 30
0.0
 11
1725.4921330602
 21
2564.149199138
 31
0.0
  0
LINE
  5
278
330
1F
100
AcDbEntity
  8
0
  6
Continuous
 62
     7
370
    25
100
AcDbLine
 10
1780.4921402128
 20
2529.1492325166
 30
0.0
 11
1825.4921569021
 21
2529.1492325166
 31
0.0
  0
LINE
  5
279
330
1F
100
AcDbEntity
  8
0
  6
Continuous
 62
     7
370
    25
100
AcDbLine
 10
1825.4921569021
 20
2231.1390024522
 30
0.0
 11
1825.4921569021
 21
2529.1492325166
 31
0.0
  0
LINE
  5
27A
330
1F
100
AcDbEntity
  8
0
  6
Continuous
 62
     7
370
    25
100
AcDbLine
 10
325.4921569021
 20
1953.1594161787
 30
0.0
 11
325.4921569021
 21
1742.1492171386
 31
0.0
  0
LINE
  5
27B
330
1F
100
AcDbEntity
  8
0
  6
Continuous
 62
     7
370
    25
100
AcDbLine
 10
425.4921807439
 20
1953.1594161787
 30
0.0
 11
325.4921569021
 21
1953.1594161787
 31
0.0
  0
LINE
  5
27C
330
1F
100
AcDbEntity
  8
0
  6
Continuous
 62
     7
370
    25
100
AcDbLine
 10
425.4921807439
 20
1953.1594161787
 30
0.0
 11
425.4921807439
 21
1777.1492135623
 31
0.0
  0
LINE
  5
27D
330
1F
100
AcDbEntity
  8
0
  6
Continuous
 62
     7
370
    25
100
AcDbLine
 10
363.9921678693
 20
1742.1492171386
 30
0.0
 11
365.4590977819
 21
1777.1492135623
 31
0.0
  0
LINE
  5
27E
330
1F
100
AcDbEntity
  8
0
  6
Continuous
 62
     7
370
    25
100
AcDbLine
 10
365.4590977819
 20
1777.1492135623
 30
0.0
 11
425.4921807439
 21
1777.1492135623
 31
0.0
  0
LINE
  5
27F
330
1F
100
AcDbEntity
  8
0
  6
Continuous
 62
     7
370
    25
100
AcDbLine
 10
363.9921678693
 20
1742.1492171386
 30
0.0
 11
325.4921569021
 21
1742.1492171386
 31
0.0
  0
LINE
  5
280
330
1F
100
AcDbEntity
  8
0
  6
Continuous
 62
     7
370
    25
100
AcDbLine
 10
1725.4921330602
 20
2051.1390102008
 30
0.0
 11
1825.4921569021
 21
2051.1390102008
 31
0.0
  0
LINE
  5
281
330
1F
100
AcDbEntity
  8
0
  6
Continuous
 62
     7
370
    25
100
AcDbLine
 10
1725.4921330602
 20
2051.1390102008
 30
0.0
 11
1725.4921330602
 21
1953.1594161787
 31
0.0
  0
LINE
  5
282
330
1F
100
AcDbEntity
  8
0
  6
Continuous
 62
     7
370
    25
100
AcDbLine
 10
1825.4921569021
 20
2051.1390102008
 30
0.0
 11
1825.4921569021
 21
1953.1594161787
 31
0.0
  0
LINE
  5
283
330
1F
100
AcDbEntity
  8
0
  6
Continuous
 62
     7
370
    25
100
AcDbLine
 10
1825.4921569021
 20
2133.1594121554
 30
0.0
 11
1725.4921330602
 21
2133.1594121554
 31
0.0
  0
LINE
  5
284
330
1F
100
AcDbEntity
  8
0
  6
Continuous
 62
     7
370
    25
100
AcDbLine
 10
1725.4921330602
 20
2051.1390102008
 30
0.0
 11
1725.4921330602
 21
2133.1594121554
 31
0.0
  0
LINE
  5
285
330
1F
100
AcDbEntity
  8
0
  6
Continuous
 62
     7
370
    25
100
AcDbLine
 10
1825.4921569021
 20
2051.1390102008
 30
0.0
 11
1825.4921569021
 21
2133.1594121554
 31
0.0
  0
LINE
  5
286
330
1F
100
AcDbEntity
  8
0
  6
Continuous
 62
     7
370
    25
100
AcDbLine
 10
1725.4921330602
 20
2231.1390024522
 30
0.0
 11
1725.4921330602
 21
2133.1594121554
 31
0.0
  0
LINE
  5
287
330
1F
100
AcDbEntity
  8
0
  6
Continuous
 62
     7
370
    25
100
AcDbLine
 10
1825.4921569021
 20
2231.1390024522
 30
0.0
 11
1825.4921569021
 21
2133.1594121554
 31
0.0
  0
LINE
  5
288
330
1F
100
AcDbEntity
  8
0
  6
Continuous
 62
     7
370
    25
100
AcDbLine
 10
372.4921478422
 20
2564.149199138
 30
0.0
 11
370.4921735914
 21
2529.1492325166
 31
0.0
  0
LINE
  5
289
330
1F
100
AcDbEntity
  8
0
  6
Continuous
 62
     7
370
    25
100
AcDbLine
 10
325.4921569021
 20
2231.1390024522
 30
0.0
 11
425.4921807439
 21
2231.1390024522
 31
0.0
  0
LINE
  5
28A
330
1F
100
AcDbEntity
  8
0
  6
Continuous
 62
     7
370
    25
100
AcDbLine
 10
325.4921569021
 20
2529.1492325166
 30
0.0
 11
325.4921569021
 21
2231.1390024522
 31
0.0
  0
LINE
  5
28B
330
1F
100
AcDbEntity
  8
0
  6
Continuous
 62
     7
370
    25
100
AcDbLine
 10
425.4921807439
 20
2564.149199138
 30
0.0
 11
425.4921807439
 21
2231.1390024522
 31
0.0
  0
LINE
  5
28C
330
1F
100
AcDbEntity
  8
0
  6
Continuous
 62
     7
370
    25
100
AcDbLine
 10
425.4921807439
 20
2564.149199138
 30
0.0
 11
372.4921478422
 21
2564.149199138
 31
0.0
  0
LINE
  5
28D
330
1F
100
AcDbEntity
  8
0
  6
Continuous
 62
     7
370
    25
100
AcDbLine
 10
325.4921569021
 20
2529.1492325166
 30
0.0
 11
370.4921735914
 21
2529.1492325166
 31
0.0
  0
LINE
  5
28E
330
1F
100
AcDbEntity
  8
0
  6
Continuous
 62
     7
370
    25
100
AcDbLine
 10
325.4921569021
 20
2051.1390102008
 30
0.0
 11
425.4921807439
 21
2051.1390102008
 31
0.0
  0
LINE
  5
28F
330
1F
100
AcDbEntity
  8
0
  6
Continuous
 62
     7
370
    25
100
AcDbLine
 10
325.4921569021
 20
2051.1390102008
 30
0.0
 11
325.4921569021
 21
1953.1594161787
 31
0.0
  0
LINE
  5
290
330
1F
100
AcDbEntity
  8
0
  6
Continuous
 62
     7
370
    25
100
AcDbLine
 10
425.4921807439
 20
1953.1594161787
 30
0.0
 11
425.4921807439
 21
2051.1390102008
 31
0.0
  0
LINE
  5
291
330
1F
100
AcDbEntity
  8
0
  6
Continuous
 62
     7
370
    25
100
AcDbLine
 10
425.4921807439
 20
2133.1594121554
 30
0.0
 11
325.4921569021
 21
2133.1594121554
 31
0.0
  0
LINE
  5
292
330
1F
100
AcDbEntity
  8
0
  6
Continuous
 62
     7
370
    25
100
AcDbLine
 10
325.4921569021
 20
2133.1594121554
 30
0.0
 11
325.4921569021
 21
2051.1390102008
 31
0.0
  0
LINE
  5
293
330
1F
100
AcDbEntity
  8
0
  6
Continuous
 62
     7
370
    25
100
AcDbLine
 10
425.4921807439
 20
2133.1594121554
 30
0.0
 11
425.4921807439
 21
2051.1390102008
 31
0.0
  0
LINE
  5
294
330
1F
100
AcDbEntity
  8
0
  6
Continuous
 62
     7
370
    25
100
AcDbLine
 10
325.4921569021
 20
2231.1390024522
 30
0.0
 11
325.4921569021
 21
2133.1594121554
 31
0.0
  0
LINE
  5
295
330
1F
100
AcDbEntity
  8
0
  6
Continuous
 62
     7
370
    25
100
AcDbLine
 10
425.4921807439
 20
2133.1594121554
 30
0.0
 11
425.4921807439
 21
2231.1390024522
 31
0.0
  0
LINE
  5
296
330
1F
100
AcDbEntity
  8
0
  6
Continuous
 62
     7
370
    25
100
AcDbLine
 10
1725.4921330602
 20
2564.149199138
 30
0.0
 11
425.4921807439
 21
2564.149199138
 31
0.0
  0
LINE
  5
297
330
1F
100
AcDbEntity
  8
0
  6
Continuous
 62
     7
370
    25
100
AcDbLine
 10
1725.4921330602
 20
1777.1492135623
 30
0.0
 11
425.4921807439
 21
1777.1492135623
 31
0.0
  0
LINE
  5
298
330
1F
100
AcDbEntity
  8
0
  6
Continuous
 62
     7
370
    25
100
AcDbLine
 10
363.9921678693
 20
1742.1492171386
 30
0.0
 11
367.4921526106
 21
1742.1492171386
 31
0.0
  0
LINE
  5
299
330
1F
100
AcDbEntity
  8
0
  6
Continuous
 62
     7
370
    25
100
AcDbLine
 10
1783.4921611936
 20
1742.1492171386
 30
0.0
 11
1786.9921459348
 21
1742.1492171386
 31
0.0
  0
LINE
  5
29A
330
1F
100
AcDbEntity
  8
0
  6
PHANTOM
 62
     8
370
    18
100
AcDbLine
 10
425.4921807439
 20
2628.1492096284
 30
0.0
 11
1013.9921552034
 21
2628.1492096284
 31
0.0
  0
LINE
  5
29B
330
1F
100
AcDbEntity
  8
0
  6
PHANTOM
 62
     8
370
    18
100
AcDbLine
 10
425.4921807439
 20
2670.1492053369
 30
0.0
 11
1013.9921552034
 21
2670.1492053369
 31
0.0
  0
LINE
  5
29C
330
1F
100
AcDbEntity
  8
0
  6
PHANTOM
 62
     8
370
    18
100
AcDbLine
 10
1136.9921586008
 20
2628.1492096284
 30
0.0
 11
1725.4921330602
 21
2628.1492096284
 31
0.0
  0
LINE
  5
29D
330
1F
100
AcDbEntity
  8
0
  6
PHANTOM
 62
     8
370
    18
100
AcDbLine
 10
1136.9921586008
 20
2670.1492053369
 30
0.0
 11
1725.4921330602
 21
2670.1492053369
 31
0.0
  0
HATCH
  5
29E
330
1F
100
AcDbEntity
  8
0
  6
Continuous
 62
     7
370
    18
100
AcDbHatch
 10
0.0
 20
0.0
 30
0.0
210
0.0
220
0.0
230
1.0
  2
ANSI34
 70
     0
 71
     0
 91
        1
 92
        0
 93
        6
 72
     1
 10
1786.992156902088
 20
1742.14921187801
 11
1825.492156902088
 21
1742.14921187801
 72
     1
 10
1825.492156902088
 20
1742.14921187801
 11
1825.492156902088
 21
1953.159417022346
 72
     1
 10
1825.492156902088
 20
1953.159417022346
 11
1725.492156902087
 21
1953.159417022346
 72
     1
 10
1725.492156902087
 20
1953.159417022346
 11
1725.492156902087
 21
1777.14921187801
 72
     1
 10
1725.492156902087
 20
1777.14921187801
 11
1785.52522227066
 21
1777.14921187801
 72
     1
 10
1785.52522227066
 20
1777.14921187801
 11
1786.992156902088
 21
1742.14921187801
 97
        0
 75
     0
 76
     1
 52
0.0
 41
10.0
 77
     0
 78
     4
 53
45.0
 43
0.0
 44
0.0
 45
-134.7038418160373
 46
134.7038418160373
 79
     0
 53
45.0
 43
44.9013
 44
0.0
 45
-134.7038418160373
 46
134.7038418160373
 79
     0
 53
45.0
 43
89.8026
 44
0.0
 45
-134.7038418160373
 46
134.7038418160373
 79
     0
 53
45.0
 43
134.704
 44
0.0
 45
-134.7038418160373
 46
134.7038418160373
 79
     0
 98
        1
 10
0.0
 20
0.0
  0
HATCH
  5
29F
330
1F
100
AcDbEntity
  8
0
  6
Continuous
 62
     7
370
    18
100
AcDbHatch
 10
0.0
 20
0.0
 30
0.0
210
0.0
220
0.0
230
1.0
  2
ANSI34
 70
     0
 71
     0
 91
        1
 92
        0
 93
        6
 72
     1
 10
370.4921569020872
 20
2529.14921187801
 11
325.4921569020872
 21
2529.14921187801
 72
     1
 10
325.4921569020872
 20
2529.14921187801
 11
325.492156902087
 21
2231.139006733673
 72
     1
 10
325.492156902087
 20
2231.139006733673
 11
425.4921569020871
 21
2231.139006733673
 72
     1
 10
425.4921569020871
 20
2231.139006733673
 11
425.4921569020872
 21
2564.14921187801
 72
     1
 10
425.4921569020872
 20
2564.14921187801
 11
372.492156902087
 21
2564.14921187801
 72
     1
 10
372.492156902087
 20
2564.14921187801
 11
370.4921569020872
 21
2529.14921187801
 97
        0
 75
     0
 76
     1
 52
0.0
 41
10.0
 77
     0
 78
     4
 53
45.0
 43
0.0
 44
0.0
 45
-134.7038418160373
 46
134.7038418160373
 79
     0
 53
45.0
 43
44.9013
 44
0.0
 45
-134.7038418160373
 46
134.7038418160373
 79
     0
 53
45.0
 43
89.8026
 44
0.0
 45
-134.7038418160373
 46
134.7038418160373
 79
     0
 53
45.0
 43
134.704
 44
0.0
 45
-134.7038418160373
 46
134.7038418160373
 79
     0
 98
        1
 10
0.0
 20
0.0
  0
HATCH
  5
2A0
330
1F
100
AcDbEntity
  8
0
  6
Continuous
 62
     7
370
    18
100
AcDbHatch
 10
0.0
 20
0.0
 30
0.0
210
0.0
220
0.0
230
1.0
  2
ANSI34
 70
     0
 71
     0
 91
        1
 92
        0
 93
        6
 72
     1
 10
325.492156902087
 20
1742.14921187801
 11
363.9921569020871
 21
1742.14921187801
 72
     1
 10
363.9921569020871
 20
1742.14921187801
 11
365.4590915335147
 21
1777.14921187801
 72
     1
 10
365.4590915335147
 20
1777.14921187801
 11
425.4921569020871
 21
1777.14921187801
 72
     1
 10
425.4921569020871
 20
1777.14921187801
 11
425.4921569020871
 21
1953.159417022346
 72
     1
 10
425.4921569020871
 20
1953.159417022346
 11
325.492156902087
 21
1953.159417022346
 72
     1
 10
325.492156902087
 20
1953.159417022346
 11
325.492156902087
 21
1742.14921187801
 97
        0
 75
     0
 76
     1
 52
0.0
 41
10.0
 77
     0
 78
     4
 53
45.0
 43
0.0
 44
0.0
 45
-134.7038418160373
 46
134.7038418160373
 79
     0
 53
45.0
 43
44.9013
 44
0.0
 45
-134.7038418160373
 46
134.7038418160373
 79
     0
 53
45.0
 43
89.8026
 44
0.0
 45
-134.7038418160373
 46
134.7038418160373
 79
     0
 53
45.0
 43
134.704
 44
0.0
 45
-134.7038418160373
 46
134.7038418160373
 79
     0
 98
        1
 10
0.0
 20
0.0
  0
HATCH
  5
2A1
330
1F
100
AcDbEntity
  8
0
  6
Continuous
 62
     7
370
    18
100
AcDbHatch
 10
0.0
 20
0.0
 30
0.0
210
0.0
220
0.0
230
1.0
  2
ANSI34
 70
     0
 71
     0
 91
        1
 92
        0
 93
        4
 72
     1
 10
1725.492156902087
 20
2133.159417022347
 11
1725.492156902087
 21
2051.139006733673
 72
     1
 10
1725.492156902087
 20
2051.139006733673
 11
1825.492156902088
 21
2051.139006733673
 72
     1
 10
1825.492156902088
 20
2051.139006733673
 11
1825.492156902088
 21
2133.159417022347
 72
     1
 10
1825.492156902088
 20
2133.159417022347
 11
1725.492156902087
 21
2133.159417022347
 97
        0
 75
     0
 76
     1
 52
0.0
 41
10.0
 77
     0
 78
     4
 53
45.0
 43
0.0
 44
0.0
 45
-134.7038418160373
 46
134.7038418160373
 79
     0
 53
45.0
 43
44.9013
 44
0.0
 45
-134.7038418160373
 46
134.7038418160373
 79
     0
 53
45.0
 43
89.8026
 44
0.0
 45
-134.7038418160373
 46
134.7038418160373
 79
     0
 53
45.0
 43
134.704
 44
0.0
 45
-134.7038418160373
 46
134.7038418160373
 79
     0
 98
        1
 10
0.0
 20
0.0
  0
HATCH
  5
2A2
330
1F
100
AcDbEntity
  8
0
  6
Continuous
 62
     7
370
    18
100
AcDbHatch
 10
0.0
 20
0.0
 30
0.0
210
0.0
220
0.0
230
1.0
  2
ANSI34
 70
     0
 71
     0
 91
        1
 92
        0
 93
        6
 72
     1
 10
1825.492156902088
 20
2529.14921187801
 11
1780.492156902088
 21
2529.14921187801
 72
     1
 10
1780.492156902088
 20
2529.14921187801
 11
1778.492156902088
 21
2564.14921187801
 72
     1
 10
1778.492156902088
 20
2564.14921187801
 11
1725.492156902087
 21
2564.14921187801
 72
     1
 10
1725.492156902087
 20
2564.14921187801
 11
1725.492156902087
 21
2231.139006733673
 72
     1
 10
1725.492156902087
 20
2231.139006733673
 11
1825.492156902088
 21
2231.139006733673
 72
     1
 10
1825.492156902088
 20
2231.139006733673
 11
1825.492156902088
 21
2529.14921187801
 97
        0
 75
     0
 76
     1
 52
0.0
 41
10.0
 77
     0
 78
     4
 53
45.0
 43
0.0
 44
0.0
 45
-134.7038418160373
 46
134.7038418160373
 79
     0
 53
45.0
 43
44.9013
 44
0.0
 45
-134.7038418160373
 46
134.7038418160373
 79
     0
 53
45.0
 43
89.8026
 44
0.0
 45
-134.7038418160373
 46
134.7038418160373
 79
     0
 53
45.0
 43
134.704
 44
0.0
 45
-134.7038418160373
 46
134.7038418160373
 79
     0
 98
        1
 10
0.0
 20
0.0
  0
HATCH
  5
2A3
330
1F
100
AcDbEntity
  8
0
  6
Continuous
 62
     7
370
    18
100
AcDbHatch
 10
0.0
 20
0.0
 30
0.0
210
0.0
220
0.0
230
1.0
  2
ANSI34
 70
     0
 71
     0
 91
        1
 92
        0
 93
        4
 72
     1
 10
325.492156902087
 20
2133.159417022347
 11
325.492156902087
 21
2051.139006733673
 72
     1
 10
325.492156902087
 20
2051.139006733673
 11
425.4921569020871
 21
2051.139006733673
 72
     1
 10
425.4921569020871
 20
2051.139006733673
 11
425.4921569020871
 21
2133.159417022347
 72
     1
 10
425.4921569020871
 20
2133.159417022347
 11
325.492156902087
 21
2133.159417022347
 97
        0
 75
     0
 76
     1
 52
0.0
 41
10.0
 77
     0
 78
     4
 53
45.0
 43
0.0
 44
0.0
 45
-134.7038418160373
 46
134.7038418160373
 79
     0
 53
45.0
 43
44.9013
 44
0.0
 45
-134.7038418160373
 46
134.7038418160373
 79
     0
 53
45.0
 43
89.8026
 44
0.0
 45
-134.7038418160373
 46
134.7038418160373
 79
     0
 53
45.0
 43
134.704
 44
0.0
 45
-134.7038418160373
 46
134.7038418160373
 79
     0
 98
        1
 10
0.0
 20
0.0
  0
HATCH
  5
2A4
330
1F
100
AcDbEntity
  8
0
  6
Continuous
 62
     7
370
    18
100
AcDbHatch
 10
0.0
 20
0.0
 30
0.0
210
0.0
220
0.0
230
1.0
  2
ANSI34
 70
     0
 71
     0
 91
        1
 92
        0
 93
        8
 72
     1
 10
1725.492156902087
 20
2574.14921187801
 11
1785.492156902087
 21
2574.14921187801
 72
     1
 10
1785.492156902087
 20
2574.14921187801
 11
1785.492156902087
 21
2539.14921187801
 72
     1
 10
1785.492156902087
 20
2539.14921187801
 11
1825.492156902087
 21
2539.14921187801
 72
     1
 10
1825.492156902087
 20
2539.14921187801
 11
1825.492156902087
 21
2639.14921187801
 72
     1
 10
1825.492156902087
 20
2639.14921187801
 11
1783.93959532011
 21
2639.14921187801
 72
     1
 10
1783.93959532011
 20
2639.14921187801
 11
1781.492156902088
 21
2674.14921187801
 72
     1
 10
1781.492156902088
 20
2674.14921187801
 11
1725.492156902087
 21
2674.14921187801
 72
     1
 10
1725.492156902087
 20
2674.14921187801
 11
1725.492156902087
 21
2574.14921187801
 97
        0
 75
     0
 76
     1
 52
0.0
 41
10.0
 77
     0
 78
     4
 53
45.0
 43
0.0
 44
0.0
 45
-134.7038418160373
 46
134.7038418160373
 79
     0
 53
45.0
 43
44.9013
 44
0.0
 45
-134.7038418160373
 46
134.7038418160373
 79
     0
 53
45.0
 43
89.8026
 44
0.0
 45
-134.7038418160373
 46
134.7038418160373
 79
     0
 53
45.0
 43
134.704
 44
0.0
 45
-134.7038418160373
 46
134.7038418160373
 79
     0
 98
        1
 10
0.0
 20
0.0
  0
HATCH
  5
2A5
330
1F
100
AcDbEntity
  8
0
  6
Continuous
 62
     7
370
    18
100
AcDbHatch
 10
0.0
 20
0.0
 30
0.0
210
0.0
220
0.0
230
1.0
  2
ANSI34
 70
     0
 71
     0
 91
        1
 92
        0
 93
        8
 72
     1
 10
365.4921569020873
 20
2574.14921187801
 11
425.4921569020872
 21
2574.14921187801
 72
     1
 10
425.4921569020872
 20
2574.14921187801
 11
425.4921569020872
 21
2674.14921187801
 72
     1
 10
425.4921569020872
 20
2674.14921187801
 11
369.4921569020873
 21
2674.14921187801
 72
     1
 10
369.4921569020873
 20
2674.14921187801
 11
367.0447184840644
 21
2639.14921187801
 72
     1
 10
367.0447184840644
 20
2639.14921187801
 11
325.4921569020875
 21
2639.14921187801
 72
     1
 10
325.4921569020875
 20
2639.14921187801
 11
325.4921569020875
 21
2539.14921187801
 72
     1
 10
325.4921569020875
 20
2539.14921187801
 11
365.4921569020873
 21
2539.14921187801
 72
     1
 10
365.4921569020873
 20
2539.14921187801
 11
365.4921569020873
 21
2574.14921187801
 97
        0
 75
     0
 76
     1
 52
0.0
 41
10.0
 77
     0
 78
     4
 53
45.0
 43
0.0
 44
0.0
 45
-134.7038418160373
 46
134.7038418160373
 79
     0
 53
45.0
 43
44.9013
 44
0.0
 45
-134.7038418160373
 46
134.7038418160373
 79
     0
 53
45.0
 43
89.8026
 44
0.0
 45
-134.7038418160373
 46
134.7038418160373
 79
     0
 53
45.0
 43
134.704
 44
0.0
 45
-134.7038418160373
 46
134.7038418160373
 79
     0
 98
        1
 10
0.0
 20
0.0
  0
HATCH
  5
2A6
330
1F
100
AcDbEntity
  8
0
  6
Continuous
 62
     7
370
    18
100
AcDbHatch
 10
0.0
 20
0.0
 30
0.0
210
0.0
220
0.0
230
1.0
  2
ANSI34
 70
     0
 71
     0
 91
        1
 92
        0
 93
        6
 72
     1
 10
325.4921569020875
 20
1687.14921187801
 11
525.4921569020875
 21
1687.14921187801
 72
     1
 10
525.4921569020875
 20
1687.14921187801
 11
525.4921569020875
 21
1767.149211878009
 72
     1
 10
525.4921569020875
 20
1767.149211878009
 11
367.4921569020874
 21
1767.149211878009
 72
     1
 10
367.4921569020874
 20
1767.149211878009
 11
367.4921569020875
 21
1732.149211878009
 72
     1
 10
367.4921569020875
 20
1732.149211878009
 11
325.4921569020875
 21
1732.149211878009
 72
     1
 10
325.4921569020875
 20
1732.149211878009
 11
325.4921569020875
 21
1687.14921187801
 97
        0
 75
     0
 76
     1
 52
0.0
 41
10.0
 77
     0
 78
     4
 53
45.0
 43
0.0
 44
0.0
 45
-134.7038418160373
 46
134.7038418160373
 79
     0
 53
45.0
 43
44.9013
 44
0.0
 45
-134.7038418160373
 46
134.7038418160373
 79
     0
 53
45.0
 43
89.8026
 44
0.0
 45
-134.7038418160373
 46
134.7038418160373
 79
     0
 53
45.0
 43
134.704
 44
0.0
 45
-134.7038418160373
 46
134.7038418160373
 79
     0
 98
        1
 10
0.0
 20
0.0
  0
HATCH
  5
2A7
330
1F
100
AcDbEntity
  8
0
  6
Continuous
 62
     7
370
    18
100
AcDbHatch
 10
0.0
 20
0.0
 30
0.0
210
0.0
220
0.0
230
1.0
  2
ANSI34
 70
     0
 71
     0
 91
        1
 92
        0
 93
        6
 72
     1
 10
1625.492156902088
 20
1687.14921187801
 11
1825.492156902088
 21
1687.14921187801
 72
     1
 10
1825.492156902088
 20
1687.14921187801
 11
1825.492156902088
 21
1732.14921187801
 72
     1
 10
1825.492156902088
 20
1732.14921187801
 11
1783.492156902087
 21
1732.14921187801
 72
     1
 10
1783.492156902087
 20
1732.14921187801
 11
1783.492156902087
 21
1767.14921187801
 72
     1
 10
1783.492156902087
 20
1767.14921187801
 11
1625.492156902088
 21
1767.14921187801
 72
     1
 10
1625.492156902088
 20
1767.14921187801
 11
1625.492156902088
 21
1687.14921187801
 97
        0
 75
     0
 76
     1
 52
0.0
 41
10.0
 77
     0
 78
     4
 53
45.0
 43
0.0
 44
0.0
 45
-134.7038418160373
 46
134.7038418160373
 79
     0
 53
45.0
 43
44.9013
 44
0.0
 45
-134.7038418160373
 46
134.7038418160373
 79
     0
 53
45.0
 43
89.8026
 44
0.0
 45
-134.7038418160373
 46
134.7038418160373
 79
     0
 53
45.0
 43
134.704
 44
0.0
 45
-134.7038418160373
 46
134.7038418160373
 79
     0
 98
        1
 10
0.0
 20
0.0
  0
HATCH
  5
2A8
330
1F
100
AcDbEntity
  8
0
  6
Continuous
 62
     7
370
    18
100
AcDbHatch
 10
0.0
 20
0.0
 30
0.0
210
0.0
220
0.0
230
1.0
  2
DIN 201 Stahl und Stahlguss
 70
     0
 71
     0
 91
        1
 92
        0
 93
        4
 72
     1
 10
1787.992156902088
 20
2677.149211878009
 11
1075.992156902087
 21
2677.149211878009
 72
     1
 10
1075.992156902087
 20
2677.149211878009
 11
1075.992156902087
 21
2674.14921187801
 72
     1
 10
1075.992156902087
 20
2674.14921187801
 11
1787.992156902088
 21
2674.14921187801
 72
     1
 10
1787.992156902088
 20
2674.14921187801
 11
1787.992156902088
 21
2677.149211878009
 97
        0
 75
     0
 76
     2
 52
90.0
 41
10.0
 77
     0
 78
     4
 53
135.0000020971719
 43
0.0
 44
0.0
 45
-1347.038368855324
 46
-1347.03846746542
 79
     0
 53
135.0000020971719
 43
-0.0000000000015677
 44
449.0128000000001
 45
-1347.038368855324
 46
-1347.03846746542
 79
     0
 53
135.0000020971719
 43
-0.0000000000031354
 44
898.0256000000002
 45
-1347.038368855324
 46
-1347.03846746542
 79
     0
 53
135.0000020971719
 43
-0.0000000000047032
 44
1347.038
 45
-1347.038368855324
 46
-1347.03846746542
 79
     0
 98
        1
 10
0.0
 20
0.0
  0
HATCH
  5
2A9
330
1F
100
AcDbEntity
  8
0
  6
Continuous
 62
     7
370
    18
100
AcDbHatch
 10
0.0
 20
0.0
 30
0.0
210
0.0
220
0.0
230
1.0
  2
DIN 201 Stahl und Stahlguss
 70
     0
 71
     0
 91
        1
 92
        0
 93
        4
 72
     1
 10
1136.992156902087
 20
2626.149211878009
 11
1136.992156902087
 21
2624.14921187801
 72
     1
 10
1136.992156902087
 20
2624.14921187801
 11
1726.992156902087
 21
2624.14921187801
 72
     1
 10
1726.992156902087
 20
2624.14921187801
 11
1726.992156902087
 21
2626.149211878009
 72
     1
 10
1726.992156902087
 20
2626.149211878009
 11
1136.992156902087
 21
2626.149211878009
 97
        0
 75
     0
 76
     2
 52
0.0
 41
10.0
 77
     0
 78
     4
 53
45.00000209717174
 43
0.0
 44
0.0
 45
-1347.038467465416
 46
1347.038368855329
 79
     0
 53
45.00000209717174
 43
449.0128000000001
 44
0.0
 45
-1347.038467465416
 46
1347.038368855329
 79
     0
 53
45.00000209717174
 43
898.0256000000002
 44
0.0
 45
-1347.038467465416
 46
1347.038368855329
 79
     0
 53
45.00000209717174
 43
1347.038
 44
0.0
 45
-1347.038467465416
 46
1347.038368855329
 79
     0
 98
        1
 10
0.0
 20
0.0
  0
HATCH
  5
2AA
330
1F
100
AcDbEntity
  8
0
  6
Continuous
 62
     7
370
    18
100
AcDbHatch
 10
0.0
 20
0.0
 30
0.0
210
0.0
220
0.0
230
1.0
  2
DIN 201 Stahl und Stahlguss
 70
     0
 71
     0
 91
        1
 92
        0
 93
        4
 72
     1
 10
1726.992156902087
 20
2672.149211878009
 11
1726.992156902087
 21
2674.14921187801
 72
     1
 10
1726.992156902087
 20
2674.14921187801
 11
1136.992156902087
 21
2674.14921187801
 72
     1
 10
1136.992156902087
 20
2674.14921187801
 11
1136.992156902087
 21
2672.14921187801
 72
     1
 10
1136.992156902087
 20
2672.14921187801
 11
1726.992156902087
 21
2672.149211878009
 97
        0
 75
     0
 76
     2
 52
0.0
 41
10.0
 77
     0
 78
     4
 53
45.00000209717174
 43
0.0
 44
0.0
 45
-1347.038467465416
 46
1347.038368855329
 79
     0
 53
45.00000209717174
 43
449.0128000000001
 44
0.0
 45
-1347.038467465416
 46
1347.038368855329
 79
     0
 53
45.00000209717174
 43
898.0256000000002
 44
0.0
 45
-1347.038467465416
 46
1347.038368855329
 79
     0
 53
45.00000209717174
 43
1347.038
 44
0.0
 45
-1347.038467465416
 46
1347.038368855329
 79
     0
 98
        1
 10
0.0
 20
0.0
  0
HATCH
  5
2AB
330
1F
100
AcDbEntity
  8
0
  6
Continuous
 62
     7
370
    18
100
AcDbHatch
 10
0.0
 20
0.0
 30
0.0
210
0.0
220
0.0
230
1.0
  2
DIN 201 Stahl und Stahlguss
 70
     0
 71
     0
 91
        1
 92
        0
 93
        4
 72
     1
 10
1074.992156902088
 20
2677.149211878009
 11
362.9921569020868
 21
2677.149211878009
 72
     1
 10
362.9921569020868
 20
2677.149211878009
 11
362.9921569020868
 21
2674.14921187801
 72
     1
 10
362.9921569020868
 20
2674.14921187801
 11
1074.992156902088
 21
2674.14921187801
 72
     1
 10
1074.992156902088
 20
2674.14921187801
 11
1074.992156902088
 21
2677.149211878009
 97
        0
 75
     0
 76
     2
 52
90.0
 41
10.0
 77
     0
 78
     4
 53
135.0000020971719
 43
0.0
 44
0.0
 45
-1347.038368855324
 46
-1347.03846746542
 79
     0
 53
135.0000020971719
 43
-0.0000000000015677
 44
449.0128000000001
 45
-1347.038368855324
 46
-1347.03846746542
 79
     0
 53
135.0000020971719
 43
-0.0000000000031354
 44
898.0256000000002
 45
-1347.038368855324
 46
-1347.03846746542
 79
     0
 53
135.0000020971719
 43
-0.0000000000047032
 44
1347.038
 45
-1347.038368855324
 46
-1347.03846746542
 79
     0
 98
        1
 10
0.0
 20
0.0
  0
HATCH
  5
2AC
330
1F
100
AcDbEntity
  8
0
  6
Continuous
 62
     7
370
    18
100
AcDbHatch
 10
0.0
 20
0.0
 30
0.0
210
0.0
220
0.0
230
1.0
  2
DIN 201 Stahl und Stahlguss
 70
     0
 71
     0
 91
        1
 92
        0
 93
        4
 72
     1
 10
423.9921569020873
 20
2626.149211878009
 11
423.9921569020873
 21
2624.14921187801
 72
     1
 10
423.9921569020873
 20
2624.14921187801
 11
1013.992156902087
 21
2624.14921187801
 72
     1
 10
1013.992156902087
 20
2624.14921187801
 11
1013.992156902087
 21
2626.149211878009
 72
     1
 10
1013.992156902087
 20
2626.149211878009
 11
423.9921569020873
 21
2626.149211878009
 97
        0
 75
     0
 76
     2
 52
0.0
 41
10.0
 77
     0
 78
     4
 53
45.00000209717174
 43
0.0
 44
0.0
 45
-1347.038467465416
 46
1347.038368855329
 79
     0
 53
45.00000209717174
 43
449.0128000000001
 44
0.0
 45
-1347.038467465416
 46
1347.038368855329
 79
     0
 53
45.00000209717174
 43
898.0256000000002
 44
0.0
 45
-1347.038467465416
 46
1347.038368855329
 79
     0
 53
45.00000209717174
 43
1347.038
 44
0.0
 45
-1347.038467465416
 46
1347.038368855329
 79
     0
 98
        1
 10
0.0
 20
0.0
  0
HATCH
  5
2AD
330
1F
100
AcDbEntity
  8
0
  6
Continuous
 62
     7
370
    18
100
AcDbHatch
 10
0.0
 20
0.0
 30
0.0
210
0.0
220
0.0
230
1.0
  2
DIN 201 Stahl und Stahlguss
 70
     0
 71
     0
 91
        1
 92
        0
 93
        4
 72
     1
 10
1013.992156902087
 20
2672.149211878009
 11
1013.992156902087
 21
2674.14921187801
 72
     1
 10
1013.992156902087
 20
2674.14921187801
 11
423.9921569020873
 21
2674.14921187801
 72
     1
 10
423.9921569020873
 20
2674.14921187801
 11
423.9921569020873
 21
2672.14921187801
 72
     1
 10
423.9921569020873
 20
2672.14921187801
 11
1013.992156902087
 21
2672.149211878009
 97
        0
 75
     0
 76
     2
 52
0.0
 41
10.0
 77
     0
 78
     4
 53
45.00000209717174
 43
0.0
 44
0.0
 45
-1347.038467465416
 46
1347.038368855329
 79
     0
 53
45.00000209717174
 43
449.0128000000001
 44
0.0
 45
-1347.038467465416
 46
1347.038368855329
 79
     0
 53
45.00000209717174
 43
898.0256000000002
 44
0.0
 45
-1347.038467465416
 46
1347.038368855329
 79
     0
 53
45.00000209717174
 43
1347.038
 44
0.0
 45
-1347.038467465416
 46
1347.038368855329
 79
     0
 98
        1
 10
0.0
 20
0.0
  0
INSERT
  5
2B3
330
1F
100
AcDbEntity
  8
O-TEKST
100
AcDbBlockReference
  2
SW_NOTE_1
 10
867.8723780902
 20
1474.2901815419
 30
0.0
  0
LINE
  5
2B4
330
1F
100
AcDbEntity
  8
0
  6
Continuous
 62
     7
370
    25
100
AcDbLine
 10
1787.9921330602
 20
3963.1688798486
 30
0.0
 11
1787.9921330602
 21
3966.1689008295
 31
0.0
  0
LINE
  5
2B5
330
1F
100
AcDbEntity
  8
0
  6
Continuous
 62
     7
370
    25
100
AcDbLine
 10
1787.9921330602
 20
3963.1688798486
 30
0.0
 11
1781.4921273382
 21
3963.1688798486
 31
0.0
  0
LINE
  5
2B6
330
1F
100
AcDbEntity
  8
0
  6
Continuous
 62
     7
370
    25
100
AcDbLine
 10
1787.9921330602
 20
3966.1689008295
 30
0.0
 11
1767.9921521337
 21
3966.1689008295
 31
0.0
  0
LINE
  5
2B7
330
1F
100
AcDbEntity
  8
0
  6
Continuous
 62
     7
370
    25
100
AcDbLine
 10
1767.9921521337
 20
3963.1688798486
 30
0.0
 11
1095.9921574683
 21
3963.1688798486
 31
0.0
  0
LINE
  5
2B8
330
1F
100
AcDbEntity
  8
0
  6
Continuous
 62
     7
370
    25
100
AcDbLine
 10
1767.9921521337
 20
3966.1689008295
 30
0.0
 11
1095.9921574683
 21
3966.1689008295
 31
0.0
  0
LINE
  5
2B9
330
1F
100
AcDbEntity
  8
0
  6
Continuous
 62
     7
370
    25
100
AcDbLine
 10
1075.9921569258
 20
3963.1688798486
 30
0.0
 11
1075.9921569258
 21
3966.1689008295
 31
0.0
  0
LINE
  5
2BA
330
1F
100
AcDbEntity
  8
0
  6
Continuous
 62
     7
370
    25
100
AcDbLine
 10
1095.9921574683
 20
3966.1689008295
 30
0.0
 11
1075.9921569258
 21
3966.1689008295
 31
0.0
  0
LINE
  5
2BB
330
1F
100
AcDbEntity
  8
0
  6
Continuous
 62
     7
370
    25
100
AcDbLine
 10
1074.9921568783
 20
3963.1688798486
 30
0.0
 11
1074.9921568783
 21
3966.1689008295
 31
0.0
  0
LINE
  5
2BC
330
1F
100
AcDbEntity
  8
0
  6
Continuous
 62
     7
370
    25
100
AcDbLine
 10
1074.9921568783
 20
3966.1689008295
 30
0.0
 11
1054.9921563358
 21
3966.1689008295
 31
0.0
  0
LINE
  5
2BD
330
1F
100
AcDbEntity
  8
0
  6
Continuous
 62
     7
370
    25
100
AcDbLine
 10
1054.9921563358
 20
3963.1688798486
 30
0.0
 11
382.9921616705
 21
3963.1688798486
 31
0.0
  0
LINE
  5
2BE
330
1F
100
AcDbEntity
  8
0
  6
Continuous
 62
     7
370
    25
100
AcDbLine
 10
1054.9921563358
 20
3966.1689008295
 30
0.0
 11
382.9921616705
 21
3966.1689008295
 31
0.0
  0
LINE
  5
2BF
330
1F
100
AcDbEntity
  8
0
  6
Continuous
 62
     7
370
    25
100
AcDbLine
 10
362.9921807439
 20
3963.1688798486
 30
0.0
 11
362.9921807439
 21
3966.1689008295
 31
0.0
  0
LINE
  5
2C0
330
1F
100
AcDbEntity
  8
0
  6
Continuous
 62
     7
370
    25
100
AcDbLine
 10
369.492186466
 20
3963.1688798486
 30
0.0
 11
362.9921807439
 21
3963.1688798486
 31
0.0
  0
LINE
  5
2C1
330
1F
100
AcDbEntity
  8
0
  6
Continuous
 62
     7
370
    25
100
AcDbLine
 10
382.9921616705
 20
3966.1689008295
 30
0.0
 11
362.9921807439
 21
3966.1689008295
 31
0.0
  0
LINE
  5
2C2
330
1F
100
AcDbEntity
  8
0
  6
Continuous
 62
     7
370
    25
100
AcDbLine
 10
325.4921569021
 20
2976.1688763915
 30
0.0
 11
1825.4921569021
 21
2976.1688763915
 31
0.0
  0
LINE
  5
2C3
330
1F
100
AcDbEntity
  8
0
  6
Continuous
 62
     7
370
    25
100
AcDbLine
 10
325.4921569021
 20
3021.1688781797
 30
0.0
 11
325.4921569021
 21
2976.1688763915
 31
0.0
  0
LINE
  5
2C4
330
1F
100
AcDbEntity
  8
0
  6
Continuous
 62
     7
370
    25
100
AcDbLine
 10
325.4921569021
 20
3021.1688781797
 30
0.0
 11
1825.4921569021
 21
3021.1688781797
 31
0.0
  0
LINE
  5
2C5
330
1F
100
AcDbEntity
  8
0
  6
Continuous
 62
     7
370
    25
100
AcDbLine
 10
1825.4921569021
 20
2976.1688763915
 30
0.0
 11
1825.4921569021
 21
3021.1688781797
 31
0.0
  0
LINE
  5
2C6
330
1F
100
AcDbEntity
  8
0
  6
Continuous
 62
     7
370
    25
100
AcDbLine
 10
367.4921526106
 20
3021.1688781797
 30
0.0
 11
367.4921526106
 21
3031.1688835441
 31
0.0
  0
LINE
  5
2C7
330
1F
100
AcDbEntity
  8
0
  6
Continuous
 62
     7
370
    25
100
AcDbLine
 10
1783.4921611936
 20
3021.1688781797
 30
0.0
 11
1783.4921611936
 21
3031.1688835441
 31
0.0
  0
LINE
  5
2C8
330
1F
100
AcDbEntity
  8
0
  6
Continuous
 62
     7
370
    25
100
AcDbLine
 10
325.4921569021
 20
3828.1688893854
 30
0.0
 11
325.4921569021
 21
3928.1688536226
 31
0.0
  0
LINE
  5
2C9
330
1F
100
AcDbEntity
  8
0
  6
Continuous
 62
     7
370
    25
100
AcDbLine
 10
1825.4921569021
 20
3928.1688536226
 30
0.0
 11
325.4921569021
 21
3928.1688536226
 31
0.0
  0
LINE
  5
2CA
330
1F
100
AcDbEntity
  8
0
  6
Continuous
 62
     7
370
    25
100
AcDbLine
 10
1825.4921569021
 20
3828.1688893854
 30
0.0
 11
1825.4921569021
 21
3928.1688536226
 31
0.0
  0
LINE
  5
2CB
330
1F
100
AcDbEntity
  8
0
  6
Continuous
 62
     7
370
    25
100
AcDbLine
 10
325.4921569021
 20
3828.1688893854
 30
0.0
 11
1825.4921569021
 21
3828.1688893854
 31
0.0
  0
LINE
  5
2CC
330
1F
100
AcDbEntity
  8
0
  6
Continuous
 62
     7
370
    25
100
AcDbLine
 10
367.0447005422
 20
3928.1688536226
 30
0.0
 11
369.492186466
 21
3963.1688798486
 31
0.0
  0
LINE
  5
2CD
330
1F
100
AcDbEntity
  8
0
  6
Continuous
 62
     7
370
    25
100
AcDbLine
 10
369.492186466
 20
3963.1688798486
 30
0.0
 11
1781.4921273382
 21
3963.1688798486
 31
0.0
  0
LINE
  5
2CE
330
1F
100
AcDbEntity
  8
0
  6
Continuous
 62
     7
370
    25
100
AcDbLine
 10
1783.939613262
 20
3928.1688536226
 30
0.0
 11
1781.4921273382
 21
3963.1688798486
 31
0.0
  0
LINE
  5
2CF
330
1F
100
AcDbEntity
  8
0
  6
Continuous
 62
     7
370
    25
100
AcDbLine
 10
1825.4921569021
 20
3818.1688989221
 30
0.0
 11
1825.4921569021
 21
3031.1688835441
 31
0.0
  0
LINE
  5
2D0
330
1F
100
AcDbEntity
  8
0
  6
Continuous
 62
     7
370
    25
100
AcDbLine
 10
325.4921569021
 20
3031.1688835441
 30
0.0
 11
1825.4921569021
 21
3031.1688835441
 31
0.0
  0
LINE
  5
2D1
330
1F
100
AcDbEntity
  8
0
  6
Continuous
 62
     7
370
    25
100
AcDbLine
 10
325.4921569021
 20
3818.1688989221
 30
0.0
 11
325.4921569021
 21
3031.1688835441
 31
0.0
  0
LINE
  5
2D2
330
1F
100
AcDbEntity
  8
0
  6
Continuous
 62
     7
370
    25
100
AcDbLine
 10
325.4921569021
 20
3818.1688989221
 30
0.0
 11
1825.4921569021
 21
3818.1688989221
 31
0.0
  0
LINE
  5
2D3
330
1F
100
AcDbEntity
  8
0
  6
Continuous
 62
     7
370
    25
100
AcDbLine
 10
1125.4921576471
 20
3471.1688662588
 30
0.0
 11
1125.4921576471
 21
3291.1688814579
 31
0.0
  0
LINE
  5
2D4
330
1F
100
AcDbEntity
  8
0
  6
Continuous
 62
     7
370
    25
100
AcDbLine
 10
1125.4921576471
 20
3291.1688814579
 30
0.0
 11
1625.492168823
 21
3291.1688814579
 31
0.0
  0
LINE
  5
2D5
330
1F
100
AcDbEntity
  8
0
  6
Continuous
 62
     7
370
    25
100
AcDbLine
 10
1625.492168823
 20
3291.1688814579
 30
0.0
 11
1625.492168823
 21
3471.1688662588
 31
0.0
  0
LINE
  5
2D6
330
1F
100
AcDbEntity
  8
0
  6
Continuous
 62
     7
370
    25
100
AcDbLine
 10
1625.492168823
 20
3471.1688662588
 30
0.0
 11
1125.4921576471
 21
3471.1688662588
 31
0.0
  0
CIRCLE
  5
2D7
330
1F
100
AcDbEntity
  8
0
  6
Continuous
 62
     7
370
    25
100
AcDbCircle
 10
700.4921569021
 20
3718.1688782835
 30
0.0
 40
20.00000000000011
  0
CIRCLE
  5
2D8
330
1F
100
AcDbEntity
  8
0
  6
Continuous
 62
     7
370
    25
100
AcDbCircle
 10
1450.4921569021
 20
3718.1688782835
 30
0.0
 40
20.0
  0
CIRCLE
  5
2D9
330
1F
100
AcDbEntity
  8
0
  6
Continuous
 62
     7
370
    25
100
AcDbCircle
 10
1450.4921569021
 20
3718.1688782835
 30
0.0
 40
4.999999999999773
  0
CIRCLE
  5
2DA
330
1F
100
AcDbEntity
  8
0
  6
Continuous
 62
     7
370
    25
100
AcDbCircle
 10
700.4921569021
 20
3718.1688782835
 30
0.0
 40
5.0
  0
LINE
  5
2DB
330
1F
100
AcDbEntity
  8
0
  6
Continuous
 62
     7
370
    25
100
AcDbLine
 10
370.4921735914
 20
3818.1688989221
 30
0.0
 11
371.0636033208
 21
3828.1688893854
 31
0.0
  0
LINE
  5
2DC
330
1F
100
AcDbEntity
  8
0
  6
Continuous
 62
     7
370
    25
100
AcDbLine
 10
1780.4921402128
 20
3818.1688989221
 30
0.0
 11
1779.9207104833
 21
3828.1688893854
 31
0.0
  0
LINE
  5
2DD
330
1F
100
AcDbEntity
  8
0
  6
PHANTOM
 62
     8
370
    18
100
AcDbLine
 10
1767.9921521337
 20
3963.1688798486
 30
0.0
 11
1767.9921521337
 21
3966.1689008295
 31
0.0
  0
LINE
  5
2DE
330
1F
100
AcDbEntity
  8
0
  6
PHANTOM
 62
     8
370
    18
100
AcDbLine
 10
1095.9921574683
 20
3963.1688798486
 30
0.0
 11
1095.9921574683
 21
3966.1689008295
 31
0.0
  0
LINE
  5
2DF
330
1F
100
AcDbEntity
  8
0
  6
PHANTOM
 62
     8
370
    18
100
AcDbLine
 10
1054.9921563358
 20
3963.1688798486
 30
0.0
 11
1054.9921563358
 21
3966.1689008295
 31
0.0
  0
LINE
  5
2E0
330
1F
100
AcDbEntity
  8
0
  6
PHANTOM
 62
     8
370
    18
100
AcDbLine
 10
382.9921616705
 20
3963.1688798486
 30
0.0
 11
382.9921616705
 21
3966.1689008295
 31
0.0
  0
LINE
  5
2E1
330
1F
100
AcDbEntity
  8
0
  6
Continuous
 62
     7
370
    25
100
AcDbLine
 10
4665.0931953877
 20
549.7166214095
 30
0.0
 11
4668.0932163685
 21
549.7166214095
 31
0.0
  0
LINE
  5
2E2
330
1F
100
AcDbEntity
  8
0
  6
Continuous
 62
     7
370
    25
100
AcDbLine
 10
4665.0931953877
 20
554.9602804289
 30
0.0
 11
4665.0931953877
 21
569.7166321383
 31
0.0
  0
LINE
  5
2E3
330
1F
100
AcDbEntity
  8
0
  6
Continuous
 62
     7
370
    25
100
AcDbLine
 10
4668.0932163685
 20
549.7166214095
 30
0.0
 11
4668.0932163685
 21
569.7166321383
 31
0.0
  0
LINE
  5
2E4
330
1F
100
AcDbEntity
  8
0
  6
Continuous
 62
     7
370
    25
100
AcDbLine
 10
4665.0931953877
 20
569.7166321383
 30
0.0
 11
4665.0931953877
 21
1241.7166230784
 31
0.0
  0
LINE
  5
2E5
330
1F
100
AcDbEntity
  8
0
  6
Continuous
 62
     7
370
    25
100
AcDbLine
 10
4668.0932163685
 20
569.7166321383
 30
0.0
 11
4668.0932163685
 21
1241.7166230784
 31
0.0
  0
LINE
  5
2E6
330
1F
100
AcDbEntity
  8
0
  6
Continuous
 62
     7
370
    25
100
AcDbLine
 10
4665.0931953877
 20
1261.7166338072
 30
0.0
 11
4668.0932163685
 21
1261.7166338072
 31
0.0
  0
LINE
  5
2E7
330
1F
100
AcDbEntity
  8
0
  6
Continuous
 62
     7
370
    25
100
AcDbLine
 10
4665.0931953877
 20
1241.7166230784
 30
0.0
 11
4665.0931953877
 21
1256.4729747878
 31
0.0
  0
LINE
  5
2E8
330
1F
100
AcDbEntity
  8
0
  6
Continuous
 62
     7
370
    25
100
AcDbLine
 10
4668.0932163685
 20
1241.7166230784
 30
0.0
 11
4668.0932163685
 21
1261.7166338072
 31
0.0
  0
LINE
  5
2E9
330
1F
100
AcDbEntity
  8
0
  6
Continuous
 62
     7
370
    25
100
AcDbLine
 10
3723.0931937188
 20
1305.7166335688
 30
0.0
 11
3678.0931919306
 21
1305.7166335688
 31
0.0
  0
LINE
  5
2EA
330
1F
100
AcDbEntity
  8
0
  6
Continuous
 62
     7
370
    25
100
AcDbLine
 10
3723.0931937188
 20
505.7166216479
 30
0.0
 11
3723.0931937188
 21
1305.7166335688
 31
0.0
  0
LINE
  5
2EB
330
1F
100
AcDbEntity
  8
0
  6
Continuous
 62
     7
370
    25
100
AcDbLine
 10
3723.0931937188
 20
505.7166216479
 30
0.0
 11
3678.0931919306
 21
505.7166216479
 31
0.0
  0
LINE
  5
2EC
330
1F
100
AcDbEntity
  8
0
  6
Continuous
 62
     7
370
    25
100
AcDbLine
 10
3678.0931919306
 20
1305.7166335688
 30
0.0
 11
3678.0931919306
 21
505.7166216479
 31
0.0
  0
LINE
  5
2ED
330
1F
100
AcDbEntity
  8
0
  6
Continuous
 62
     7
370
    25
100
AcDbLine
 10
3723.0931937188
 20
547.7166173563
 30
0.0
 11
3733.0931990832
 21
547.7166173563
 31
0.0
  0
LINE
  5
2EE
330
1F
100
AcDbEntity
  8
0
  6
Continuous
 62
     7
370
    25
100
AcDbLine
 10
3723.0931937188
 20
1263.7166378603
 30
0.0
 11
3733.0931990832
 21
1263.7166378603
 31
0.0
  0
LINE
  5
2EF
330
1F
100
AcDbEntity
  8
0
  6
Continuous
 62
     7
370
    25
100
AcDbLine
 10
4530.0932049245
 20
1305.7166335688
 30
0.0
 11
4530.0932049245
 21
505.7166216479
 31
0.0
  0
LINE
  5
2F0
330
1F
100
AcDbEntity
  8
0
  6
Continuous
 62
     7
370
    25
100
AcDbLine
 10
4530.0932049245
 20
1305.7166335688
 30
0.0
 11
4630.0931691617
 21
1305.7166335688
 31
0.0
  0
LINE
  5
2F1
330
1F
100
AcDbEntity
  8
0
  6
Continuous
 62
     7
370
    25
100
AcDbLine
 10
4630.0931691617
 20
505.7166216479
 30
0.0
 11
4630.0931691617
 21
1305.7166335688
 31
0.0
  0
LINE
  5
2F2
330
1F
100
AcDbEntity
  8
0
  6
Continuous
 62
     7
370
    25
100
AcDbLine
 10
4530.0932049245
 20
505.7166216479
 30
0.0
 11
4630.0931691617
 21
505.7166216479
 31
0.0
  0
LINE
  5
2F3
330
1F
100
AcDbEntity
  8
0
  6
Continuous
 62
     7
370
    25
100
AcDbLine
 10
4630.0931691617
 20
1264.1640601264
 30
0.0
 11
4665.0931953877
 21
1261.7166338072
 31
0.0
  0
LINE
  5
2F4
330
1F
100
AcDbEntity
  8
0
  6
Continuous
 62
     7
370
    25
100
AcDbLine
 10
4665.0931953877
 20
1261.7166338072
 30
0.0
 11
4665.0931953877
 21
1256.4729747878
 31
0.0
  0
LINE
  5
2F5
330
1F
100
AcDbEntity
  8
0
  6
Continuous
 62
     7
370
    25
100
AcDbLine
 10
4665.0931953877
 20
554.9602804289
 30
0.0
 11
4665.0931953877
 21
549.7166214095
 31
0.0
  0
LINE
  5
2F6
330
1F
100
AcDbEntity
  8
0
  6
Continuous
 62
     7
370
    25
100
AcDbLine
 10
4630.0931691617
 20
547.2691950903
 30
0.0
 11
4665.0931953877
 21
549.7166214095
 31
0.0
  0
LINE
  5
2F7
330
1F
100
AcDbEntity
  8
0
  6
Continuous
 62
     7
370
    25
100
AcDbLine
 10
4520.0932144612
 20
505.7166216479
 30
0.0
 11
3733.0931990832
 21
505.7166216479
 31
0.0
  0
LINE
  5
2F8
330
1F
100
AcDbEntity
  8
0
  6
Continuous
 62
     7
370
    25
100
AcDbLine
 10
3733.0931990832
 20
1305.7166335688
 30
0.0
 11
3733.0931990832
 21
505.7166216479
 31
0.0
  0
LINE
  5
2F9
330
1F
100
AcDbEntity
  8
0
  6
Continuous
 62
     7
370
    25
100
AcDbLine
 10
4520.0932144612
 20
1305.7166335688
 30
0.0
 11
3733.0931990832
 21
1305.7166335688
 31
0.0
  0
LINE
  5
2FA
330
1F
100
AcDbEntity
  8
0
  6
Continuous
 62
     7
370
    25
100
AcDbLine
 10
4520.0932144612
 20
1305.7166335688
 30
0.0
 11
4520.0932144612
 21
505.7166216479
 31
0.0
  0
CIRCLE
  5
2FB
330
1F
100
AcDbEntity
  8
0
  6
Continuous
 62
     7
370
    25
100
AcDbCircle
 10
4173.0931938226
 20
1095.7166276083
 30
0.0
 40
50.00000000000023
  0
CIRCLE
  5
2FC
330
1F
100
AcDbEntity
  8
0
  6
Continuous
 62
     7
370
    25
100
AcDbCircle
 10
3993.0931938226
 20
915.7166276083
 30
0.0
 40
50.0
  0
CIRCLE
  5
2FD
330
1F
100
AcDbEntity
  8
0
  6
Continuous
 62
     7
370
    25
100
AcDbCircle
 10
3993.0931938226
 20
1095.7166276083
 30
0.0
 40
50.0
  0
CIRCLE
  5
2FE
330
1F
100
AcDbEntity
  8
0
  6
Continuous
 62
     7
370
    25
100
AcDbCircle
 10
4173.0931938226
 20
915.7166276083
 30
0.0
 40
50.0
  0
LINE
  5
2FF
330
1F
100
AcDbEntity
  8
0
  6
Continuous
 62
     7
370
    25
100
AcDbLine
 10
4520.0932144612
 20
550.7166383372
 30
0.0
 11
4530.0932049245
 21
551.2880680666
 31
0.0
  0
LINE
  5
300
330
1F
100
AcDbEntity
  8
0
  6
Continuous
 62
     7
370
    25
100
AcDbLine
 10
4530.0932049245
 20
1260.14518715
 30
0.0
 11
4520.0932144612
 21
1260.7166168795
 31
0.0
  0
LINE
  5
301
330
1F
100
AcDbEntity
  8
0
  6
PHANTOM
 62
     8
370
    18
100
AcDbLine
 10
4665.0931953877
 20
569.7166321383
 30
0.0
 11
4668.0932163685
 21
569.7166321383
 31
0.0
  0
LINE
  5
302
330
1F
100
AcDbEntity
  8
0
  6
PHANTOM
 62
     8
370
    18
100
AcDbLine
 10
4665.0931953877
 20
1241.7166230784
 30
0.0
 11
4668.0932163685
 21
1241.7166230784
 31
0.0
  0
LINE
  5
303
330
1F
100
AcDbEntity
  8
0
  6
Continuous
 62
     7
370
    25
100
AcDbLine
 10
3796.018669457
 20
3149.0655894713
 30
0.0
 11
3796.018669457
 21
3151.5152290387
 31
0.0
  0
LINE
  5
304
330
1F
100
AcDbEntity
  8
0
  6
Continuous
 62
     7
370
    25
100
AcDbLine
 10
2805.6671650619
 20
3151.5152469067
 30
0.0
 11
2805.6671650619
 21
3149.0656073393
 31
0.0
  0
LINE
  5
305
330
1F
100
AcDbEntity
  8
0
  6
Continuous
 62
     7
370
    25
100
AcDbLine
 10
4300.1858153011
 20
2858.0160913383
 30
0.0
 11
4300.1858153011
 21
2860.4657309057
 31
0.0
  0
LINE
  5
306
330
1F
100
AcDbEntity
  8
0
  6
Continuous
 62
     7
370
    25
100
AcDbLine
 10
3309.834310906
 20
2860.4657487736
 30
0.0
 11
3309.834310906
 21
2858.0161092063
 31
0.0
  0
LINE
  5
307
330
1F
100
AcDbEntity
  8
0
  6
Continuous
 62
     7
370
    25
100
AcDbLine
 10
3007.4185233527
 20
2788.9530122062
 30
0.0
 11
3008.1256421036
 21
2789.3612231721
 31
0.0
  0
LINE
  5
308
330
1F
100
AcDbEntity
  8
0
  6
Continuous
 62
     7
370
    25
100
AcDbLine
 10
3003.1260564927
 20
2798.0216841644
 30
0.0
 11
3002.4189377418
 21
2797.6134731985
 31
0.0
  0
LINE
  5
309
330
1F
100
AcDbEntity
  8
0
  6
Continuous
 62
     7
370
    25
100
AcDbLine
 10
3009.1567647524
 20
2791.8613308524
 30
0.0
 11
3009.4801996679
 21
2792.5580209326
 31
0.0
  0
LINE
  5
30A
330
1F
100
AcDbEntity
  8
0
  6
Continuous
 62
     7
370
    25
100
AcDbLine
 10
3006.5718142395
 20
2797.5960762832
 30
0.0
 11
3005.8067435719
 21
2797.6643460967
 31
0.0
  0
LINE
  5
30B
330
1F
100
AcDbEntity
  8
0
  6
Continuous
 62
     7
370
    25
100
AcDbLine
 10
3006.6486690178
 20
2797.6368541414
 30
0.0
 11
3006.5623311986
 21
2797.6029291784
 31
0.0
  0
SPLINE
  5
30C
330
1F
100
AcDbEntity
  8
0
  6
Continuous
 62
     7
370
    25
100
AcDbSpline
210
0.0
220
0.0
230
1.0
 70
     8
 71
     3
 72
     9
 73
     5
 74
     0
 42
0.000000001
 43
0.00000001
 40
0.0
 40
0.0
 40
0.0
 40
0.0
 40
0.2103273931758489
 40
1.0
 40
1.0
 40
1.0
 40
1.0
 10
3009.482791699041
 20
2792.553940169302
 30
0.0
 10
3009.481916020936
 20
2792.552327358775
 30
0.0
 10
3009.477752616009
 20
2792.544659263325
 30
0.0
 10
3009.522970095154
 20
2792.574835060811
 30
0.0
 10
3009.558677099785
 20
2792.598664061475
 30
0.0
  0
LINE
  5
30D
330
1F
100
AcDbEntity
  8
0
  6
Continuous
 62
     7
370
    25
100
AcDbLine
 10
3009.552081118
 20
2792.6038593719
 30
0.0
 11
3013.6088628011
 21
2794.9457895882
 31
0.0
  0
LINE
  5
30E
330
1F
100
AcDbEntity
  8
0
  6
Continuous
 62
     7
370
    25
100
AcDbLine
 10
3010.7271774013
 20
2799.9905473783
 30
0.0
 11
3006.6474467592
 21
2797.6353690099
 31
0.0
  0
LINE
  5
30F
330
1F
100
AcDbEntity
  8
0
  6
Continuous
 62
     7
370
    25
100
AcDbLine
 10
3537.7486092426
 20
2482.7999702727
 30
0.0
 11
3538.4557279935
 21
2483.2081812385
 31
0.0
  0
LINE
  5
310
330
1F
100
AcDbEntity
  8
0
  6
Continuous
 62
     7
370
    25
100
AcDbLine
 10
3533.4561423826
 20
2491.8686422309
 30
0.0
 11
3532.7490236317
 21
2491.460431265
 31
0.0
  0
LINE
  5
311
330
1F
100
AcDbEntity
  8
0
  6
Continuous
 62
     7
370
    25
100
AcDbLine
 10
3539.4868506423
 20
2485.7082889189
 30
0.0
 11
3539.8102855578
 21
2486.4049789991
 31
0.0
  0
LINE
  5
312
330
1F
100
AcDbEntity
  8
0
  6
Continuous
 62
     7
370
    25
100
AcDbLine
 10
3536.9019001294
 20
2491.4430343497
 30
0.0
 11
3536.1368294618
 21
2491.5113041631
 31
0.0
  0
LINE
  5
313
330
1F
100
AcDbEntity
  8
0
  6
Continuous
 62
     7
370
    25
100
AcDbLine
 10
3536.9787549077
 20
2491.4838122079
 30
0.0
 11
3536.8924170885
 21
2491.4498872448
 31
0.0
  0
SPLINE
  5
314
330
1F
100
AcDbEntity
  8
0
  6
Continuous
 62
     7
370
    25
100
AcDbSpline
210
0.0
220
0.0
230
1.0
 70
     8
 71
     3
 72
     9
 73
     5
 74
     0
 42
0.000000001
 43
0.00000001
 40
0.0
 40
0.0
 40
0.0
 40
0.0
 40
0.2103273931758489
 40
1.0
 40
1.0
 40
1.0
 40
1.0
 10
3539.812877588947
 20
2486.400898235783
 30
0.0
 10
3539.812001910842
 20
2486.399285425257
 30
0.0
 10
3539.807838505915
 20
2486.391617329806
 30
0.0
 10
3539.85305598506
 20
2486.421793127292
 30
0.0
 10
3539.888762989691
 20
2486.445622127957
 30
0.0
  0
LINE
  5
315
330
1F
100
AcDbEntity
  8
0
  6
Continuous
 62
     7
370
    25
100
AcDbLine
 10
3539.8821670079
 20
2486.4508174384
 30
0.0
 11
3543.938948691
 21
2488.7927476547
 31
0.0
  0
LINE
  5
316
330
1F
100
AcDbEntity
  8
0
  6
Continuous
 62
     7
370
    25
100
AcDbLine
 10
3541.0572632912
 20
2493.8375054447
 30
0.0
 11
3536.9775326491
 21
2491.4823270764
 31
0.0
  0
LINE
  5
317
330
1F
100
AcDbEntity
  8
0
  6
Continuous
 62
     7
370
    25
100
AcDbLine
 10
3457.4670709281
 20
3237.8503941723
 30
0.0
 11
3454.4583338534
 21
3236.1134872302
 31
0.0
  0
LWPOLYLINE
  5
318
330
1F
100
AcDbEntity
  8
0
  6
Continuous
 62
     7
370
    25
100
AcDbPolyline
 90
       12
 70
   128
 43
0.0
 10
3450.3960098597
 20
3241.9324308385
 10
3451.5353023952
 20
3242.4247779105
 10
3452.8687127783
 20
3242.7118881146
 10
3454.2882502463
 20
3242.7704950682
 10
3455.6788644395
 20
3242.5958603367
 10
3456.9279389786
 20
3242.2021201485
 10
3457.9342371337
 20
3241.6211965889
 10
3458.6162890464
 20
3240.900121206
 10
3458.9187980516
 20
3240.09733672
 10
3458.8172768303
 20
3239.2778551829
 10
3458.3199334811
 20
3238.5080937536
 10
3457.4670709281
 20
3237.8503941723
  0
LINE
  5
319
330
1F
100
AcDbEntity
  8
0
  6
Continuous
 62
     7
370
    25
100
AcDbLine
 10
3447.3872727851
 20
3240.1955238964
 30
0.0
 11
3450.3960098597
 21
3241.9324308385
 31
0.0
  0
LWPOLYLINE
  5
31A
330
1F
100
AcDbEntity
  8
0
  6
Continuous
 62
     7
370
    25
100
AcDbPolyline
 90
        9
 70
   128
 43
0.0
 10
3438.5555060467
 20
3235.0970534824
 10
3438.5585195464
 20
3236.1290103175
 10
3438.9584193818
 20
3237.1348053978
 10
3439.7351857998
 20
3238.0642441638
 10
3440.8500753101
 20
3238.8708972562
 10
3442.2473908522
 20
3239.5145092707
 10
3443.8574004653
 20
3239.9629269791
 10
3445.5996774257
 20
3240.1937842401
 10
3447.3872727851
 20
3240.1955238964
  0
LINE
  5
31B
330
1F
100
AcDbEntity
  8
0
  6
Continuous
 62
     7
370
    25
100
AcDbLine
 10
3435.5467689721
 20
3233.3601465403
 30
0.0
 11
3438.5555060467
 21
3235.0970534824
 31
0.0
  0
LWPOLYLINE
  5
31C
330
1F
100
AcDbEntity
  8
0
  6
Continuous
 62
     7
370
    25
100
AcDbPolyline
 90
       12
 70
   128
 43
0.0
 10
3442.6178300405
 20
3229.2781098741
 10
3441.4785375049
 20
3228.7857628021
 10
3440.1451271219
 20
3228.498652598
 10
3438.7255896539
 20
3228.4400456444
 10
3437.3349754607
 20
3228.6146803759
 10
3436.0859009215
 20
3229.0084205641
 10
3435.0796027665
 20
3229.5893441237
 10
3434.3975508537
 20
3230.3104195067
 10
3434.0950418485
 20
3231.1132039926
 10
3434.1965630699
 20
3231.9326855297
 10
3434.693906419
 20
3232.702446959
 10
3435.5467689721
 20
3233.3601465403
  0
LINE
  5
31D
330
1F
100
AcDbEntity
  8
0
  6
Continuous
 62
     7
370
    25
100
AcDbLine
 10
3445.6265671151
 20
3231.0150168162
 30
0.0
 11
3442.6178300405
 21
3229.2781098741
 31
0.0
  0
LWPOLYLINE
  5
31E
330
1F
100
AcDbEntity
  8
0
  6
Continuous
 62
     7
370
    25
100
AcDbPolyline
 90
        9
 70
   128
 43
0.0
 10
3454.4583338534
 20
3236.1134872302
 10
3454.4553203538
 20
3235.0815303951
 10
3454.0554205184
 20
3234.0757353148
 10
3453.2786541003
 20
3233.1462965488
 10
3452.1637645901
 20
3232.3396434564
 10
3450.766449048
 20
3231.6960314419
 10
3449.1564394349
 20
3231.2476137335
 10
3447.4141624744
 20
3231.0167564725
 10
3445.6265671151
 20
3231.0150168162
  0
LWPOLYLINE
  5
31F
330
1F
100
AcDbEntity
  8
0
  6
Continuous
 62
     7
370
    25
100
AcDbPolyline
 90
       12
 70
   128
 43
0.0
 10
3166.139076742
 20
3069.6703229422
 10
3166.9919392951
 20
3070.3280225234
 10
3167.4892826442
 20
3071.0977839527
 10
3167.5908038656
 20
3071.9172654898
 10
3167.2882948604
 20
3072.7200499758
 10
3166.6062429477
 20
3073.4411253588
 10
3165.5999447926
 20
3074.0220489184
 10
3164.3508702534
 20
3074.4157891066
 10
3162.9602560602
 20
3074.5904238381
 10
3161.5407185923
 20
3074.5318168845
 10
3160.2073082092
 20
3074.2447066803
 10
3159.0680156737
 20
3073.7523596084
  0
LINE
  5
320
330
1F
100
AcDbEntity
  8
0
  6
Continuous
 62
     7
370
    25
100
AcDbLine
 10
3159.0680156737
 20
3073.7523596084
 30
0.0
 11
3156.059278599
 21
3072.0154526663
 31
0.0
  0
LWPOLYLINE
  5
321
330
1F
100
AcDbEntity
  8
0
  6
Continuous
 62
     7
370
    25
100
AcDbPolyline
 90
        9
 70
   128
 43
0.0
 10
3156.059278599
 20
3072.0154526663
 10
3154.2716832397
 20
3072.01371301
 10
3152.5294062793
 20
3071.7828557489
 10
3150.9193966661
 20
3071.3344380406
 10
3149.522081124
 20
3070.690826026
 10
3148.4071916138
 20
3069.8841729337
 10
3147.6304251957
 20
3068.9547341677
 10
3147.2305253604
 20
3067.9489390874
 10
3147.2275118607
 20
3066.9169822522
  0
LINE
  5
322
330
1F
100
AcDbEntity
  8
0
  6
Continuous
 62
     7
370
    25
100
AcDbLine
 10
3147.2275118607
 20
3066.9169822522
 30
0.0
 11
3144.218774786
 21
3065.1800753102
 31
0.0
  0
LWPOLYLINE
  5
323
330
1F
100
AcDbEntity
  8
0
  6
Continuous
 62
     7
370
    25
100
AcDbPolyline
 90
       12
 70
   128
 43
0.0
 10
3144.218774786
 20
3065.1800753102
 10
3143.365912233
 20
3064.5223757289
 10
3142.8685688839
 20
3063.7526142996
 10
3142.7670476625
 20
3062.9331327625
 10
3143.0695566677
 20
3062.1303482765
 10
3143.7516085804
 20
3061.4092728936
 10
3144.7579067355
 20
3060.828349334
 10
3146.0069812747
 20
3060.4346091457
 10
3147.3975954679
 20
3060.2599744143
 10
3148.8171329358
 20
3060.3185813679
 10
3150.1505433189
 20
3060.605691572
 10
3151.2898358544
 20
3061.098038644
  0
LINE
  5
324
330
1F
100
AcDbEntity
  8
0
  6
Continuous
 62
     7
370
    25
100
AcDbLine
 10
3151.2898358544
 20
3061.098038644
 30
0.0
 11
3154.2985729291
 21
3062.8349455861
 31
0.0
  0
LWPOLYLINE
  5
325
330
1F
100
AcDbEntity
  8
0
  6
Continuous
 62
     7
370
    25
100
AcDbPolyline
 90
        9
 70
   128
 43
0.0
 10
3154.2985729291
 20
3062.8349455861
 10
3156.0861682884
 20
3062.8366852424
 10
3157.8284452488
 20
3063.0675425034
 10
3159.438454862
 20
3063.5159602117
 10
3160.8357704041
 20
3064.1595722263
 10
3161.9506599143
 20
3064.9662253187
 10
3162.7274263323
 20
3065.8956640847
 10
3163.1273261677
 20
3066.901459165
 10
3163.1303396674
 20
3067.9334160001
  0
LINE
  5
326
330
1F
100
AcDbEntity
  8
0
  6
Continuous
 62
     7
370
    25
100
AcDbLine
 10
3163.1303396674
 20
3067.9334160001
 30
0.0
 11
3166.139076742
 21
3069.6703229422
 31
0.0
  0
LINE
  5
327
330
1F
100
AcDbEntity
  8
0
  6
Continuous
 62
     7
370
    25
100
AcDbLine
 10
3790.1608120496
 20
3143.3511518809
 30
0.0
 11
3314.9850614986
 21
2869.0380300067
 31
0.0
  0
ARC
  5
328
330
1F
100
AcDbEntity
  8
0
  6
Continuous
 62
     7
370
    25
100
AcDbCircle
 10
3300.8429178975
 20
2896.1949382167
 30
0.0
 40
30.61858731486486
100
AcDbArc
 50
242.49146536
 51
297.5085514863
  0
LINE
  5
329
330
1F
100
AcDbEntity
  8
0
  6
Continuous
 62
     7
370
    25
100
AcDbLine
 10
3286.7007822811
 20
2869.0380258486
 30
0.0
 11
2811.5250290959
 21
3143.3511492435
 31
0.0
  0
LWPOLYLINE
  5
32A
330
1F
100
AcDbEntity
  8
0
  6
Continuous
 62
     7
370
    25
100
AcDbPolyline
 90
       12
 70
   128
 43
0.0
 10
2811.5250290959
 20
3143.3511492435
 10
2809.6563432
 20
3144.5961227382
 10
2808.1135788837
 20
3145.9819475684
 10
2806.9281776959
 20
3147.4803999391
 10
2806.1242265606
 20
3149.061005451
 10
2805.7181206017
 20
3150.6915743793
 10
2805.7180995283
 20
3152.3389072686
 10
2806.1242265606
 20
3153.9694640315
 10
2806.9281776959
 20
3155.5500695434
 10
2808.1135999571
 20
3157.0485097487
 10
2809.6563432
 20
3158.4343467443
 10
2811.5250501693
 20
3159.6793080736
  0
LINE
  5
32B
330
1F
100
AcDbEntity
  8
0
  6
Continuous
 62
     7
370
    25
100
AcDbLine
 10
2811.5250501693
 20
3159.6793080736
 30
0.0
 11
3286.7008007203
 21
3433.9924299477
 31
0.0
  0
ARC
  5
32C
330
1F
100
AcDbEntity
  8
0
  6
Continuous
 62
     7
370
    25
100
AcDbCircle
 10
3300.8429450743
 20
3406.8356408922
 30
0.0
 40
30.61848197961734
100
AcDbArc
 50
62.4913935654
 51
117.5086557219
  0
LINE
  5
32D
330
1F
100
AcDbEntity
  8
0
  6
Continuous
 62
     7
370
    25
100
AcDbLine
 10
3314.9850660672
 20
3433.9924421132
 30
0.0
 11
3790.1608192524
 21
3159.6793187183
 31
0.0
  0
LWPOLYLINE
  5
32E
330
1F
100
AcDbEntity
  8
0
  6
Continuous
 62
     7
370
    25
100
AcDbPolyline
 90
       12
 70
   128
 43
0.0
 10
3790.1608192524
 20
3159.6793187183
 10
3792.0295025141
 20
3158.4343467443
 10
3793.5722595864
 20
3157.048526096
 10
3794.7576772379
 20
3155.550064221
 10
3795.5616204707
 20
3153.9694632711
 10
3795.967719844
 20
3152.3388981445
 10
3795.967727088
 20
3150.6915732388
 10
3795.5616156962
 20
3149.0610074469
 10
3794.7576647255
 20
3147.4804018399
 10
3793.5722664188
 20
3145.981947806
 10
3792.0295039547
 20
3144.5961219065
 10
3790.1608120496
 20
3143.3511518809
  0
ARC
  5
32F
330
1F
100
AcDbEntity
  8
0
  6
Continuous
 62
     7
370
    25
100
AcDbCircle
 10
3300.9498290361
 20
2894.3367591074
 30
0.0
 40
31.19306858787582
100
AcDbArc
 50
242.819081182
 51
289.5779169356
  0
LINE
  5
330
330
1F
100
AcDbEntity
  8
0
  6
Continuous
 62
     7
370
    25
100
AcDbLine
 10
3286.7007822811
 20
2866.5883862813
 30
0.0
 11
2811.5250290959
 21
3140.9015096761
 31
0.0
  0
LWPOLYLINE
  5
331
330
1F
100
AcDbEntity
  8
0
  6
Continuous
 62
     7
370
    25
100
AcDbPolyline
 90
        3
 70
   128
 43
0.0
 10
3144.218774786
 20
3062.7304357428
 10
3143.365912233
 20
3062.0727361616
 10
3143.2267644126
 20
3061.9142327888
  0
LINE
  5
332
330
1F
100
AcDbEntity
  8
0
  6
Continuous
 62
     7
370
    25
100
AcDbLine
 10
3163.1303396674
 20
3066.9169508812
 30
0.0
 11
3163.1303396674
 21
3067.9334160001
 31
0.0
  0
LINE
  5
333
330
1F
100
AcDbEntity
  8
0
  6
Continuous
 62
     7
370
    25
100
AcDbLine
 10
3147.2275118607
 20
3064.4673426849
 30
0.0
 11
3147.2275118607
 21
3066.9169822522
 31
0.0
  0
LINE
  5
334
330
1F
100
AcDbEntity
  8
0
  6
Continuous
 62
     7
370
    25
100
AcDbLine
 10
3147.2275118607
 20
3064.4673426849
 30
0.0
 11
3144.218774786
 21
3062.7304357428
 31
0.0
  0
LINE
  5
335
330
1F
100
AcDbEntity
  8
0
  6
Continuous
 62
     7
370
    25
100
AcDbLine
 10
3156.059278599
 20
3069.5658130989
 30
0.0
 11
3156.059278599
 21
3072.0154526663
 31
0.0
  0
LWPOLYLINE
  5
336
330
1F
100
AcDbEntity
  8
0
  6
Continuous
 62
     7
370
    25
100
AcDbPolyline
 90
        9
 70
   128
 43
0.0
 10
3156.059278599
 20
3069.5658130989
 10
3154.2716832397
 20
3069.5640734426
 10
3152.5294062793
 20
3069.3332161816
 10
3150.9193966661
 20
3068.8847984733
 10
3149.522081124
 20
3068.2411864587
 10
3148.4071916138
 20
3067.4345333663
 10
3147.6304251957
 20
3066.5050946003
 10
3147.2305253604
 20
3065.49929952
 10
3147.2275223974
 20
3065.48377035
  0
ARC
  5
337
330
1F
100
AcDbEntity
  8
0
  6
Continuous
 62
     7
370
    25
100
AcDbCircle
 10
3162.5191621147
 20
3065.1611925603
 30
0.0
 40
7.044769091531918
100
AcDbArc
 50
49.1062769939
 51
119.3332073484
  0
LINE
  5
338
330
1F
100
AcDbEntity
  8
0
  6
Continuous
 62
     7
370
    25
100
AcDbLine
 10
3159.0680156737
 20
3071.302720041
 30
0.0
 11
3156.059278599
 21
3069.5658130989
 31
0.0
  0
ARC
  5
339
330
1F
100
AcDbEntity
  8
0
  6
Continuous
 62
     7
370
    25
100
AcDbCircle
 10
3788.3688312807
 20
3149.2272003322
 30
0.0
 40
7.651545085363129
100
AcDbArc
 50
322.641564496
 51
358.7897465468
  0
LWPOLYLINE
  5
33A
330
1F
100
AcDbEntity
  8
0
  6
Continuous
 62
     7
370
    25
100
AcDbPolyline
 90
        7
 70
   128
 43
0.0
 10
2811.5250290959
 20
3140.9015096761
 10
2809.6563432
 20
3142.1464831708
 10
2808.1135788837
 20
3143.532308001
 10
2806.9281776959
 20
3145.0307603717
 10
2806.1242265606
 20
3146.6113658836
 10
2805.7181206017
 20
3148.2419348119
 10
2805.6671650619
 20
3149.0656073393
  0
LWPOLYLINE
  5
33B
330
1F
100
AcDbEntity
  8
0
  6
Continuous
 62
     7
370
    25
100
AcDbPolyline
 90
        3
 70
   128
 43
0.0
 10
3434.5547585987
 20
3230.0943040189
 10
3434.693906419
 20
3230.2528073917
 10
3435.5467689721
 20
3230.9105069729
  0
LINE
  5
33C
330
1F
100
AcDbEntity
  8
0
  6
Continuous
 62
     7
370
    25
100
AcDbLine
 10
3454.4583338534
 20
3235.0970221113
 30
0.0
 11
3454.4583338534
 21
3236.1134872302
 31
0.0
  0
LINE
  5
33D
330
1F
100
AcDbEntity
  8
0
  6
Continuous
 62
     7
370
    25
100
AcDbLine
 10
3438.5555060467
 20
3232.647413915
 30
0.0
 11
3438.5555060467
 21
3235.0970534824
 31
0.0
  0
LINE
  5
33E
330
1F
100
AcDbEntity
  8
0
  6
Continuous
 62
     7
370
    25
100
AcDbLine
 10
3435.5467689721
 20
3230.9105069729
 30
0.0
 11
3438.5555060467
 21
3232.647413915
 31
0.0
  0
LINE
  5
33F
330
1F
100
AcDbEntity
  8
0
  6
Continuous
 62
     7
370
    25
100
AcDbLine
 10
3447.3872727851
 20
3237.745884329
 30
0.0
 11
3447.3872727851
 21
3240.1955238964
 31
0.0
  0
LWPOLYLINE
  5
340
330
1F
100
AcDbEntity
  8
0
  6
Continuous
 62
     7
370
    25
100
AcDbPolyline
 90
        9
 70
   128
 43
0.0
 10
3438.5555165834
 20
3233.6638415802
 10
3438.5585195464
 20
3233.6793707501
 10
3438.9584193818
 20
3234.6851658304
 10
3439.7351857998
 20
3235.6146045964
 10
3440.8500753101
 20
3236.4212576888
 10
3442.2473908522
 20
3237.0648697034
 10
3443.8574004653
 20
3237.5132874117
 10
3445.5996774257
 20
3237.7441446727
 10
3447.3872727851
 20
3237.745884329
  0
LWPOLYLINE
  5
341
330
1F
100
AcDbEntity
  8
0
  6
Continuous
 62
     7
370
    25
100
AcDbPolyline
 90
        8
 70
   128
 43
0.0
 10
3450.3960098597
 20
3239.4827912711
 10
3451.5353023952
 20
3239.9751383431
 10
3452.8687127783
 20
3240.2622485473
 10
3454.2882502463
 20
3240.3208555009
 10
3455.6788644395
 20
3240.1462207694
 10
3456.9279389786
 20
3239.7524805811
 10
3457.9342371337
 20
3239.1715570215
 10
3458.4590707648
 20
3238.6665822344
  0
LINE
  5
342
330
1F
100
AcDbEntity
  8
0
  6
Continuous
 62
     7
370
    25
100
AcDbLine
 10
3447.3872727851
 20
3237.745884329
 30
0.0
 11
3450.3960098597
 21
3239.4827912711
 31
0.0
  0
LINE
  5
343
330
1F
100
AcDbEntity
  8
0
  6
Continuous
 62
     7
370
    25
100
AcDbLine
 10
3961.6342055769
 20
2946.8009025022
 30
0.0
 11
3958.6254685023
 21
2945.0639955601
 31
0.0
  0
LWPOLYLINE
  5
344
330
1F
100
AcDbEntity
  8
0
  6
Continuous
 62
     7
370
    25
100
AcDbPolyline
 90
       12
 70
   128
 43
0.0
 10
3954.5631445085
 20
2950.8829391684
 10
3955.7024370441
 20
2951.3752862403
 10
3957.0358474271
 20
2951.6623964445
 10
3958.4553848951
 20
2951.7210033981
 10
3959.8459990883
 20
2951.5463686666
 10
3961.0950736275
 20
2951.1526284783
 10
3962.1013717825
 20
2950.5717049187
 10
3962.7834236953
 20
2949.8506295358
 10
3963.0859327004
 20
2949.0478450498
 10
3962.9844114791
 20
2948.2283635127
 10
3962.48706813
 20
2947.4586020834
 10
3961.6342055769
 20
2946.8009025022
  0
LINE
  5
345
330
1F
100
AcDbEntity
  8
0
  6
Continuous
 62
     7
370
    25
100
AcDbLine
 10
3951.5544074339
 20
2949.1460322263
 30
0.0
 11
3954.5631445085
 21
2950.8829391684
 31
0.0
  0
LWPOLYLINE
  5
346
330
1F
100
AcDbEntity
  8
0
  6
Continuous
 62
     7
370
    25
100
AcDbPolyline
 90
        9
 70
   128
 43
0.0
 10
3942.7226406956
 20
2944.0475618122
 10
3942.7256541952
 20
2945.0795186473
 10
3943.1255540306
 20
2946.0853137276
 10
3943.9023204487
 20
2947.0147524936
 10
3945.0172099589
 20
2947.821405586
 10
3946.414525501
 20
2948.4650176006
 10
3948.0245351141
 20
2948.9134353089
 10
3949.7668120746
 20
2949.1442925699
 10
3951.5544074339
 20
2949.1460322263
  0
LINE
  5
347
330
1F
100
AcDbEntity
  8
0
  6
Continuous
 62
     7
370
    25
100
AcDbLine
 10
3939.7139036209
 20
2942.3106548701
 30
0.0
 11
3942.7226406956
 21
2944.0475618122
 31
0.0
  0
LWPOLYLINE
  5
348
330
1F
100
AcDbEntity
  8
0
  6
Continuous
 62
     7
370
    25
100
AcDbPolyline
 90
       12
 70
   128
 43
0.0
 10
3946.7849646893
 20
2938.2286182039
 10
3945.6456721538
 20
2937.736271132
 10
3944.3122617707
 20
2937.4491609278
 10
3942.8927243027
 20
2937.3905539742
 10
3941.5021101095
 20
2937.5651887057
 10
3940.2530355704
 20
2937.9589288939
 10
3939.2467374153
 20
2938.5398524536
 10
3938.5646855026
 20
2939.2609278365
 10
3938.2621764974
 20
2940.0637123225
 10
3938.3636977187
 20
2940.8831938596
 10
3938.8610410679
 20
2941.6529552889
 10
3939.7139036209
 20
2942.3106548701
  0
LINE
  5
349
330
1F
100
AcDbEntity
  8
0
  6
Continuous
 62
     7
370
    25
100
AcDbLine
 10
3949.7937017639
 20
2939.965525146
 30
0.0
 11
3946.7849646893
 21
2938.2286182039
 31
0.0
  0
LWPOLYLINE
  5
34A
330
1F
100
AcDbEntity
  8
0
  6
Continuous
 62
     7
370
    25
100
AcDbPolyline
 90
        9
 70
   128
 43
0.0
 10
3958.6254685023
 20
2945.0639955601
 10
3958.6224550026
 20
2944.032038725
 10
3958.2225551672
 20
2943.0262436446
 10
3957.4457887492
 20
2942.0968048787
 10
3956.3308992389
 20
2941.2901517863
 10
3954.9335836968
 20
2940.6465397717
 10
3953.3235740837
 20
2940.1981220634
 10
3951.5812971232
 20
2939.9672648024
 10
3949.7937017639
 20
2939.965525146
  0
LWPOLYLINE
  5
34B
330
1F
100
AcDbEntity
  8
0
  6
Continuous
 62
     7
370
    25
100
AcDbPolyline
 90
       12
 70
   128
 43
0.0
 10
3670.3062113909
 20
2778.6208312721
 10
3671.1590739439
 20
2779.2785308533
 10
3671.6564172931
 20
2780.0482922826
 10
3671.7579385144
 20
2780.8677738197
 10
3671.4554295092
 20
2781.6705583057
 10
3670.7733775965
 20
2782.3916336886
 10
3669.7670794414
 20
2782.9725572482
 10
3668.5180049023
 20
2783.3662974365
 10
3667.1273907091
 20
2783.5409321679
 10
3665.7078532411
 20
2783.4823252143
 10
3664.374442858
 20
2783.1952150102
 10
3663.2351503225
 20
2782.7028679382
  0
LINE
  5
34C
330
1F
100
AcDbEntity
  8
0
  6
Continuous
 62
     7
370
    25
100
AcDbLine
 10
3663.2351503225
 20
2782.7028679382
 30
0.0
 11
3660.2264132479
 21
2780.9659609961
 31
0.0
  0
LWPOLYLINE
  5
34D
330
1F
100
AcDbEntity
  8
0
  6
Continuous
 62
     7
370
    25
100
AcDbPolyline
 90
        9
 70
   128
 43
0.0
 10
3660.2264132479
 20
2780.9659609961
 10
3658.4388178885
 20
2780.9642213398
 10
3656.6965409281
 20
2780.7333640788
 10
3655.086531315
 20
2780.2849463705
 10
3653.6892157729
 20
2779.6413343559
 10
3652.5743262626
 20
2778.8346812635
 10
3651.7975598446
 20
2777.9052424975
 10
3651.3976600092
 20
2776.8994474172
 10
3651.3946465095
 20
2775.8674905821
  0
LINE
  5
34E
330
1F
100
AcDbEntity
  8
0
  6
Continuous
 62
     7
370
    25
100
AcDbLine
 10
3651.3946465095
 20
2775.8674905821
 30
0.0
 11
3648.3859094349
 21
2774.13058364
 31
0.0
  0
LWPOLYLINE
  5
34F
330
1F
100
AcDbEntity
  8
0
  6
Continuous
 62
     7
370
    25
100
AcDbPolyline
 90
       12
 70
   128
 43
0.0
 10
3648.3859094349
 20
2774.13058364
 10
3647.5330468818
 20
2773.4728840588
 10
3647.0357035327
 20
2772.7031226295
 10
3646.9341823113
 20
2771.8836410924
 10
3647.2366913165
 20
2771.0808566064
 10
3647.9187432293
 20
2770.3597812234
 10
3648.9250413843
 20
2769.7788576638
 10
3650.1741159235
 20
2769.3851174756
 10
3651.5647301167
 20
2769.2104827441
 10
3652.9842675847
 20
2769.2690896977
 10
3654.3176779677
 20
2769.5561999019
 10
3655.4569705032
 20
2770.0485469738
  0
LINE
  5
350
330
1F
100
AcDbEntity
  8
0
  6
Continuous
 62
     7
370
    25
100
AcDbLine
 10
3655.4569705032
 20
2770.0485469738
 30
0.0
 11
3658.4657075779
 21
2771.7854539159
 31
0.0
  0
LWPOLYLINE
  5
351
330
1F
100
AcDbEntity
  8
0
  6
Continuous
 62
     7
370
    25
100
AcDbPolyline
 90
        9
 70
   128
 43
0.0
 10
3658.4657075779
 20
2771.7854539159
 10
3660.2533029372
 20
2771.7871935722
 10
3661.9955798977
 20
2772.0180508333
 10
3663.6055895108
 20
2772.4664685416
 10
3665.0029050529
 20
2773.1100805562
 10
3666.1177945631
 20
2773.9167336485
 10
3666.8945609812
 20
2774.8461724145
 10
3667.2944608166
 20
2775.8519674948
 10
3667.2974743162
 20
2776.88392433
  0
LINE
  5
352
330
1F
100
AcDbEntity
  8
0
  6
Continuous
 62
     7
370
    25
100
AcDbLine
 10
3667.2974743162
 20
2776.88392433
 30
0.0
 11
3670.3062113909
 21
2778.6208312721
 31
0.0
  0
LINE
  5
353
330
1F
100
AcDbEntity
  8
0
  6
Continuous
 62
     7
370
    25
100
AcDbLine
 10
4294.3279301937
 20
2852.3016697387
 30
0.0
 11
3819.1521796426
 21
2577.9885478646
 31
0.0
  0
ARC
  5
354
330
1F
100
AcDbEntity
  8
0
  6
Continuous
 62
     7
370
    25
100
AcDbCircle
 10
3805.0100352887
 20
2605.1453369202
 30
0.0
 40
30.61848197961755
100
AcDbArc
 50
242.4913935654
 51
297.5086557219
  0
LINE
  5
355
330
1F
100
AcDbEntity
  8
0
  6
Continuous
 62
     7
370
    25
100
AcDbLine
 10
3790.8679142957
 20
2577.9885356992
 30
0.0
 11
3315.6921611105
 21
2852.301659094
 31
0.0
  0
LWPOLYLINE
  5
356
330
1F
100
AcDbEntity
  8
0
  6
Continuous
 62
     7
370
    25
100
AcDbPolyline
 90
       12
 70
   128
 43
0.0
 10
3315.6921611105
 20
2852.301659094
 10
3313.8234778488
 20
2853.546631068
 10
3312.2807207765
 20
2854.9324517164
 10
3311.0953031251
 20
2856.4309135913
 10
3310.2913598923
 20
2858.0115145412
 10
3309.8852605189
 20
2859.6420796678
 10
3309.8852532749
 20
2861.2894045735
 10
3310.2913646667
 20
2862.9199703654
 10
3311.0953156375
 20
2864.5005759724
 10
3312.2807139441
 20
2865.9990300064
 10
3313.8234764083
 20
2867.3848559058
 10
3315.6921683133
 20
2868.6298259314
  0
LINE
  5
357
330
1F
100
AcDbEntity
  8
0
  6
Continuous
 62
     7
370
    25
100
AcDbLine
 10
3315.6921683133
 20
2868.6298259314
 30
0.0
 11
3790.8679188644
 21
3142.9429478056
 31
0.0
  0
ARC
  5
358
330
1F
100
AcDbEntity
  8
0
  6
Continuous
 62
     7
370
    25
100
AcDbCircle
 10
3805.0100624655
 20
3115.7860395956
 30
0.0
 40
30.61858731486728
100
AcDbArc
 50
62.49146536
 51
117.5085514863
  0
LINE
  5
359
330
1F
100
AcDbEntity
  8
0
  6
Continuous
 62
     7
370
    25
100
AcDbLine
 10
3819.1521980819
 20
3142.9429519637
 30
0.0
 11
4294.3279512671
 21
2868.6298285689
 31
0.0
  0
LWPOLYLINE
  5
35A
330
1F
100
AcDbEntity
  8
0
  6
Continuous
 62
     7
370
    25
100
AcDbPolyline
 90
       12
 70
   128
 43
0.0
 10
4294.3279512671
 20
2868.6298285689
 10
4296.1966371629
 20
2867.3848550742
 10
4297.7394014793
 20
2865.999030244
 10
4298.9248026671
 20
2864.5005778732
 10
4299.7287538024
 20
2862.9199723613
 10
4300.1348597612
 20
2861.289403433
 10
4300.1348808347
 20
2859.6420705437
 10
4299.7287538024
 20
2858.0115137809
 10
4298.9248026671
 20
2856.4309082689
 10
4297.7393804058
 20
2854.9324680636
 10
4296.1966371629
 20
2853.546631068
 10
4294.3279301937
 20
2852.3016697387
  0
ARC
  5
35B
330
1F
100
AcDbEntity
  8
0
  6
Continuous
 62
     7
370
    25
100
AcDbCircle
 10
3805.0100352887
 20
2602.6956973528
 30
0.0
 40
30.61848197961743
100
AcDbArc
 50
242.4913935654
 51
297.5086557219
  0
LINE
  5
35C
330
1F
100
AcDbEntity
  8
0
  6
Continuous
 62
     7
370
    25
100
AcDbLine
 10
4294.3279301937
 20
2849.8520301714
 30
0.0
 11
3819.1521796426
 21
2575.5389082972
 31
0.0
  0
LINE
  5
35D
330
1F
100
AcDbEntity
  8
0
  6
Continuous
 62
     7
370
    25
100
AcDbLine
 10
3790.8679142957
 20
2575.5388961318
 30
0.0
 11
3315.6921611105
 21
2849.8520195266
 31
0.0
  0
LWPOLYLINE
  5
35E
330
1F
100
AcDbEntity
  8
0
  6
Continuous
 62
     7
370
    25
100
AcDbPolyline
 90
        3
 70
   128
 43
0.0
 10
3648.3859094349
 20
2771.6809440726
 10
3647.5330468818
 20
2771.0232444914
 10
3647.3938990615
 20
2770.8647411186
  0
LINE
  5
35F
330
1F
100
AcDbEntity
  8
0
  6
Continuous
 62
     7
370
    25
100
AcDbLine
 10
3667.2974743162
 20
2775.8674592111
 30
0.0
 11
3667.2974743162
 21
2776.88392433
 31
0.0
  0
LINE
  5
360
330
1F
100
AcDbEntity
  8
0
  6
Continuous
 62
     7
370
    25
100
AcDbLine
 10
3651.3946465095
 20
2773.4178510147
 30
0.0
 11
3651.3946465095
 21
2775.8674905821
 31
0.0
  0
LINE
  5
361
330
1F
100
AcDbEntity
  8
0
  6
Continuous
 62
     7
370
    25
100
AcDbLine
 10
3651.3946465095
 20
2773.4178510147
 30
0.0
 11
3648.3859094349
 21
2771.6809440726
 31
0.0
  0
LINE
  5
362
330
1F
100
AcDbEntity
  8
0
  6
Continuous
 62
     7
370
    25
100
AcDbLine
 10
3660.2264132479
 20
2778.5163214288
 30
0.0
 11
3660.2264132479
 21
2780.9659609961
 31
0.0
  0
LWPOLYLINE
  5
363
330
1F
100
AcDbEntity
  8
0
  6
Continuous
 62
     7
370
    25
100
AcDbPolyline
 90
        9
 70
   128
 43
0.0
 10
3660.2264132479
 20
2778.5163214288
 10
3658.4388178885
 20
2778.5145817724
 10
3656.6965409281
 20
2778.2837245114
 10
3655.086531315
 20
2777.8353068031
 10
3653.6892157729
 20
2777.1916947885
 10
3652.5743262626
 20
2776.3850416962
 10
3651.7975598446
 20
2775.4556029302
 10
3651.3976600092
 20
2774.4498078498
 10
3651.3946570462
 20
2774.4342786799
  0
ARC
  5
364
330
1F
100
AcDbEntity
  8
0
  6
Continuous
 62
     7
370
    25
100
AcDbCircle
 10
3666.6862967635
 20
2774.1117008902
 30
0.0
 40
7.044769091533637
100
AcDbArc
 50
49.1062769939
 51
119.3332073483
  0
LINE
  5
365
330
1F
100
AcDbEntity
  8
0
  6
Continuous
 62
     7
370
    25
100
AcDbLine
 10
3663.2351503225
 20
2780.2532283709
 30
0.0
 11
3660.2264132479
 21
2778.5163214288
 31
0.0
  0
LWPOLYLINE
  5
366
330
1F
100
AcDbEntity
  8
0
  6
Continuous
 62
     7
370
    25
100
AcDbPolyline
 90
        7
 70
   128
 43
0.0
 10
4300.1858153011
 20
2858.0160913383
 10
4300.1348808347
 20
2857.1924309764
 10
4299.7287538024
 20
2855.5618742135
 10
4298.9248026671
 20
2853.9812687016
 10
4297.7393804058
 20
2852.4828284963
 10
4296.1966371629
 20
2851.0969915006
 10
4294.3279301937
 20
2849.8520301714
  0
LWPOLYLINE
  5
367
330
1F
100
AcDbEntity
  8
0
  6
Continuous
 62
     7
370
    25
100
AcDbPolyline
 90
        7
 70
   128
 43
0.0
 10
3315.6921611105
 20
2849.8520195266
 10
3313.8234778488
 20
2851.0969915006
 10
3312.2807207765
 20
2852.482812149
 10
3311.0953031251
 20
2853.981274024
 10
3310.2913598923
 20
2855.5618749738
 10
3309.8852605189
 20
2857.1924401004
 10
3309.834310906
 20
2858.0161092063
  0
LWPOLYLINE
  5
368
330
1F
100
AcDbEntity
  8
0
  6
Continuous
 62
     7
370
    25
100
AcDbPolyline
 90
        3
 70
   128
 43
0.0
 10
3938.7218932475
 20
2939.0448123487
 10
3938.8610410679
 20
2939.2033157215
 10
3939.7139036209
 20
2939.8610153028
  0
LINE
  5
369
330
1F
100
AcDbEntity
  8
0
  6
Continuous
 62
     7
370
    25
100
AcDbLine
 10
3958.6254685023
 20
2944.0475304412
 30
0.0
 11
3958.6254685023
 21
2945.0639955601
 31
0.0
  0
LINE
  5
36A
330
1F
100
AcDbEntity
  8
0
  6
Continuous
 62
     7
370
    25
100
AcDbLine
 10
3942.7226406956
 20
2941.5979222448
 30
0.0
 11
3942.7226406956
 21
2944.0475618122
 31
0.0
  0
LINE
  5
36B
330
1F
100
AcDbEntity
  8
0
  6
Continuous
 62
     7
370
    25
100
AcDbLine
 10
3939.7139036209
 20
2939.8610153028
 30
0.0
 11
3942.7226406956
 21
2941.5979222448
 31
0.0
  0
LINE
  5
36C
330
1F
100
AcDbEntity
  8
0
  6
Continuous
 62
     7
370
    25
100
AcDbLine
 10
3951.5544074339
 20
2946.6963926589
 30
0.0
 11
3951.5544074339
 21
2949.1460322263
 31
0.0
  0
LWPOLYLINE
  5
36D
330
1F
100
AcDbEntity
  8
0
  6
Continuous
 62
     7
370
    25
100
AcDbPolyline
 90
        9
 70
   128
 43
0.0
 10
3942.7226512323
 20
2942.61434991
 10
3942.7256541952
 20
2942.62987908
 10
3943.1255540306
 20
2943.6356741603
 10
3943.9023204487
 20
2944.5651129263
 10
3945.0172099589
 20
2945.3717660186
 10
3946.414525501
 20
2946.0153780332
 10
3948.0245351141
 20
2946.4637957415
 10
3949.7668120746
 20
2946.6946530026
 10
3951.5544074339
 20
2946.6963926589
  0
LWPOLYLINE
  5
36E
330
1F
100
AcDbEntity
  8
0
  6
Continuous
 62
     7
370
    25
100
AcDbPolyline
 90
        8
 70
   128
 43
0.0
 10
3954.5631445085
 20
2948.433299601
 10
3955.7024370441
 20
2948.925646673
 10
3957.0358474271
 20
2949.2127568771
 10
3958.4553848951
 20
2949.2713638307
 10
3959.8459990883
 20
2949.0967290992
 10
3961.0950736275
 20
2948.702988911
 10
3962.1013717825
 20
2948.1220653514
 10
3962.6262054136
 20
2947.6170905642
  0
LINE
  5
36F
330
1F
100
AcDbEntity
  8
0
  6
Continuous
 62
     7
370
    25
100
AcDbLine
 10
3951.5544074339
 20
2946.6963926589
 30
0.0
 11
3954.5631445085
 21
2948.433299601
 31
0.0
  0
LINE
  5
370
330
1F
100
AcDbEntity
  8
0
  6
Continuous
 62
     7
370
    25
100
AcDbLine
 10
3800.4138593821
 20
1764.9247364485
 30
0.0
 11
2739.7536876023
 21
2377.2308203156
 31
0.0
  0
LINE
  5
371
330
1F
100
AcDbEntity
  8
0
  6
Continuous
 62
     7
370
    25
100
AcDbLine
 10
2739.7536876023
 20
2377.2308203156
 30
0.0
 11
2746.825907709
 21
2381.3135260803
 31
0.0
  0
LINE
  5
372
330
1F
100
AcDbEntity
  8
0
  6
Continuous
 62
     7
370
    25
100
AcDbLine
 10
4366.0992927607
 20
2091.4879860438
 30
0.0
 11
4359.0270937274
 21
2095.5706796431
 31
0.0
  0
LINE
  5
373
330
1F
100
AcDbEntity
  8
0
  6
Continuous
 62
     7
370
    25
100
AcDbLine
 10
4366.0992927607
 20
2091.4879860438
 30
0.0
 11
3800.4138593821
 21
1764.9247364485
 31
0.0
  0
LINE
  5
374
330
1F
100
AcDbEntity
  8
0
  6
Continuous
 62
     7
370
    25
100
AcDbLine
 10
3800.4138593821
 20
1728.1803984536
 30
0.0
 11
2739.7536876023
 21
2340.4864823206
 31
0.0
  0
LINE
  5
375
330
1F
100
AcDbEntity
  8
0
  6
Continuous
 62
     7
370
    25
100
AcDbLine
 10
2739.7536876023
 20
2340.4864823206
 30
0.0
 11
2739.7536876023
 21
2377.2308203156
 31
0.0
  0
LINE
  5
376
330
1F
100
AcDbEntity
  8
0
  6
Continuous
 62
     7
370
    25
100
AcDbLine
 10
3800.4138593821
 20
1764.9247364485
 30
0.0
 11
3800.4138593821
 21
1728.1803984536
 31
0.0
  0
LINE
  5
377
330
1F
100
AcDbEntity
  8
0
  6
Continuous
 62
     7
370
    25
100
AcDbLine
 10
3800.4138593821
 20
1728.1803984536
 30
0.0
 11
4366.0992927607
 21
2054.7436480488
 31
0.0
  0
LINE
  5
378
330
1F
100
AcDbEntity
  8
0
  6
Continuous
 62
     7
370
    25
100
AcDbLine
 10
4366.0992927607
 20
2091.4879860438
 30
0.0
 11
4366.0992927607
 21
2054.7436480488
 31
0.0
  0
LINE
  5
379
330
1F
100
AcDbEntity
  8
0
  6
Continuous
 62
     7
370
    25
100
AcDbLine
 10
3800.4138593821
 20
2423.8731807902
 30
0.0
 11
4366.0992927607
 21
2750.4364303855
 31
0.0
  0
LINE
  5
37A
330
1F
100
AcDbEntity
  8
0
  6
Continuous
 62
     7
370
    25
100
AcDbLine
 10
3800.4138593821
 20
2423.8731807902
 30
0.0
 11
3800.4138593821
 21
2505.527232777
 31
0.0
  0
LINE
  5
37B
330
1F
100
AcDbEntity
  8
0
  6
Continuous
 62
     7
370
    25
100
AcDbLine
 10
4366.0992927607
 20
2832.0904823723
 30
0.0
 11
3800.4138593821
 21
2505.527232777
 31
0.0
  0
LINE
  5
37C
330
1F
100
AcDbEntity
  8
0
  6
Continuous
 62
     7
370
    25
100
AcDbLine
 10
4366.0992927607
 20
2750.4364303855
 30
0.0
 11
4366.0992927607
 21
2832.0904823723
 31
0.0
  0
LINE
  5
37D
330
1F
100
AcDbEntity
  8
0
  6
Continuous
 62
     7
370
    25
100
AcDbLine
 10
2798.5178794427
 20
3117.8333288095
 30
0.0
 11
3800.4138804555
 21
2539.4510786371
 31
0.0
  0
LINE
  5
37E
330
1F
100
AcDbEntity
  8
0
  6
Continuous
 62
     7
370
    25
100
AcDbLine
 10
3800.4138804555
 20
2539.4510786371
 30
0.0
 11
4307.3351009203
 21
2832.0904702068
 31
0.0
  0
LINE
  5
37F
330
1F
100
AcDbEntity
  8
0
  6
Continuous
 62
     7
370
    25
100
AcDbLine
 10
3800.4138593821
 20
2505.527232777
 30
0.0
 11
2739.7536876023
 21
3117.8333166441
 31
0.0
  0
LINE
  5
380
330
1F
100
AcDbEntity
  8
0
  6
Continuous
 62
     7
370
    25
100
AcDbLine
 10
2739.7536876023
 20
3117.8333166441
 30
0.0
 11
2808.7213996595
 21
3157.6475293453
 31
0.0
  0
LINE
  5
381
330
1F
100
AcDbEntity
  8
0
  6
Continuous
 62
     7
370
    25
100
AcDbLine
 10
3290.2202522318
 20
3435.6109003186
 30
0.0
 11
3305.4391209809
 21
3444.3965662393
 31
0.0
  0
LINE
  5
382
330
1F
100
AcDbEntity
  8
0
  6
Continuous
 62
     7
370
    25
100
AcDbLine
 10
3305.4391209809
 20
3444.3965662393
 30
0.0
 11
4366.0992927607
 21
2832.0904823723
 31
0.0
  0
LINE
  5
383
330
1F
100
AcDbEntity
  8
0
  6
Continuous
 62
     7
370
    25
100
AcDbLine
 10
2739.7536876023
 20
3036.1792646573
 30
0.0
 11
3800.4138593821
 21
2423.8731807902
 31
0.0
  0
LINE
  5
384
330
1F
100
AcDbEntity
  8
0
  6
Continuous
 62
     7
370
    25
100
AcDbLine
 10
2739.7536876023
 20
3036.1792646573
 30
0.0
 11
2739.7536876023
 21
3117.8333166441
 31
0.0
  0
LINE
  5
385
330
1F
100
AcDbEntity
  8
0
  6
Continuous
 62
     7
370
    25
100
AcDbLine
 10
3800.4138804555
 20
2539.4510786371
 30
0.0
 11
3800.4138383087
 21
2570.0281514986
 31
0.0
  0
LINE
  5
386
330
1F
100
AcDbEntity
  8
0
  6
Continuous
 62
     7
370
    25
100
AcDbLine
 10
2798.5178794427
 20
3117.8333288095
 30
0.0
 11
2801.9791050829
 21
3146.4122543093
 31
0.0
  0
LINE
  5
387
330
1F
100
AcDbEntity
  8
0
  6
Continuous
 62
     7
370
    25
100
AcDbLine
 10
2801.9791050829
 20
3146.4122543093
 30
0.0
 11
3800.4138383087
 21
2570.0281514986
 31
0.0
  0
LINE
  5
388
330
1F
100
AcDbEntity
  8
0
  6
Continuous
 62
     7
370
    25
100
AcDbLine
 10
4307.3351009203
 20
2832.0904702068
 30
0.0
 11
4303.87387528
 21
2860.6694443683
 31
0.0
  0
LINE
  5
389
330
1F
100
AcDbEntity
  8
0
  6
Continuous
 62
     7
370
    25
100
AcDbLine
 10
3800.4138383087
 20
2570.0281514986
 30
0.0
 11
3804.1216651596
 21
2572.1686343782
 31
0.0
  0
LINE
  5
38A
330
1F
100
AcDbEntity
  8
0
  6
Continuous
 62
     7
370
    25
100
AcDbLine
 10
4300.1857942277
 20
2858.5403604956
 30
0.0
 11
4303.87387528
 21
2860.6694443683
 31
0.0
  0
LINE
  5
38B
330
1F
100
AcDbEntity
  8
0
  6
Continuous
 62
     7
370
    25
100
AcDbLine
 10
2805.6869319338
 20
3148.5527371888
 30
0.0
 11
2801.9791050829
 21
3146.4122543093
 31
0.0
  0
LINE
  5
38C
330
1F
100
AcDbEntity
  8
0
  6
Continuous
 62
     7
370
    25
100
AcDbLine
 10
4303.87387528
 20
2860.6694443683
 30
0.0
 11
4299.656661618
 21
2863.1039899946
 31
0.0
  0
LINE
  5
38D
330
1F
100
AcDbEntity
  8
0
  6
Continuous
 62
     7
370
    25
100
AcDbLine
 10
3809.5801440107
 20
3146.019141591
 30
0.0
 11
3795.4895427743
 21
3154.1534725407
 31
0.0
  0
LINE
  5
38E
330
1F
100
AcDbEntity
  8
0
  6
Continuous
 62
     7
370
    25
100
AcDbLine
 10
3947.8337995512
 20
2938.8340548496
 30
0.0
 11
3942.7226512323
 21
2941.7846579688
 31
0.0
  0
LINE
  5
38F
330
1F
100
AcDbEntity
  8
0
  6
Continuous
 62
     7
370
    25
100
AcDbLine
 10
3443.6666649024
 20
3229.8835465198
 30
0.0
 11
3438.5555165834
 21
3232.8341496389
 31
0.0
  0
LINE
  5
390
330
1F
100
AcDbEntity
  8
0
  6
Continuous
 62
     7
370
    25
100
AcDbLine
 10
3800.4138593821
 20
2415.7077804585
 30
0.0
 11
3800.4138593821
 21
1773.0901489477
 31
0.0
  0
LINE
  5
391
330
1F
100
AcDbEntity
  8
0
  6
Continuous
 62
     7
370
    25
100
AcDbLine
 10
2739.7536876023
 20
2385.3962328147
 30
0.0
 11
3800.4138593821
 21
1773.0901489477
 31
0.0
  0
LINE
  5
392
330
1F
100
AcDbEntity
  8
0
  6
Continuous
 62
     7
370
    25
100
AcDbLine
 10
2739.7536876023
 20
3028.0138643255
 30
0.0
 11
2739.7536876023
 21
2385.3962328147
 31
0.0
  0
LINE
  5
393
330
1F
100
AcDbEntity
  8
0
  6
Continuous
 62
     7
370
    25
100
AcDbLine
 10
2739.7536876023
 20
3028.0138643255
 30
0.0
 11
3800.4138593821
 21
2415.7077804585
 31
0.0
  0
LWPOLYLINE
  5
394
330
1F
100
AcDbEntity
  8
0
  6
Continuous
 62
     7
370
    25
100
AcDbPolyline
 90
       48
 70
   128
 43
0.0
 10
3019.0608737574
 20
2785.1191572046
 10
3018.9346860929
 20
2787.3687041028
 10
3018.558377956
 20
2789.723755446
 10
3017.9386928424
 20
2792.14235865
 10
3017.0866521529
 20
2794.5813082895
 10
3016.0174708998
 20
2796.9971194821
 10
3014.7502416057
 20
2799.3465997271
 10
3013.3075549811
 20
2801.5879439364
 10
3011.7151838241
 20
2803.6810629247
 10
3010.0015140371
 20
2805.5886419206
 10
3008.1971653055
 20
2807.2766028921
 10
3006.3342956747
 20
2808.7148466938
 10
3004.4461800817
 20
2809.877739723
 10
3002.566472785
 20
2810.7444910402
 10
3000.7287648228
 20
2811.2996511914
 10
2998.9658042964
 20
2811.5333189808
 10
2997.3090959752
 20
2811.4413239442
 10
2995.7881637264
 20
2811.0252627823
 10
2994.4301922673
 20
2810.2926088332
 10
2993.2593738891
 20
2809.2564078264
 10
2992.2966134286
 20
2807.9352048508
 10
2991.5590857265
 20
2806.3525211141
 10
2991.0599827464
 20
2804.5366105716
 10
2990.8081764
 20
2802.5198758586
 10
2990.8081764
 20
2800.3383085859
 10
2991.0599827464
 20
2798.0308444537
 10
2991.5590857265
 20
2795.6386818762
 10
2992.2966134286
 20
2793.2044667801
 10
2993.2593738891
 20
2790.7716842373
 10
2994.4301922673
 20
2788.383685105
 10
2995.7881637264
 20
2786.0831506825
 10
2997.3090959752
 20
2783.9110585243
 10
2998.9658042964
 20
2781.906268775
 10
3000.7287648228
 20
2780.1044656669
 10
3002.566472785
 20
2778.5378533681
 10
3004.4461800817
 20
2777.2343408359
 10
3006.3342956747
 20
2776.2172620033
 10
3008.1971653055
 20
2775.5046823109
 10
3010.0015140371
 20
2775.10943525
 10
3011.7151838241
 20
2775.0384045549
 10
3013.3075549811
 20
2775.2930109392
 10
3014.7502416057
 20
2775.868664627
 10
3016.0174708998
 20
2776.7550330722
 10
3017.0866521529
 20
2777.9363938661
 10
3017.9386928424
 20
2779.3915982651
 10
3018.558377956
 20
2781.0947282662
 10
3018.9346860929
 20
2783.0153034825
 10
3019.0608737574
 20
2785.1191572046
  0
LWPOLYLINE
  5
395
330
1F
100
AcDbEntity
  8
0
  6
Continuous
 62
     7
370
    25
100
AcDbPolyline
 90
       48
 70
   128
 43
0.0
 10
3549.3909596473
 20
2478.9661152711
 10
3549.2647719828
 20
2481.2156621693
 10
3548.8884638459
 20
2483.5707135125
 10
3548.2687787323
 20
2485.9893167165
 10
3547.4167380428
 20
2488.428266356
 10
3546.3475567897
 20
2490.8440775486
 10
3545.0803274956
 20
2493.1935577936
 10
3543.637640871
 20
2495.4349020029
 10
3542.045269714
 20
2497.5280209912
 10
3540.331599927
 20
2499.435599987
 10
3538.5272511954
 20
2501.1235609586
 10
3536.6643815646
 20
2502.5618047603
 10
3534.7762659716
 20
2503.7246977895
 10
3532.8965586749
 20
2504.5914491066
 10
3531.0588507127
 20
2505.1466092579
 10
3529.2958901863
 20
2505.3802770473
 10
3527.6391818651
 20
2505.2882820107
 10
3526.1182496163
 20
2504.8722208488
 10
3524.7602781573
 20
2504.1395668996
 10
3523.589459779
 20
2503.1033658929
 10
3522.6266993185
 20
2501.7821629173
 10
3521.8891716164
 20
2500.1994791806
 10
3521.3900686364
 20
2498.3835686381
 10
3521.1382622899
 20
2496.3668339251
 10
3521.1382622899
 20
2494.1852666524
 10
3521.3900686364
 20
2491.8778025201
 10
3521.8891716164
 20
2489.4856399427
 10
3522.6266993185
 20
2487.0514248466
 10
3523.589459779
 20
2484.6186423038
 10
3524.7602781573
 20
2482.2306431715
 10
3526.1182496163
 20
2479.930108749
 10
3527.6391818651
 20
2477.7580165908
 10
3529.2958901863
 20
2475.7532268415
 10
3531.0588507127
 20
2473.9514237334
 10
3532.8965586749
 20
2472.3848114346
 10
3534.7762659716
 20
2471.0812989024
 10
3536.6643815646
 20
2470.0642200698
 10
3538.5272511954
 20
2469.3516403774
 10
3540.331599927
 20
2468.9563933165
 10
3542.045269714
 20
2468.8853626214
 10
3543.637640871
 20
2469.1399690057
 10
3545.0803274956
 20
2469.7156226935
 10
3546.3475567897
 20
2470.6019911387
 10
3547.4167380428
 20
2471.7833519326
 10
3548.2687787323
 20
2473.2385563316
 10
3548.8884638459
 20
2474.9416863326
 10
3549.2647719828
 20
2476.862261549
 10
3549.3909596473
 20
2478.9661152711
  0
LINE
  5
396
330
1F
100
AcDbEntity
  8
0
  6
Continuous
 62
     7
370
    25
100
AcDbLine
 10
3305.4391130783
 20
2418.110930897
 30
0.0
 11
3305.4391130783
 21
2271.1335971683
 31
0.0
  0
LINE
  5
397
330
1F
100
AcDbEntity
  8
0
  6
Continuous
 62
     7
370
    25
100
AcDbLine
 10
3305.4391130783
 20
2271.1335971683
 30
0.0
 11
3658.9925115741
 21
2067.0315646506
 31
0.0
  0
LINE
  5
398
330
1F
100
AcDbEntity
  8
0
  6
Continuous
 62
     7
370
    25
100
AcDbLine
 10
3658.9925115741
 20
2067.0315646506
 30
0.0
 11
3658.9925115741
 21
2214.0088983793
 31
0.0
  0
LINE
  5
399
330
1F
100
AcDbEntity
  8
0
  6
Continuous
 62
     7
370
    25
100
AcDbLine
 10
3658.9925115741
 20
2214.0088983793
 30
0.0
 11
3305.4391130783
 21
2418.110930897
 31
0.0
  0
LINE
  5
39A
330
1F
100
AcDbEntity
  8
0
  6
Continuous
 62
     7
370
    25
100
AcDbLine
 10
2746.825907709
 20
3032.0965700903
 30
0.0
 11
2739.7536876023
 21
3028.0138643255
 31
0.0
  0
LINE
  5
39B
330
1F
100
AcDbEntity
  8
0
  6
Continuous
 62
     7
370
    25
100
AcDbLine
 10
4366.0992927607
 20
2742.2710300538
 30
0.0
 11
4359.0270937274
 21
2746.3537236531
 31
0.0
  0
LINE
  5
39C
330
1F
100
AcDbEntity
  8
0
  6
Continuous
 62
     7
370
    25
100
AcDbLine
 10
3800.4138593821
 20
2415.7077804585
 30
0.0
 11
4366.0992927607
 21
2742.2710300538
 31
0.0
  0
LINE
  5
39D
330
1F
100
AcDbEntity
  8
0
  6
Continuous
 62
     7
370
    25
100
AcDbLine
 10
4366.0992927607
 20
2742.2710300538
 30
0.0
 11
4366.0992927607
 21
2099.6533985429
 31
0.0
  0
LINE
  5
39E
330
1F
100
AcDbEntity
  8
0
  6
Continuous
 62
     7
370
    25
100
AcDbLine
 10
3800.4138593821
 20
1773.0901489477
 30
0.0
 11
4366.0992927607
 21
2099.6533985429
 31
0.0
  0
LWPOLYLINE
  5
39F
330
1F
100
AcDbEntity
  8
0
  6
Continuous
 62
     7
370
    25
100
AcDbPolyline
 90
       76
 70
   128
 43
0.0
 10
3984.2616262838
 20
2238.5011487899
 10
3984.1376302555
 20
2241.8459074011
 10
3983.7665167176
 20
2245.0240139854
 10
3983.1508777014
 20
2248.0132141136
 10
3982.2950332589
 20
2250.7925186046
 10
3981.2049998525
 20
2253.34245296
 10
3979.888406062
 20
2255.6451303769
 10
3978.3545031206
 20
2257.6843795043
 10
3976.6140384746
 20
2259.4459147987
 10
3974.6792241735
 20
2260.9173912807
 10
3972.5636315023
 20
2262.0884653813
 10
3970.2820961519
 20
2262.9509105421
 10
3967.8506233879
 20
2263.4987084786
 10
3965.2862721472
 20
2263.7279822714
 10
3962.6070285975
 20
2263.637166721
 10
3959.8316902332
 20
2263.2268684339
 10
3956.9797078249
 20
2262.4999935952
 10
3954.0711011256
 20
2261.4616019672
 10
3951.12626921
 20
2260.1189920796
 10
3948.1658640339
 20
2258.4816039019
 10
3945.2106534568
 20
2256.5608910983
 10
3942.2813526549
 20
2254.3703453786
 10
3939.3985398269
 20
2251.9253261623
 10
3936.5824033133
 20
2249.2429875978
 10
3933.8527205226
 20
2246.3421203884
 10
3931.2286155875
 20
2243.2431092288
 10
3928.7285172174
 20
2239.9676651262
 10
3926.3699479646
 20
2236.5387767506
 10
3924.1694504671
 20
2232.9804975118
 10
3922.1424715449
 20
2229.317756976
 10
3920.3032146861
 20
2225.5762757071
 10
3918.6645978995
 20
2221.7823219231
 10
3917.2380956648
 20
2217.9624255767
 10
3916.0337283952
 20
2214.1434696118
 10
3915.0599359971
 20
2210.3521789443
 10
3914.3235462599
 20
2206.6151752183
 10
3913.8297327093
 20
2202.9586847928
 10
3913.5819619236
 20
2199.4083136488
 10
3913.5819619236
 20
2195.989004807
 10
3913.8297327093
 20
2192.7247037229
 10
3914.3235462599
 20
2189.6383339522
 10
3915.0599359971
 20
2186.7515720542
 10
3916.0337283952
 20
2184.0845981578
 10
3917.2380956648
 20
2181.6561507093
 10
3918.6645978995
 20
2179.4832831204
 10
3920.3032146861
 20
2177.581211673
 10
3922.1424715449
 20
2175.9633155069
 10
3924.1694504671
 20
2174.6408750199
 10
3926.3699479646
 20
2173.6232361126
 10
3928.7285172174
 20
2172.9174816651
 10
3931.2286155875
 20
2172.528601866
 10
3933.8527205226
 20
2172.4593056076
 10
3936.5824033133
 20
2172.7100752315
 10
3939.3985398269
 20
2173.2791786768
 10
3942.2813526549
 20
2174.1625843042
 10
3945.2106534568
 20
2175.354125133
 10
3948.1658640339
 20
2176.8454380023
 10
3951.12626921
 20
2178.6260487191
 10
3954.0711011256
 20
2180.683481557
 10
3956.9797078249
 20
2183.0032957426
 10
3959.8316902332
 20
2185.5692375352
 10
3962.6070285975
 20
2188.3632767173
 10
3965.2862721472
 20
2191.3658499248
 10
3967.8506233879
 20
2194.5558728064
 10
3970.2820961519
 20
2197.9109894408
 10
3972.5636315023
 20
2201.4076392466
 10
3974.6792241735
 20
2205.0213246529
 10
3976.6140384746
 20
2208.7266658425
 10
3978.3545031206
 20
2212.4976988438
 10
3979.888406062
 20
2216.3079789452
 10
3981.2049998525
 20
2220.1307631962
 10
3982.2950332589
 20
2223.9392233341
 10
3983.1508777014
 20
2227.7066647854
 10
3983.7665167176
 20
2231.4066665919
 10
3984.1376302555
 20
2235.0132517466
 10
3984.2616262838
 20
2238.5011487899
  0
LWPOLYLINE
  5
3A0
330
1F
100
AcDbEntity
  8
0
  6
Continuous
 62
     7
370
    25
100
AcDbPolyline
 90
       76
 70
   128
 43
0.0
 10
4111.5408466866
 20
2165.0005450036
 10
4111.4168506583
 20
2168.34527928
 10
4111.0457318521
 20
2171.5233949904
 10
4110.4300954701
 20
2174.5125905556
 10
4109.5742562959
 20
2177.2919102553
 10
4108.4842176212
 20
2179.8418415694
 10
4107.1676290991
 20
2182.1445098602
 10
4105.6337208893
 20
2184.1837681136
 10
4103.8932562433
 20
2185.945303408
 10
4101.9584406251
 20
2187.4167669622
 10
4099.8428479539
 20
2188.5878410629
 10
4097.5613152377
 20
2189.4502877443
 10
4095.1298464249
 20
2189.9980879619
 10
4092.5654965013
 20
2190.2273746824
 10
4089.8862529516
 20
2190.136559132
 10
4087.1109089897
 20
2189.7262576135
 10
4084.2589306973
 20
2188.9993729834
 10
4081.3503233394
 20
2187.9609809752
 10
4078.4054882958
 20
2186.6183814493
 10
4075.4450818026
 20
2184.9809925112
 10
4072.4898692499
 20
2183.0602785671
 10
4069.5605783261
 20
2180.8697263825
 10
4066.6777562785
 20
2178.4247140113
 10
4063.8616250332
 20
2175.7423663208
 10
4061.1319382913
 20
2172.8415089978
 10
4058.5078386245
 20
2169.7424887121
 10
4056.0077376202
 20
2166.4670552562
 10
4053.6491657332
 20
2163.0381653599
 10
4051.4486735041
 20
2159.4798769951
 10
4049.4216919478
 20
2155.817147106
 10
4047.5824377231
 20
2152.0756673577
 10
4045.9438156682
 20
2148.2816861976
 10
4044.5173160677
 20
2144.4618157067
 10
4043.3129461639
 20
2140.6428460537
 10
4042.3391537657
 20
2136.8515675536
 10
4041.6027692969
 20
2133.114566869
 10
4041.1089557463
 20
2129.4580642761
 10
4040.8611823265
 20
2125.9076976951
 10
4040.8611823265
 20
2122.4883827696
 10
4041.1089557463
 20
2119.2240892899
 10
4041.6027692969
 20
2116.1377316866
 10
4042.3391537657
 20
2113.2509424124
 10
4043.3129461639
 20
2110.5839806835
 10
4044.5173160677
 20
2108.1555408393
 10
4045.9438156682
 20
2105.9826717298
 10
4047.5824377231
 20
2104.0806094074
 10
4049.4216919478
 20
2102.4626873858
 10
4051.4486735041
 20
2101.1402666705
 10
4053.6491657332
 20
2100.1226125546
 10
4056.0077376202
 20
2099.4168717951
 10
4058.5078386245
 20
2099.0279813493
 10
4061.1319382913
 20
2098.9586881332
 10
4063.8616250332
 20
2099.20946308
 10
4066.6777562785
 20
2099.7785543584
 10
4069.5605783261
 20
2100.66196835
 10
4072.4898692499
 20
2101.8535065181
 10
4075.4450818026
 20
2103.3448144442
 10
4078.4054882958
 20
2105.1254289632
 10
4081.3503233394
 20
2107.1828636069
 10
4084.2589306973
 20
2109.5026812145
 10
4087.1109089897
 20
2112.0686175892
 10
4089.8862529516
 20
2114.8626691284
 10
4092.5654965013
 20
2117.8652362521
 10
4095.1298464249
 20
2121.0552644571
 10
4097.5613152377
 20
2124.4103727268
 10
4099.8428479539
 20
2127.9070270956
 10
4101.9584406251
 20
2131.5207064182
 10
4103.8932562433
 20
2135.2260544518
 10
4105.6337208893
 20
2138.9970935368
 10
4107.1676290991
 20
2142.8073584285
 10
4108.4842176212
 20
2146.6301335544
 10
4109.5742562959
 20
2150.4386028174
 10
4110.4300954701
 20
2154.206047311
 10
4111.0457318521
 20
2157.9060415131
 10
4111.4168506583
 20
2161.5126418766
 10
4111.5408466866
 20
2165.0005450036
  0
LWPOLYLINE
  5
3A1
330
1F
100
AcDbEntity
  8
0
  6
Continuous
 62
     7
370
    25
100
AcDbPolyline
 90
       76
 70
   128
 43
0.0
 10
3984.2616262838
 20
2091.5238150612
 10
3984.1376302555
 20
2094.8685493376
 10
3983.7665167176
 20
2098.0466680893
 10
3983.1508777014
 20
2101.0358621339
 10
3982.2950332589
 20
2103.8151787922
 10
3981.2049998525
 20
2106.3651131477
 10
3979.888406062
 20
2108.6677783971
 10
3978.3545031206
 20
2110.7070396919
 10
3976.6140384746
 20
2112.4685749863
 10
3974.6792241735
 20
2113.9400393009
 10
3972.5636315023
 20
2115.1111134015
 10
3970.2820961519
 20
2115.9735585623
 10
3967.8506233879
 20
2116.5213564988
 10
3965.2862721472
 20
2116.750642459
 10
3962.6070285975
 20
2116.6598269086
 10
3959.8316902332
 20
2116.2495286216
 10
3956.9797078249
 20
2115.5226416154
 10
3954.0711011256
 20
2114.4842499874
 10
3951.12626921
 20
2113.1416522672
 10
3948.1658640339
 20
2111.5042640895
 10
3945.2106534568
 20
2109.5835512859
 10
3942.2813526549
 20
2107.3929933988
 10
3939.3985398269
 20
2104.9479863499
 10
3936.5824033133
 20
2102.265635618
 10
3933.8527205226
 20
2099.364780576
 10
3931.2286155875
 20
2096.265757249
 10
3928.7285172174
 20
2092.9903253139
 10
3926.3699479646
 20
2089.5614369382
 10
3924.1694504671
 20
2086.0031455321
 10
3922.1424715449
 20
2082.3404171636
 10
3920.3032146861
 20
2078.5989358947
 10
3918.6645978995
 20
2074.8049577759
 10
3917.2380956648
 20
2070.9850857643
 10
3916.0337283952
 20
2067.166117632
 10
3915.0599359971
 20
2063.3748391319
 10
3914.3235462599
 20
2059.637835406
 10
3913.8297327093
 20
2055.981332813
 10
3913.5819619236
 20
2052.4309677527
 10
3913.5819619236
 20
2049.0116528272
 10
3913.8297327093
 20
2045.7473578268
 10
3914.3235462599
 20
2042.6610002235
 10
3915.0599359971
 20
2039.7742139907
 10
3916.0337283952
 20
2037.1072522617
 10
3917.2380956648
 20
2034.6788108969
 10
3918.6645978995
 20
2032.505943308
 10
3920.3032146861
 20
2030.6038779443
 10
3922.1424715449
 20
2028.9859574434
 10
3924.1694504671
 20
2027.6635352075
 10
3926.3699479646
 20
2026.6458841328
 10
3928.7285172174
 20
2025.9401418527
 10
3931.2286155875
 20
2025.5512498862
 10
3933.8527205226
 20
2025.4819597115
 10
3936.5824033133
 20
2025.7327323772
 10
3939.3985398269
 20
2026.301826697
 10
3942.2813526549
 20
2027.1852353663
 10
3945.2106534568
 20
2028.3767792369
 10
3948.1658640339
 20
2029.8680860225
 10
3951.12626921
 20
2031.6486997812
 10
3954.0711011256
 20
2033.706132619
 10
3956.9797078249
 20
2036.0259498465
 10
3959.8316902332
 20
2038.5918885973
 10
3962.6070285975
 20
2041.385936905
 10
3965.2862721472
 20
2044.3885040287
 10
3967.8506233879
 20
2047.578532994
 10
3970.2820961519
 20
2050.9336435448
 10
3972.5636315023
 20
2054.4302994342
 10
3974.6792241735
 20
2058.0439787568
 10
3976.6140384746
 20
2061.7493260301
 10
3978.3545031206
 20
2065.5203651151
 10
3979.888406062
 20
2069.3306269654
 10
3981.2049998525
 20
2073.1534051327
 10
3982.2950332589
 20
2076.9618713543
 10
3983.1508777014
 20
2080.7293188893
 10
3983.7665167176
 20
2084.4293146121
 10
3984.1376302555
 20
2088.0359119342
 10
3984.2616262838
 20
2091.5238150612
  0
LWPOLYLINE
  5
3A2
330
1F
100
AcDbEntity
  8
0
  6
Continuous
 62
     7
370
    25
100
AcDbPolyline
 90
       76
 70
   128
 43
0.0
 10
4111.5408466866
 20
2311.9778787323
 10
4111.4168506583
 20
2315.3226373435
 10
4111.0457318521
 20
2318.5007408864
 10
4110.4300954701
 20
2321.4899425354
 10
4109.5742562959
 20
2324.2692500677
 10
4108.4842176212
 20
2326.8191813818
 10
4107.1676290991
 20
2329.12186184
 10
4105.6337208893
 20
2331.161107926
 10
4103.8932562433
 20
2332.9226432204
 10
4101.9584406251
 20
2334.394118942
 10
4099.8428479539
 20
2335.5651930427
 10
4097.5613152377
 20
2336.4276397241
 10
4095.1298464249
 20
2336.9754399417
 10
4092.5654965013
 20
2337.2047144948
 10
4089.8862529516
 20
2337.1138989444
 10
4087.1109089897
 20
2336.7035974259
 10
4084.2589306973
 20
2335.9767249632
 10
4081.3503233394
 20
2334.938332955
 10
4078.4054882958
 20
2333.5957212617
 10
4075.4450818026
 20
2331.9583323236
 10
4072.4898692499
 20
2330.0376183795
 10
4069.5605783261
 20
2327.8470783623
 10
4066.6777562785
 20
2325.4020538236
 10
4063.8616250332
 20
2322.7197183005
 10
4061.1319382913
 20
2319.8188488101
 10
4058.5078386245
 20
2316.7198406919
 10
4056.0077376202
 20
2313.4443950686
 10
4053.6491657332
 20
2310.0155051723
 10
4051.4486735041
 20
2306.4572289749
 10
4049.4216919478
 20
2302.7944869184
 10
4047.5824377231
 20
2299.0530071701
 10
4045.9438156682
 20
2295.2590503448
 10
4044.5173160677
 20
2291.4391555191
 10
4043.3129461639
 20
2287.6201980335
 10
4042.3391537657
 20
2283.828907366
 10
4041.6027692969
 20
2280.0919066814
 10
4041.1089557463
 20
2276.4354162558
 10
4040.8611823265
 20
2272.8850435911
 10
4040.8611823265
 20
2269.4657347494
 10
4041.1089557463
 20
2266.201435186
 10
4041.6027692969
 20
2263.1150654152
 10
4042.3391537657
 20
2260.2283004759
 10
4043.3129461639
 20
2257.5613265795
 10
4044.5173160677
 20
2255.1328806517
 10
4045.9438156682
 20
2252.9600115421
 10
4047.5824377231
 20
2251.0579431361
 10
4049.4216919478
 20
2249.4400454493
 10
4051.4486735041
 20
2248.1176064829
 10
4053.6491657332
 20
2247.0999645343
 10
4056.0077376202
 20
2246.3942116075
 10
4058.5078386245
 20
2246.0053333291
 10
4061.1319382913
 20
2245.9360340293
 10
4063.8616250332
 20
2246.1868059342
 10
4066.6777562785
 20
2246.7559063382
 10
4069.5605783261
 20
2247.6393172879
 10
4072.4898692499
 20
2248.8308524142
 10
4075.4450818026
 20
2250.322166424
 10
4078.4054882958
 20
2252.1027779011
 10
4081.3503233394
 20
2254.1602125448
 10
4084.2589306973
 20
2256.4800271106
 10
4087.1109089897
 20
2259.0459665272
 10
4089.8862529516
 20
2261.8400089408
 10
4092.5654965013
 20
2264.8425821482
 10
4095.1298464249
 20
2268.0326042695
 10
4097.5613152377
 20
2271.3877186229
 10
4099.8428479539
 20
2274.8843669079
 10
4101.9584406251
 20
2278.4980523143
 10
4103.8932562433
 20
2282.2033942642
 10
4105.6337208893
 20
2285.9744272655
 10
4107.1676290991
 20
2289.7847104082
 10
4108.4842176212
 20
2293.6074916179
 10
4109.5742562959
 20
2297.4159547972
 10
4110.4300954701
 20
2301.1833932071
 10
4111.0457318521
 20
2304.8833934929
 10
4111.4168506583
 20
2308.489981689
 10
4111.5408466866
 20
2311.9778787323
  0
SPLINE
  5
3A3
330
1F
100
AcDbEntity
  8
0
  6
Continuous
 62
     7
370
    25
100
AcDbSpline
210
0.0
220
0.0
230
1.0
 70
     8
 71
     3
 72
    21
 73
    17
 74
     0
 42
0.000000001
 43
0.00000001
 40
0.0
 40
0.0
 40
0.0
 40
0.0
 40
0.0705700731081781
 40
0.1431878872118875
 40
0.213758243978957
 40
0.2863756941101837
 40
0.3569467872641165
 40
0.4295637840628371
 40
0.5001343642883151
 40
0.5727514859742605
 40
0.6433224815946094
 40
0.7159393042288623
 40
0.7865102962927196
 40
0.8591270740779465
 40
0.9296977770427621
 40
1.0
 40
1.0
 40
1.0
 40
1.0
 10
3521.460748901303
 20
2495.49868980256
 30
0.0
 10
3521.498413261443
 20
2494.571755563878
 30
0.0
 10
3521.574834893363
 20
2492.690990115077
 30
0.0
 10
3522.190552271225
 20
2489.669396311456
 30
0.0
 10
3523.166533727682
 20
2486.570998366492
 30
0.0
 10
3524.493374134153
 20
2483.518158099421
 30
0.0
 10
3526.146290521174
 20
2480.547117940544
 30
0.0
 10
3528.05109844422
 20
2477.793824925205
 30
0.0
 10
3530.188628425873
 20
2475.287719962195
 30
0.0
 10
3532.460881066695
 20
2473.145225370755
 30
0.0
 10
3534.843691477961
 20
2471.387774838432
 30
0.0
 10
3537.225197222566
 20
2470.097104956007
 30
0.0
 10
3539.583180919898
 20
2469.28309500045
 30
0.0
 10
3541.802059572811
 20
2468.997161215028
 30
0.0
 10
3543.864860812763
 20
2469.191593855719
 30
0.0
 10
3545.021004801974
 20
2469.745341789849
 30
0.0
 10
3545.597975088976
 20
2470.021688081888
 30
0.0
  0
SPLINE
  5
3A4
330
1F
100
AcDbEntity
  8
0
  6
Continuous
 62
     7
370
    25
100
AcDbSpline
210
0.0
220
0.0
230
1.0
 70
     8
 71
     3
 72
    12
 73
     8
 74
     0
 42
0.000000001
 43
0.00000001
 40
0.0
 40
0.0
 40
0.0
 40
0.0
 40
0.0846092551874721
 40
0.3024790543347324
 40
0.5142040969336159
 40
0.7320732607176857
 40
1.0
 40
1.0
 40
1.0
 40
1.0
 10
3525.636258256701
 20
2504.597807175164
 30
0.0
 10
3525.406717712572
 20
2504.484293613607
 30
0.0
 10
3524.58610764378
 20
2504.078481333644
 30
0.0
 10
3523.493858371526
 20
2502.881241930254
 30
0.0
 10
3522.408607259397
 20
2501.040381017616
 30
0.0
 10
3521.629152433628
 20
2498.624534214944
 30
0.0
 10
3521.520611517555
 20
2496.60983766234
 30
0.0
 10
3521.460748901303
 20
2495.49868980256
 30
0.0
  0
LINE
  5
3A5
330
1F
100
AcDbEntity
  8
0
  6
Continuous
 62
     7
370
    25
100
AcDbLine
 10
3362.0076648456
 20
2303.789926994
 30
0.0
 11
3658.9925115741
 21
2132.344224302
 31
0.0
  0
LINE
  5
3A6
330
1F
100
AcDbEntity
  8
0
  6
Continuous
 62
     7
370
    25
100
AcDbLine
 10
3362.0076648456
 20
2385.4546193776
 30
0.0
 11
3362.0076648456
 21
2303.789926994
 31
0.0
  0
LINE
  5
3A7
330
1F
100
AcDbEntity
  8
0
  6
Continuous
 62
     7
370
    25
100
AcDbLine
 10
3362.0076648456
 20
2303.789926994
 30
0.0
 11
3305.4391130783
 21
2271.1335971683
 31
0.0
  0
SPLINE
  5
3A8
330
1F
100
AcDbEntity
  8
0
  6
Continuous
 62
     7
370
    25
100
AcDbSpline
210
0.0
220
0.0
230
1.0
 70
     8
 71
     3
 72
    21
 73
    17
 74
     0
 42
0.000000001
 43
0.00000001
 40
0.0
 40
0.0
 40
0.0
 40
0.0
 40
0.0705700731081781
 40
0.1431878872118875
 40
0.213758243978957
 40
0.2863756941101837
 40
0.3569467872641165
 40
0.4295637840628371
 40
0.5001343642883151
 40
0.5727514859742605
 40
0.6433224815946094
 40
0.7159393042288623
 40
0.7865102962927196
 40
0.8591270740779465
 40
0.9296977770427621
 40
1.0
 40
1.0
 40
1.0
 40
1.0
 10
2991.130663011396
 20
2801.651731736079
 30
0.0
 10
2991.168327371537
 20
2800.724797497397
 30
0.0
 10
2991.244749003456
 20
2798.844032048595
 30
0.0
 10
2991.860466381318
 20
2795.822438244975
 30
0.0
 10
2992.836447837776
 20
2792.724040300011
 30
0.0
 10
2994.163288244246
 20
2789.67120003294
 30
0.0
 10
2995.816204631268
 20
2786.700159874063
 30
0.0
 10
2997.721012554313
 20
2783.946866858724
 30
0.0
 10
2999.858542535967
 20
2781.440761895714
 30
0.0
 10
3002.130795176789
 20
2779.298267304273
 30
0.0
 10
3004.513605588054
 20
2777.540816771951
 30
0.0
 10
3006.89511133266
 20
2776.250146889525
 30
0.0
 10
3009.253095029992
 20
2775.436136933969
 30
0.0
 10
3011.471973682905
 20
2775.150203148547
 30
0.0
 10
3013.534774922857
 20
2775.344635789238
 30
0.0
 10
3014.690918912067
 20
2775.898383723367
 30
0.0
 10
3015.26788919907
 20
2776.174730015407
 30
0.0
  0
SPLINE
  5
3A9
330
1F
100
AcDbEntity
  8
0
  6
Continuous
 62
     7
370
    25
100
AcDbSpline
210
0.0
220
0.0
230
1.0
 70
     8
 71
     3
 72
    12
 73
     8
 74
     0
 42
0.000000001
 43
0.00000001
 40
0.0
 40
0.0
 40
0.0
 40
0.0
 40
0.0846092551874721
 40
0.3024790543347324
 40
0.5142040969336159
 40
0.7320732607176857
 40
1.0
 40
1.0
 40
1.0
 40
1.0
 10
2995.306172366795
 20
2810.750849108682
 30
0.0
 10
2995.076631822666
 20
2810.637335547126
 30
0.0
 10
2994.256021753874
 20
2810.231523267162
 30
0.0
 10
2993.16377248162
 20
2809.034283863773
 30
0.0
 10
2992.078521369491
 20
2807.193422951135
 30
0.0
 10
2991.299066543723
 20
2804.777576148462
 30
0.0
 10
2991.190525627649
 20
2802.762879595859
 30
0.0
 10
2991.130663011396
 20
2801.651731736079
 30
0.0
  0
LWPOLYLINE
  5
3AA
330
1F
100
AcDbEntity
  8
0
  6
Continuous
 62
     7
370
    25
100
AcDbPolyline
 90
       24
 70
   128
 43
0.0
 10
3008.4542610814
 20
2791.2422243693
 10
3008.3231633091
 20
2790.2164145485
 10
3007.9395637674
 20
2789.4180385272
 10
3007.331911579
 20
2788.9063542435
 10
3006.5453038718
 20
2788.7192795669
 10
3005.6380508108
 20
2788.8707029792
 10
3004.6774609129
 20
2789.3493637782
 10
3003.7347623523
 20
2790.119739821
 10
3002.8798556771
 20
2791.1248333683
 10
3002.1761718943
 20
2792.2899668325
 10
3001.6758888025
 20
2793.5287565251
 10
3001.4161167017
 20
2794.7493541784
 10
3001.4161167017
 20
2795.8612117623
 10
3001.6758888025
 20
2796.7818342625
 10
3002.1761718943
 20
2797.4430580618
 10
3002.8798556771
 20
2797.7956868544
 10
3003.7347623523
 20
2797.8137261646
 10
3004.6774609129
 20
2797.4957342865
 10
3005.6380508108
 20
2796.8653215967
 10
3006.5453038718
 20
2795.9692042517
 10
3007.331911579
 20
2794.8739316478
 10
3007.9395637674
 20
2793.660667081
 10
3008.3231633091
 20
2792.4193964561
 10
3008.4542610814
 20
2791.2422243693
  0
ARC
  5
3AB
330
1F
100
AcDbEntity
  8
0
  6
Continuous
 62
     7
370
    25
100
AcDbCircle
 10
3006.6830471985
 20
2791.3928271145
 30
0.0
 40
2.491685100280133
100
AcDbArc
 50
305.3776787613
 51
5.9342513043
  0
LWPOLYLINE
  5
3AC
330
1F
100
AcDbEntity
  8
0
  6
Continuous
 62
     7
370
    25
100
AcDbPolyline
 90
       10
 70
   128
 43
0.0
 10
3003.1260564927
 20
2798.0216841644
 10
3003.586974428
 20
2798.2038978203
 10
3004.4418811032
 20
2798.2219371305
 10
3005.3845796638
 20
2797.9039452524
 10
3006.3451695616
 20
2797.2735325626
 10
3007.2524226227
 20
2796.3774152175
 10
3008.0390303299
 20
2795.2821426137
 10
3008.6466825183
 20
2794.0688780468
 10
3009.03028206
 20
2792.827607422
 10
3009.1613798323
 20
2791.6504353351
  0
LWPOLYLINE
  5
3AD
330
1F
100
AcDbEntity
  8
0
  6
Continuous
 62
     7
370
    25
100
AcDbPolyline
 90
       24
 70
   128
 43
0.0
 10
3538.7843469713
 20
2485.0891824357
 10
3538.653249199
 20
2484.0633726149
 10
3538.2696496573
 20
2483.2649965937
 10
3537.6619974689
 20
2482.75331231
 10
3536.8753897617
 20
2482.5662376334
 10
3535.9681367007
 20
2482.7176610457
 10
3535.0075468028
 20
2483.1963218447
 10
3534.0648482422
 20
2483.9666978875
 10
3533.209941567
 20
2484.9717914348
 10
3532.5062577842
 20
2486.136924899
 10
3532.0059746924
 20
2487.3757145915
 10
3531.7462025916
 20
2488.5963122448
 10
3531.7462025916
 20
2489.7081698288
 10
3532.0059746924
 20
2490.628792329
 10
3532.5062577842
 20
2491.2900161283
 10
3533.209941567
 20
2491.6426449209
 10
3534.0648482422
 20
2491.6606842311
 10
3535.0075468028
 20
2491.342692353
 10
3535.9681367007
 20
2490.7122796632
 10
3536.8753897617
 20
2489.8161623181
 10
3537.6619974689
 20
2488.7208897143
 10
3538.2696496573
 20
2487.5076251474
 10
3538.653249199
 20
2486.2663545226
 10
3538.7843469713
 20
2485.0891824357
  0
ARC
  5
3AE
330
1F
100
AcDbEntity
  8
0
  6
Continuous
 62
     7
370
    25
100
AcDbCircle
 10
3537.0131330884
 20
2485.239785181
 30
0.0
 40
2.49168510027728
100
AcDbArc
 50
305.3776787613
 51
5.9342513044
  0
LWPOLYLINE
  5
3AF
330
1F
100
AcDbEntity
  8
0
  6
Continuous
 62
     7
370
    25
100
AcDbPolyline
 90
       10
 70
   128
 43
0.0
 10
3533.4561423826
 20
2491.8686422309
 10
3533.9170603179
 20
2492.0508558868
 10
3534.7719669931
 20
2492.068895197
 10
3535.7146655537
 20
2491.7509033189
 10
3536.6752554516
 20
2491.1204906291
 10
3537.5825085126
 20
2490.224373284
 10
3538.3691162198
 20
2489.1291006802
 10
3538.9767684082
 20
2487.9158361133
 10
3539.3603679499
 20
2486.6745654885
 10
3539.4914657222
 20
2485.4973934016
  0
LINE
  5
3B0
330
1F
100
AcDbEntity
  8
0
  6
PHANTOM
 62
     8
370
    18
100
AcDbLine
 10
3314.9850614986
 20
2868.2000850725
 30
0.0
 11
3314.9850614986
 21
2869.0380300067
 31
0.0
  0
LINE
  5
3B1
330
1F
100
AcDbEntity
  8
0
  6
PHANTOM
 62
     8
370
    18
100
AcDbLine
 10
3286.7007822811
 20
2866.5883862813
 30
0.0
 11
3286.7007822811
 21
2869.0380258486
 31
0.0
  0
LINE
  5
3B2
330
1F
100
AcDbEntity
  8
0
  6
PHANTOM
 62
     8
370
    18
100
AcDbLine
 10
3790.1608120496
 20
3142.5347189209
 30
0.0
 11
3790.1608120496
 21
3143.3511518809
 31
0.0
  0
LINE
  5
3B3
330
1F
100
AcDbEntity
  8
0
  6
PHANTOM
 62
     8
370
    18
100
AcDbLine
 10
2811.5250290959
 20
3140.9015096761
 30
0.0
 11
2811.5250290959
 21
3143.3511492435
 31
0.0
  0
LINE
  5
3B4
330
1F
100
AcDbEntity
  8
0
  6
PHANTOM
 62
     8
370
    18
100
AcDbLine
 10
3144.218774786
 20
3062.7304357428
 30
0.0
 11
3144.218774786
 21
3065.1800753102
 31
0.0
  0
LINE
  5
3B5
330
1F
100
AcDbEntity
  8
0
  6
PHANTOM
 62
     8
370
    18
100
AcDbLine
 10
3159.0680156737
 20
3071.302720041
 30
0.0
 11
3159.0680156737
 21
3073.7523596084
 31
0.0
  0
LINE
  5
3B6
330
1F
100
AcDbEntity
  8
0
  6
PHANTOM
 62
     8
370
    18
100
AcDbLine
 10
3435.5467689721
 20
3230.9105069729
 30
0.0
 11
3435.5467689721
 21
3233.3601465403
 31
0.0
  0
LINE
  5
3B7
330
1F
100
AcDbEntity
  8
0
  6
PHANTOM
 62
     8
370
    18
100
AcDbLine
 10
3450.3960098597
 20
3239.4827912711
 30
0.0
 11
3450.3960098597
 21
3241.9324308385
 31
0.0
  0
LINE
  5
3B8
330
1F
100
AcDbEntity
  8
0
  6
PHANTOM
 62
     8
370
    18
100
AcDbLine
 10
3819.1521796426
 20
2575.5389082972
 30
0.0
 11
3819.1521796426
 21
2577.9885478646
 31
0.0
  0
LINE
  5
3B9
330
1F
100
AcDbEntity
  8
0
  6
PHANTOM
 62
     8
370
    18
100
AcDbLine
 10
3790.8679142957
 20
2575.5388961318
 30
0.0
 11
3790.8679142957
 21
2577.9885356992
 31
0.0
  0
LINE
  5
3BA
330
1F
100
AcDbEntity
  8
0
  6
PHANTOM
 62
     8
370
    18
100
AcDbLine
 10
4294.3279301937
 20
2849.8520301714
 30
0.0
 11
4294.3279301937
 21
2852.3016697387
 31
0.0
  0
LINE
  5
3BB
330
1F
100
AcDbEntity
  8
0
  6
PHANTOM
 62
     8
370
    18
100
AcDbLine
 10
3315.6921611105
 20
2849.8520195266
 30
0.0
 11
3315.6921611105
 21
2852.301659094
 31
0.0
  0
LINE
  5
3BC
330
1F
100
AcDbEntity
  8
0
  6
PHANTOM
 62
     8
370
    18
100
AcDbLine
 10
3648.3859094349
 20
2771.6809440726
 30
0.0
 11
3648.3859094349
 21
2774.13058364
 31
0.0
  0
LINE
  5
3BD
330
1F
100
AcDbEntity
  8
0
  6
PHANTOM
 62
     8
370
    18
100
AcDbLine
 10
3663.2351503225
 20
2780.2532283709
 30
0.0
 11
3663.2351503225
 21
2782.7028679382
 31
0.0
  0
LINE
  5
3BE
330
1F
100
AcDbEntity
  8
0
  6
PHANTOM
 62
     8
370
    18
100
AcDbLine
 10
3939.7139036209
 20
2939.8610153028
 30
0.0
 11
3939.7139036209
 21
2942.3106548701
 31
0.0
  0
LINE
  5
3BF
330
1F
100
AcDbEntity
  8
0
  6
PHANTOM
 62
     8
370
    18
100
AcDbLine
 10
3954.5631445085
 20
2948.433299601
 30
0.0
 11
3954.5631445085
 21
2950.8829391684
 31
0.0
  0
ARC
  5
3C0
330
1F
100
AcDbEntity
  8
0
  6
PHANTOM
 62
     8
370
    18
100
AcDbCircle
 10
3003.0760842086
 20
2792.2190325732
 30
0.0
 40
6.032801974651166
100
AcDbArc
 50
1.8794997056
 51
58.2372272129
  0
ARC
  5
3C1
330
1F
100
AcDbEntity
  8
0
  6
PHANTOM
 62
     8
370
    18
100
AcDbCircle
 10
3005.5261406112
 20
2793.633917412
 30
0.0
 40
4.097820915759556
100
AcDbArc
 50
344.7783788796
 51
75.2158689576
  0
ARC
  5
3C2
330
1F
100
AcDbEntity
  8
0
  6
PHANTOM
 62
     8
370
    18
100
AcDbCircle
 10
3008.7834197295
 20
2793.7527943884
 30
0.0
 40
1.382299082279451
100
AcDbArc
 50
303.7511373905
 51
7.5257979127
  0
LWPOLYLINE
  5
3C3
330
1F
100
AcDbEntity
  8
0
  6
PHANTOM
 62
     8
370
    18
100
AcDbPolyline
 90
        8
 70
   128
 43
0.0
 10
3006.6529679963
 20
2797.6385087188
 10
3007.0727295341
 20
2797.7666587268
 10
3007.7430751596
 20
2797.6614248937
 10
3008.4564527175
 20
2797.2496007954
 10
3009.1267983431
 20
2796.5808700436
 10
3009.6732533075
 20
2795.7359314567
 10
3010.0299420864
 20
2794.8166200438
 10
3010.1538116742
 20
2793.9338376731
  0
ARC
  5
3C4
330
1F
100
AcDbEntity
  8
0
  6
PHANTOM
 62
     8
370
    18
100
AcDbCircle
 10
3533.4061700985
 20
2486.0659906396
 30
0.0
 40
6.032801974652383
100
AcDbArc
 50
1.8794997056
 51
58.2372272129
  0
ARC
  5
3C5
330
1F
100
AcDbEntity
  8
0
  6
PHANTOM
 62
     8
370
    18
100
AcDbCircle
 10
3535.8562265011
 20
2487.4808754785
 30
0.0
 40
4.097820915760129
100
AcDbArc
 50
344.7783788796
 51
75.2158689576
  0
ARC
  5
3C6
330
1F
100
AcDbEntity
  8
0
  6
PHANTOM
 62
     8
370
    18
100
AcDbCircle
 10
3539.1135056194
 20
2487.5997524549
 30
0.0
 40
1.382299082283566
100
AcDbArc
 50
303.7511373905
 51
7.5257979126
  0
LWPOLYLINE
  5
3C7
330
1F
100
AcDbEntity
  8
0
  6
PHANTOM
 62
     8
370
    18
100
AcDbPolyline
 90
        8
 70
   128
 43
0.0
 10
3536.9830538862
 20
2491.4854667853
 10
3537.402815424
 20
2491.6136167933
 10
3538.0731610495
 20
2491.5083829602
 10
3538.7865386074
 20
2491.0965588619
 10
3539.456884233
 20
2490.4278281101
 10
3540.0033391974
 20
2489.5828895232
 10
3540.3600279763
 20
2488.6635781103
 10
3540.4838975641
 20
2487.7807957396
  0
ENDSEC
  0
SECTION
  2
OBJECTS
  0
DICTIONARY
  5
C
330
0
100
AcDbDictionary
281
     1
  3
ACAD_GROUP
350
D
  3
ACAD_LAYOUT
350
1A
  3
ACAD_MLINESTYLE
350
17
  3
ACAD_PLOTSETTINGS
350
19
  3
ACAD_PLOTSTYLENAME
350
E
  3
ACAD_SCALELIST
350
47
  0
DICTIONARY
  5
D
102
{ACAD_REACTORS
330
C
102
}
330
C
100
AcDbDictionary
281
     1
  0
DICTIONARY
  5
1A
102
{ACAD_REACTORS
330
C
102
}
330
C
100
AcDbDictionary
281
     1
  3
Layout1
350
1E
  3
Layout2
350
26
  3
Model
350
22
  0
DICTIONARY
  5
17
102
{ACAD_REACTORS
330
C
102
}
330
C
100
AcDbDictionary
281
     1
  3
Standard
350
18
  0
DICTIONARY
  5
19
102
{ACAD_REACTORS
330
C
102
}
330
C
100
AcDbDictionary
281
     1
  0
ACDBDICTIONARYWDFLT
  5
E
102
{ACAD_REACTORS
330
C
102
}
330
C
100
AcDbDictionary
281
     1
  3
Normal
350
F
100
AcDbDictionaryWithDefault
340
F
  0
DICTIONARY
  5
47
102
{ACAD_REACTORS
330
C
102
}
330
C
100
AcDbDictionary
281
     1
  3
A0
350
48
  3
A1
350
49
  3
A2
350
4A
  3
A3
350
4B
  3
A4
350
4C
  3
A5
350
4D
  3
A6
350
4E
  3
A7
350
4F
  3
A8
350
50
  3
A9
350
51
  3
B0
350
52
  3
B1
350
53
  3
B2
350
54
  3
B3
350
55
  3
B4
350
56
  3
B5
350
57
  3
B6
350
58
  3
B7
350
59
  3
B8
350
5A
  3
B9
350
5B
  3
C0
350
5C
  3
C1
350
5D
  3
C2
350
5E
  3
C3
350
5F
  3
C4
350
60
  3
C5
350
61
  3
C6
350
62
  3
C7
350
63
  3
C8
350
64
  3
C9
350
65
  3
D0
350
66
  3
D1
350
67
  3
D2
350
68
  0
LAYOUT
  5
1E
102
{ACAD_REACTORS
330
1A
102
}
330
1A
100
AcDbPlotSettings
  1

  2
none_device
  4

  6

 40
0.0
 41
0.0
 42
0.0
 43
0.0
 44
0.0
 45
0.0
 46
0.0
 47
0.0
 48
0.0
 49
0.0
140
0.0
141
0.0
142
1.0
143
1.0
 70
   688
 72
     1
 73
     0
 74
     5
  7

 75
    16
147
1.0
148
0.0
149
0.0
100
AcDbLayout
  1
Layout1
 70
     1
 71
     1
 10
0.0
 20
0.0
 11
420.0
 21
297.0
 12
0.0
 22
0.0
 32
0.0
 14
1.0000000000E+20
 24
1.0000000000E+20
 34
1.0000000000E+20
 15
-1.0000000000E+20
 25
-1.0000000000E+20
 35
-1.0000000000E+20
146
0.0
 13
0.0
 23
0.0
 33
0.0
 16
1.0
 26
0.0
 36
0.0
 17
0.0
 27
1.0
 37
0.0
 76
     0
330
1B
  0
LAYOUT
  5
26
102
{ACAD_REACTORS
330
1A
102
}
330
1A
100
AcDbPlotSettings
  1

  2
none_device
  4

  6

 40
0.0
 41
0.0
 42
0.0
 43
0.0
 44
0.0
 45
0.0
 46
0.0
 47
0.0
 48
0.0
 49
0.0
140
0.0
141
0.0
142
1.0
143
1.0
 70
   688
 72
     1
 73
     0
 74
     5
  7

 75
    16
147
1.0
148
0.0
149
0.0
100
AcDbLayout
  1
Layout2
 70
     1
 71
     2
 10
0.0
 20
0.0
 11
0.0
 21
0.0
 12
0.0
 22
0.0
 32
0.0
 14
0.0
 24
0.0
 34
0.0
 15
0.0
 25
0.0
 35
0.0
146
0.0
 13
0.0
 23
0.0
 33
0.0
 16
1.0
 26
0.0
 36
0.0
 17
0.0
 27
1.0
 37
0.0
 76
     0
330
23
  0
LAYOUT
  5
22
102
{ACAD_REACTORS
330
1A
102
}
330
1A
100
AcDbPlotSettings
  1

  2
none_device
  4
Letter_(8.50_x_11.00_Inches)
  6

 40
6.35
 41
6.35
 42
6.35000508
 43
6.35000508
 44
215.9
 45
279.4
 46
0.0
 47
0.0
 48
0.0
 49
0.0
140
0.0
141
0.0
142
1.0
143
1.0
 70
  1712
 72
     1
 73
     0
 74
     0
  7

 75
     0
147
1.0
148
0.0
149
0.0
100
AcDbLayout
  1
Model
 70
     1
 71
     0
 10
0.0
 20
0.0
 11
5940.0
 21
4200.0
 12
0.0
 22
0.0
 32
0.0
 14
0.0
 24
0.0
 34
0.0
 15
5940.0
 25
4200.0
 35
0.0
146
0.0
 13
0.0
 23
0.0
 33
0.0
 16
1.0
 26
0.0
 36
0.0
 17
0.0
 27
1.0
 37
0.0
 76
     0
330
1F
331
29
  0
MLINESTYLE
  5
18
102
{ACAD_REACTORS
330
17
102
}
330
17
100
AcDbMlineStyle
  2
Standard
 70
     0
  3

 62
   256
 51
90.0
 52
90.0
 71
     2
 49
0.5
 62
   256
  6
BYLAYER
 49
-0.5
 62
   256
  6
BYLAYER
  0
ACDBPLACEHOLDER
  5
F
102
{ACAD_REACTORS
330
E
102
}
330
E
  0
SCALE
  5
48
102
{ACAD_REACTORS
330
47
102
}
330
47
100
AcDbScale
 70
     0
300
1:1
140
1.0
141
1.0
290
     1
  0
SCALE
  5
49
102
{ACAD_REACTORS
330
47
102
}
330
47
100
AcDbScale
 70
     0
300
1:2
140
1.0
141
2.0
290
     0
  0
SCALE
  5
4A
102
{ACAD_REACTORS
330
47
102
}
330
47
100
AcDbScale
 70
     0
300
1:4
140
1.0
141
4.0
290
     0
  0
SCALE
  5
4B
102
{ACAD_REACTORS
330
47
102
}
330
47
100
AcDbScale
 70
     0
300
1:5
140
1.0
141
5.0
290
     0
  0
SCALE
  5
4C
102
{ACAD_REACTORS
330
47
102
}
330
47
100
AcDbScale
 70
     0
300
1:8
140
1.0
141
8.0
290
     0
  0
SCALE
  5
4D
102
{ACAD_REACTORS
330
47
102
}
330
47
100
AcDbScale
 70
     0
300
1:10
140
1.0
141
10.0
290
     0
  0
SCALE
  5
4E
102
{ACAD_REACTORS
330
47
102
}
330
47
100
AcDbScale
 70
     0
300
1:16
140
1.0
141
16.0
290
     0
  0
SCALE
  5
4F
102
{ACAD_REACTORS
330
47
102
}
330
47
100
AcDbScale
 70
     0
300
1:20
140
1.0
141
20.0
290
     0
  0
SCALE
  5
50
102
{ACAD_REACTORS
330
47
102
}
330
47
100
AcDbScale
 70
     0
300
1:30
140
1.0
141
30.0
290
     0
  0
SCALE
  5
51
102
{ACAD_REACTORS
330
47
102
}
330
47
100
AcDbScale
 70
     0
300
1:40
140
1.0
141
40.0
290
     0
  0
SCALE
  5
52
102
{ACAD_REACTORS
330
47
102
}
330
47
100
AcDbScale
 70
     0
300
1:50
140
1.0
141
50.0
290
     0
  0
SCALE
  5
53
102
{ACAD_REACTORS
330
47
102
}
330
47
100
AcDbScale
 70
     0
300
1:100
140
1.0
141
100.0
290
     0
  0
SCALE
  5
54
102
{ACAD_REACTORS
330
47
102
}
330
47
100
AcDbScale
 70
     0
300
2:1
140
2.0
141
1.0
290
     0
  0
SCALE
  5
55
102
{ACAD_REACTORS
330
47
102
}
330
47
100
AcDbScale
 70
     0
300
4:1
140
4.0
141
1.0
290
     0
  0
SCALE
  5
56
102
{ACAD_REACTORS
330
47
102
}
330
47
100
AcDbScale
 70
     0
300
8:1
140
8.0
141
1.0
290
     0
  0
SCALE
  5
57
102
{ACAD_REACTORS
330
47
102
}
330
47
100
AcDbScale
 70
     0
300
10:1
140
10.0
141
1.0
290
     0
  0
SCALE
  5
58
102
{ACAD_REACTORS
330
47
102
}
330
47
100
AcDbScale
 70
     0
300
100:1
140
100.0
141
1.0
290
     0
  0
SCALE
  5
59
102
{ACAD_REACTORS
330
47
102
}
330
47
100
AcDbScale
 70
     0
300
1/128" = 1'-0"
140
0.0078125
141
12.0
290
     0
  0
SCALE
  5
5A
102
{ACAD_REACTORS
330
47
102
}
330
47
100
AcDbScale
 70
     0
300
1/64" = 1'-0"
140
0.015625
141
12.0
290
     0
  0
SCALE
  5
5B
102
{ACAD_REACTORS
330
47
102
}
330
47
100
AcDbScale
 70
     0
300
1/32" = 1'-0"
140
0.03125
141
12.0
290
     0
  0
SCALE
  5
5C
102
{ACAD_REACTORS
330
47
102
}
330
47
100
AcDbScale
 70
     0
300
1/16" = 1'-0"
140
0.0625
141
12.0
290
     0
  0
SCALE
  5
5D
102
{ACAD_REACTORS
330
47
102
}
330
47
100
AcDbScale
 70
     0
300
3/32" = 1'-0"
140
0.09375
141
12.0
290
     0
  0
SCALE
  5
5E
102
{ACAD_REACTORS
330
47
102
}
330
47
100
AcDbScale
 70
     0
300
1/8" = 1'-0"
140
0.125
141
12.0
290
     0
  0
SCALE
  5
5F
102
{ACAD_REACTORS
330
47
102
}
330
47
100
AcDbScale
 70
     0
300
3/16" = 1'-0"
140
0.1875
141
12.0
290
     0
  0
SCALE
  5
60
102
{ACAD_REACTORS
330
47
102
}
330
47
100
AcDbScale
 70
     0
300
1/4" = 1'-0"
140
0.25
141
12.0
290
     0
  0
SCALE
  5
61
102
{ACAD_REACTORS
330
47
102
}
330
47
100
AcDbScale
 70
     0
300
3/8" = 1'-0"
140
0.375
141
12.0
290
     0
  0
SCALE
  5
62
102
{ACAD_REACTORS
330
47
102
}
330
47
100
AcDbScale
 70
     0
300
1/2" = 1'-0"
140
0.5
141
12.0
290
     0
  0
SCALE
  5
63
102
{ACAD_REACTORS
330
47
102
}
330
47
100
AcDbScale
 70
     0
300
3/4" = 1'-0"
140
0.75
141
12.0
290
     0
  0
SCALE
  5
64
102
{ACAD_REACTORS
330
47
102
}
330
47
100
AcDbScale
 70
     0
300
1" = 1'-0"
140
1.0
141
12.0
290
     0
  0
SCALE
  5
65
102
{ACAD_REACTORS
330
47
102
}
330
47
100
AcDbScale
 70
     0
300
1-1/2" = 1'-0"
140
1.5
141
12.0
290
     0
  0
SCALE
  5
66
102
{ACAD_REACTORS
330
47
102
}
330
47
100
AcDbScale
 70
     0
300
3" = 1'-0"
140
3.0
141
12.0
290
     0
  0
SCALE
  5
67
102
{ACAD_REACTORS
330
47
102
}
330
47
100
AcDbScale
 70
     0
300
6" = 1'-0"
140
6.0
141
12.0
290
     0
  0
SCALE
  5
68
102
{ACAD_REACTORS
330
47
102
}
330
47
100
AcDbScale
 70
     0
300
1'-0" = 1'-0"
140
12.0
141
12.0
290
     0
  0
ENDSEC
  0
EOF
