  0
SECTION
  2
HEADER
  9
$ACADVER
  1
AC1015
  9
$ACADMAINTVER
 70
     6
  9
$DWGCODEPAGE
  3
ANSI_1252
  9
$INSBASE
 10
0.0
 20
0.0
 30
0.0
  9
$EXTMIN
 10
0.0
 20
0.0
 30
0.0
  9
$EXTMAX
 10
594.0
 20
420.0
 30
0.0
  9
$LIMMIN
 10
0.0
 20
0.0
  9
$LIMMAX
 10
594.0
 20
420.0
  9
$ORTHOMODE
 70
     0
  9
$REGENMODE
 70
     1
  9
$FILLMODE
 70
     1
  9
$QTEXTMODE
 70
     0
  9
$MIRRTEXT
 70
     1
  9
$LTSCALE
 40
1.0
  9
$ATTMODE
 70
     1
  9
$TEXTSIZE
 40
3.5
  9
$TRACEWID
 40
1.0
  9
$TEXTSTYLE
  7
Standard
  9
$CLAYER
  8
0
  9
$CELTYPE
  6
ByLayer
  9
$CECOLOR
 62
   256
  9
$CELTSCALE
 40
1.0
  9
$DISPSILH
 70
     0
  9
$DIMSCALE
 40
1.0
  9
$DIMASZ
 40
3.302
  9
$DIMEXO
 40
1.0
  9
$DIMDLI
 40
3.75
  9
$DIMRND
 40
0.0
  9
$DIMDLE
 40
0.0
  9
$DIMEXE
 40
1.0
  9
$DIMTP
 40
0.0
  9
$DIMTM
 40
0.0
  9
$DIMTXT
 40
3.5
  9
$DIMCEN
 40
2.5
  9
$DIMTSZ
 40
0.0
  9
$DIMTOL
 70
     0
  9
$DIMLIM
 70
     0
  9
$DIMTIH
 70
     1
  9
$DIMTOH
 70
     1
  9
$DIMSE1
 70
     0
  9
$DIMSE2
 70
     0
  9
$DIMTAD
 70
     1
  9
$DIMZIN
 70
     0
  9
$DIMBLK
  1

  9
$DIMASO
 70
     1
  9
$DIMSHO
 70
     1
  9
$DIMPOST
  1

  9
$DIMAPOST
  1

  9
$DIMALT
 70
     0
  9
$DIMALTD
 70
     3
  9
$DIMALTF
 40
0.0393700787
  9
$DIMLFAC
 40
10.0
  9
$DIMTOFL
 70
     1
  9
$DIMTVP
 40
0.0
  9
$DIMTIX
 70
     0
  9
$DIMSOXD
 70
     0
  9
$DIMSAH
 70
     0
  9
$DIMBLK1
  1

  9
$DIMBLK2
  1

  9
$DIMSTYLE
  2
ISO-25
  9
$DIMCLRD
 70
     0
  9
$DIMCLRE
 70
     0
  9
$DIMCLRT
 70
     0
  9
$DIMTFAC
 40
1.0
  9
$DIMGAP
 40
1.524
  9
$DIMJUST
 70
     0
  9
$DIMSD1
 70
     0
  9
$DIMSD2
 70
     0
  9
$DIMTOLJ
 70
     0
  9
$DIMTZIN
 70
     0
  9
$DIMALTZ
 70
     0
  9
$DIMALTTZ
 70
     0
  9
$DIMUPT
 70
     0
  9
$DIMDEC
 70
     2
  9
$DIMTDEC
 70
     2
  9
$DIMALTU
 70
     2
  9
$DIMALTTD
 70
     3
  9
$DIMTXSTY
  7
Standard
  9
$DIMAUNIT
 70
     0
  9
$DIMADEC
 70
     2
  9
$DIMALTRND
 40
0.0
  9
$DIMAZIN
 70
     0
  9
$DIMDSEP
 70
    44
  9
$DIMATFIT
 70
     3
  9
$DIMFRAC
 70
     0
  9
$DIMLDRBLK
  1

  9
$DIMLUNIT
 70
     2
  9
$DIMLWD
 70
    -2
  9
$DIMLWE
 70
    -2
  9
$DIMTMOVE
 70
     0
  9
$LUNITS
 70
     2
  9
$LUPREC
 70
     2
  9
$SKETCHINC
 40
1.0
  9
$FILLETRAD
 40
10.0
  9
$AUNITS
 70
     0
  9
$AUPREC
 70
     2
  9
$MENU
  1
.
  9
$ELEVATION
 40
0.0
  9
$PELEVATION
 40
0.0
  9
$THICKNESS
 40
0.0
  9
$LIMCHECK
 70
     0
  9
$CHAMFERA
 40
0.0
  9
$CHAMFERB
 40
0.0
  9
$CHAMFERC
 40
0.0
  9
$CHAMFERD
 40
0.0
  9
$SKPOLY
 70
     0
  9
$TDCREATE
 40
2458521.628656146
  9
$TDUCREATE
 40
2458521.586989479
  9
$TDUPDATE
 40
2458521.628657049
  9
$TDUUPDATE
 40
2458521.586990382
  9
$TDINDWG
 40
0.0000000116
  9
$TDUSRTIMER
 40
0.0000000116
  9
$USRTIMER
 70
     1
  9
$ANGBASE
 50
0.0
  9
$ANGDIR
 70
     0
  9
$PDMODE
 70
     0
  9
$PDSIZE
 40
-1.0
  9
$PLINEWID
 40
0.0
  9
$SPLFRAME
 70
     0
  9
$SPLINETYPE
 70
     6
  9
$SPLINESEGS
 70
     8
  9
$HANDSEED
  5
469
  9
$SURFTAB1
 70
     6
  9
$SURFTAB2
 70
     6
  9
$SURFTYPE
 70
     6
  9
$SURFU
 70
     6
  9
$SURFV
 70
     6
  9
$UCSBASE
  2

  9
$UCSNAME
  2

  9
$UCSORG
 10
0.0
 20
0.0
 30
0.0
  9
$UCSXDIR
 10
1.0
 20
0.0
 30
0.0
  9
$UCSYDIR
 10
0.0
 20
1.0
 30
0.0
  9
$UCSORTHOREF
  2

  9
$UCSORTHOVIEW
 70
     0
  9
$UCSORGTOP
 10
0.0
 20
0.0
 30
0.0
  9
$UCSORGBOTTOM
 10
0.0
 20
0.0
 30
0.0
  9
$UCSORGLEFT
 10
0.0
 20
0.0
 30
0.0
  9
$UCSORGRIGHT
 10
0.0
 20
0.0
 30
0.0
  9
$UCSORGFRONT
 10
0.0
 20
0.0
 30
0.0
  9
$UCSORGBACK
 10
0.0
 20
0.0
 30
0.0
  9
$PUCSBASE
  2

  9
$PUCSNAME
  2

  9
$PUCSORG
 10
0.0
 20
0.0
 30
0.0
  9
$PUCSXDIR
 10
1.0
 20
0.0
 30
0.0
  9
$PUCSYDIR
 10
0.0
 20
1.0
 30
0.0
  9
$PUCSORTHOREF
  2

  9
$PUCSORTHOVIEW
 70
     0
  9
$PUCSORGTOP
 10
0.0
 20
0.0
 30
0.0
  9
$PUCSORGBOTTOM
 10
0.0
 20
0.0
 30
0.0
  9
$PUCSORGLEFT
 10
0.0
 20
0.0
 30
0.0
  9
$PUCSORGRIGHT
 10
0.0
 20
0.0
 30
0.0
  9
$PUCSORGFRONT
 10
0.0
 20
0.0
 30
0.0
  9
$PUCSORGBACK
 10
0.0
 20
0.0
 30
0.0
  9
$USERI1
 70
     0
  9
$USERI2
 70
     0
  9
$USERI3
 70
     0
  9
$USERI4
 70
     0
  9
$USERI5
 70
     0
  9
$USERR1
 40
0.0
  9
$USERR2
 40
0.0
  9
$USERR3
 40
0.0
  9
$USERR4
 40
0.0
  9
$USERR5
 40
0.0
  9
$WORLDVIEW
 70
     1
  9
$SHADEDGE
 70
     3
  9
$SHADEDIF
 70
    70
  9
$TILEMODE
 70
     1
  9
$MAXACTVP
 70
    64
  9
$PINSBASE
 10
0.0
 20
0.0
 30
0.0
  9
$PLIMCHECK
 70
     0
  9
$PEXTMIN
 10
1.0000000000E+20
 20
1.0000000000E+20
 30
1.0000000000E+20
  9
$PEXTMAX
 10
-1.0000000000E+20
 20
-1.0000000000E+20
 30
-1.0000000000E+20
  9
$PLIMMIN
 10
0.0
 20
0.0
  9
$PLIMMAX
 10
420.0
 20
297.0
  9
$UNITMODE
 70
     0
  9
$VISRETAIN
 70
     1
  9
$PLINEGEN
 70
     0
  9
$PSLTSCALE
 70
     1
  9
$TREEDEPTH
 70
  3020
  9
$CMLSTYLE
  2
Standard
  9
$CMLJUST
 70
     0
  9
$CMLSCALE
 40
20.0
  9
$PROXYGRAPHICS
 70
     1
  9
$MEASUREMENT
 70
     1
  9
$CELWEIGHT
370
    -1
  9
$ENDCAPS
280
     0
  9
$JOINSTYLE
280
     0
  9
$LWDISPLAY
290
     1
  9
$INSUNITS
 70
     4
  9
$HYPERLINKBASE
  1

  9
$STYLESHEET
  1

  9
$XEDIT
290
     1
  9
$CEPSNTYPE
380
     0
  9
$PSTYLEMODE
290
     1
  9
$FINGERPRINTGUID
  2
{852F00C4-7A5D-4F86-B568-48E0B4723CEA}
  9
$VERSIONGUID
  2
{FAEB1C32-E019-11D5-929B-00C0DF256EC4}
  9
$EXTNAMES
290
     1
  9
$PSVPSCALE
 40
0.0
  9
$OLESTARTUP
290
     0
  0
ENDSEC
  0
SECTION
  2
CLASSES
  0
CLASS
  1
ACDBDICTIONARYWDFLT
  2
AcDbDictionaryWithDefault
  3
ObjectDBX Classes
 90
        0
280
     0
281
     0
  0
CLASS
  1
VISUALSTYLE
  2
AcDbVisualStyle
  3
ObjectDBX Classes
 90
     4095
280
     0
281
     0
  0
CLASS
  1
MATERIAL
  2
AcDbMaterial
  3
ObjectDBX Classes
 90
     1153
280
     0
281
     0
  0
CLASS
  1
SCALE
  2
AcDbScale
  3
ObjectDBX Classes
 90
     1153
280
     0
281
     0
  0
CLASS
  1
TABLESTYLE
  2
AcDbTableStyle
  3
ObjectDBX Classes
 90
     4095
280
     0
281
     0
  0
CLASS
  1
MLEADERSTYLE
  2
AcDbMLeaderStyle
  3
ACDB_MLEADERSTYLE_CLASS
 90
     4095
280
     0
281
     0
  0
CLASS
  1
SUN
  2
AcDbSun
  3
SCENEOE
 90
     1153
280
     0
281
     0
  0
CLASS
  1
ACDBPLACEHOLDER
  2
AcDbPlaceHolder
  3
ObjectDBX Classes
 90
        0
280
     0
281
     0
  0
CLASS
  1
LAYOUT
  2
AcDbLayout
  3
ObjectDBX Classes
 90
        0
280
     0
281
     0
  0
ENDSEC
  0
SECTION
  2
TABLES
  0
TABLE
  2
VPORT
  5
8
330
0
100
AcDbSymbolTable
 70
     1
  0
VPORT
  5
29
330
8
100
AcDbSymbolTableRecord
100
AcDbViewportTableRecord
  2
*Active
 70
     0
 10
0.0
 20
0.0
 11
1.0
 21
1.0
 12
297.0
 22
210.0
 13
0.0
 23
0.0
 14
10.0
 24
10.0
 15
10.0
 25
10.0
 16
0.0
 26
0.0
 36
1.0
 17
0.0
 27
0.0
 37
0.0
 40
420.0
 41
1.4142857143
 42
50.0
 43
0.0
 44
0.0
 50
0.0
 51
0.0
 71
     0
 72
  2000
 73
     1
 74
     3
 75
     0
 76
     0
 77
     0
 78
     0
281
     0
 65
     1
110
0.0
120
0.0
130
0.0
111
1.0
121
0.0
131
0.0
112
0.0
122
1.0
132
0.0
 79
     0
146
0.0
  0
ENDTAB
  0
TABLE
  2
LTYPE
  5
5
330
0
100
AcDbSymbolTable
 70
     6
  0
LTYPE
  5
14
330
5
100
AcDbSymbolTableRecord
100
AcDbLinetypeTableRecord
  2
ByBlock
 70
     0
  3

 72
    65
 73
     0
 40
0.0
  0
LTYPE
  5
15
330
5
100
AcDbSymbolTableRecord
100
AcDbLinetypeTableRecord
  2
ByLayer
 70
     0
  3

 72
    65
 73
     0
 40
0.0
  0
LTYPE
  5
16
330
5
100
AcDbSymbolTableRecord
100
AcDbLinetypeTableRecord
  2
Continuous
 70
     0
  3
Solid line
 72
    65
 73
     0
 40
0.0
  0
LTYPE
  5
6E
330
5
100
AcDbSymbolTableRecord
100
AcDbLinetypeTableRecord
  2
HIDDEN
 70
     0
  3
Hidden __ __ __ __ __ __ __ __ __ __ __ __ __ __
 72
    65
 73
     2
 40
1.905
 49
1.27
 74
     0
 49
-0.635
 74
     0
  0
LTYPE
  5
6F
330
5
100
AcDbSymbolTableRecord
100
AcDbLinetypeTableRecord
  2
PHANTOM
 70
     0
  3
Phantom ______  __  __  ______  __  __  ______
 72
    65
 73
     6
 40
12.7
 49
6.35
 74
     0
 49
-1.27
 74
     0
 49
1.27
 74
     0
 49
-1.27
 74
     0
 49
1.27
 74
     0
 49
-1.27
 74
     0
  0
LTYPE
  5
70
330
5
100
AcDbSymbolTableRecord
100
AcDbLinetypeTableRecord
  2
CENTER
 70
     0
  3
Center ____ _ ____ _ ____ _ ____ _ ____ _ ____
 72
    65
 73
     4
 40
10.16
 49
6.35
 74
     0
 49
-1.27
 74
     0
 49
1.27
 74
     0
 49
-1.27
 74
     0
  0
LTYPE
  5
71
330
5
100
AcDbSymbolTableRecord
100
AcDbLinetypeTableRecord
  2
CENTERX2
 70
     0
  3
Center (2x) ________  __  ________  __  _____
 72
    65
 73
     4
 40
20.32
 49
12.7
 74
     0
 49
-2.54
 74
     0
 49
2.54
 74
     0
 49
-2.54
 74
     0
  0
LTYPE
  5
72
330
5
100
AcDbSymbolTableRecord
100
AcDbLinetypeTableRecord
  2
DOT2
 70
     0
  3
Dot (.5x) ........................................
 72
    65
 73
     2
 40
0.635
 49
0.0
 74
     0
 49
-0.635
 74
     0
  0
ENDTAB
  0
TABLE
  2
LAYER
  5
2
330
0
100
AcDbSymbolTable
 70
    37
  0
LAYER
  5
10
330
2
100
AcDbSymbolTableRecord
100
AcDbLayerTableRecord
  2
0
 70
     0
 62
     7
  6
Continuous
370
    -3
390
F
  0
LAYER
  5
73
330
2
100
AcDbSymbolTableRecord
100
AcDbLayerTableRecord
  2
SLD-0
 70
     0
 62
     7
  6
Continuous
370
    -3
390
F
  0
LAYER
  5
74
330
2
100
AcDbSymbolTableRecord
100
AcDbLayerTableRecord
  2
RAHMEN025
 70
     0
 62
     7
  6
Continuous
370
    -3
390
F
  0
LAYER
  5
75
330
2
100
AcDbSymbolTableRecord
100
AcDbLayerTableRecord
  2
RAHMEN07
 70
     0
 62
     5
  6
Continuous
370
    -3
390
F
  0
LAYER
  5
76
330
2
100
AcDbSymbolTableRecord
100
AcDbLayerTableRecord
  2
RAHMEN05
 70
     0
 62
     6
  6
Continuous
370
    -3
390
F
  0
LAYER
  5
77
330
2
100
AcDbSymbolTableRecord
100
AcDbLayerTableRecord
  2
TB
 70
     0
 62
     7
  6
Continuous
370
    -3
390
F
  0
LAYER
  5
78
330
2
100
AcDbSymbolTableRecord
100
AcDbLayerTableRecord
  2
1-VIDNO
 70
     0
 62
     5
  6
Continuous
370
    -3
390
F
  0
LAYER
  5
79
330
2
100
AcDbSymbolTableRecord
100
AcDbLayerTableRecord
  2
2-NEVIDNO
 70
     0
 62
     5
  6
HIDDEN
370
    -3
390
F
  0
LAYER
  5
7A
330
2
100
AcDbSymbolTableRecord
100
AcDbLayerTableRecord
  2
O-GLAVE
 70
     0
 62
     5
  6
Continuous
370
    -3
390
F
  0
LAYER
  5
7B
330
2
100
AcDbSymbolTableRecord
100
AcDbLayerTableRecord
  2
O-TEKST
 70
     0
 62
     7
  6
Continuous
370
    -3
390
F
  0
LAYER
  5
7C
330
2
100
AcDbSymbolTableRecord
100
AcDbLayerTableRecord
  2
O-ZUNANJI
 70
     0
 62
     7
  6
Continuous
370
    -3
390
F
  0
LAYER
  5
7D
330
2
100
AcDbSymbolTableRecord
100
AcDbLayerTableRecord
  2
SLD-DEFPOINTS
 70
     0
 62
     7
  6
Continuous
370
    -3
390
F
  0
LAYER
  5
7E
330
2
100
AcDbSymbolTableRecord
100
AcDbLayerTableRecord
  2
3-POMOZNO
 70
     0
 62
     4
  6
Continuous
370
    -3
390
F
  0
LAYER
  5
7F
330
2
100
AcDbSymbolTableRecord
100
AcDbLayerTableRecord
  2
4-SREDNJICA
 70
     0
 62
     1
  6
CENTER
370
    -3
390
F
  0
LAYER
  5
80
330
2
100
AcDbSymbolTableRecord
100
AcDbLayerTableRecord
  2
5-SRAFURA
 70
     0
 62
     7
  6
Continuous
370
    -3
390
F
  0
LAYER
  5
81
330
2
100
AcDbSymbolTableRecord
100
AcDbLayerTableRecord
  2
6-KOTE
 70
     0
 62
     7
  6
Continuous
370
    -3
390
F
  0
LAYER
  5
82
330
2
100
AcDbSymbolTableRecord
100
AcDbLayerTableRecord
  2
7-TEKST
 70
     0
 62
     7
  6
Continuous
370
    -3
390
F
  0
LAYER
  5
83
330
2
100
AcDbSymbolTableRecord
100
AcDbLayerTableRecord
  2
8-VARJENJA
 70
     0
 62
     1
  6
Continuous
370
    -3
390
F
  0
LAYER
  5
84
330
2
100
AcDbSymbolTableRecord
100
AcDbLayerTableRecord
  2
BEMASSUNG
 70
     0
 62
     7
  6
Continuous
370
    -3
390
F
  0
LAYER
  5
85
330
2
100
AcDbSymbolTableRecord
100
AcDbLayerTableRecord
  2
UMRISS03
 70
     0
 62
     7
  6
Continuous
370
    -3
390
F
  0
LAYER
  5
86
330
2
100
AcDbSymbolTableRecord
100
AcDbLayerTableRecord
  2
UMRISS02
 70
     0
 62
     7
  6
Continuous
370
    -3
390
F
  0
LAYER
  5
87
330
2
100
AcDbSymbolTableRecord
100
AcDbLayerTableRecord
  2
HILFSLINIEN
 70
     0
 62
     7
  6
Continuous
370
    -3
390
F
  0
LAYER
  5
88
330
2
100
AcDbSymbolTableRecord
100
AcDbLayerTableRecord
  2
UMRISS03_-PSPAC_
 70
     0
 62
     7
  6
Continuous
370
    -3
390
F
  0
LAYER
  5
89
330
2
100
AcDbSymbolTableRecord
100
AcDbLayerTableRecord
  2
ACA_VARSAVE
 70
     0
 62
     7
  6
Continuous
370
    -3
390
F
  0
LAYER
  5
8A
330
2
100
AcDbSymbolTableRecord
100
AcDbLayerTableRecord
  2
KONTUREN
 70
     0
 62
     7
  6
Continuous
370
    -3
390
F
  0
LAYER
  5
8B
330
2
100
AcDbSymbolTableRecord
100
AcDbLayerTableRecord
  2
ACHSE
 70
     0
 62
     7
  6
Continuous
370
    -3
390
F
  0
LAYER
  5
8C
330
2
100
AcDbSymbolTableRecord
100
AcDbLayerTableRecord
  2
UNSICHTBAR
 70
     0
 62
     7
  6
Continuous
370
    -3
390
F
  0
LAYER
  5
8D
330
2
100
AcDbSymbolTableRecord
100
AcDbLayerTableRecord
  2
MASSE
 70
     0
 62
     7
  6
Continuous
370
    -3
390
F
  0
LAYER
  5
8E
330
2
100
AcDbSymbolTableRecord
100
AcDbLayerTableRecord
  2
RAND
 70
     0
 62
     7
  6
Continuous
370
    -3
390
F
  0
LAYER
  5
8F
330
2
100
AcDbSymbolTableRecord
100
AcDbLayerTableRecord
  2
D-TEXT
 70
     0
 62
     7
  6
Continuous
370
    -3
390
F
  0
LAYER
  5
90
330
2
100
AcDbSymbolTableRecord
100
AcDbLayerTableRecord
  2
F-TEXT
 70
     0
 62
     7
  6
Continuous
370
    -3
390
F
  0
LAYER
  5
91
330
2
100
AcDbSymbolTableRecord
100
AcDbLayerTableRecord
  2
I-TEXT
 70
     0
 62
     7
  6
Continuous
370
    -3
390
F
  0
LAYER
  5
92
330
2
100
AcDbSymbolTableRecord
100
AcDbLayerTableRecord
  2
D-TEXT-FETT
 70
     0
 62
     7
  6
Continuous
370
    -3
390
F
  0
LAYER
  5
93
330
2
100
AcDbSymbolTableRecord
100
AcDbLayerTableRecord
  2
F-TEXT-FETT
 70
     0
 62
     7
  6
Continuous
370
    -3
390
F
  0
LAYER
  5
94
330
2
100
AcDbSymbolTableRecord
100
AcDbLayerTableRecord
  2
I-TEXT-FETT
 70
     0
 62
     7
  6
Continuous
370
    -3
390
F
  0
LAYER
  5
95
330
2
100
AcDbSymbolTableRecord
100
AcDbLayerTableRecord
  2
TEXT-D-F-I
 70
     0
 62
     7
  6
Continuous
370
    -3
390
F
  0
LAYER
  5
96
330
2
100
AcDbSymbolTableRecord
100
AcDbLayerTableRecord
  2
TEXT-D-F-I-FETT
 70
     0
 62
     7
  6
Continuous
370
    -3
390
F
  0
ENDTAB
  0
TABLE
  2
STYLE
  5
3
330
0
100
AcDbSymbolTable
 70
     2
  0
STYLE
  5
11
330
3
100
AcDbSymbolTableRecord
100
AcDbTextStyleTableRecord
  2
Standard
 70
     0
 40
0.0
 41
1.0
 50
0.0
 71
     0
 42
3.5
  3
txt
  4

  0
STYLE
  5
C6
330
3
100
AcDbSymbolTableRecord
100
AcDbTextStyleTableRecord
  2
SLDTEXTSTYLE0
 70
     0
 40
0.0
 41
0.75
 50
0.0
 71
     0
 42
3.5
  3
TXT
  4

  0
ENDTAB
  0
TABLE
  2
VIEW
  5
6
330
0
100
AcDbSymbolTable
 70
     0
  0
ENDTAB
  0
TABLE
  2
UCS
  5
7
330
0
100
AcDbSymbolTable
 70
     0
  0
ENDTAB
  0
TABLE
  2
APPID
  5
9
330
0
100
AcDbSymbolTable
 70
     1
  0
APPID
  5
12
330
9
100
AcDbSymbolTableRecord
100
AcDbRegAppTableRecord
  2
ACAD
 70
     0
  0
ENDTAB
  0
TABLE
  2
DIMSTYLE
  5
A
330
0
100
AcDbSymbolTable
 70
     1
100
AcDbDimStyleTable
  0
DIMSTYLE
105
27
330
A
100
AcDbSymbolTableRecord
100
AcDbDimStyleTableRecord
  2
ISO-25
 70
     0
 41
2.5
 42
0.625
 43
3.75
 44
1.25
 73
     0
 74
     0
 77
     1
 78
     8
140
2.5
141
2.5
143
0.0393700787
147
0.625
171
     3
172
     1
178
     0
271
     2
272
     2
274
     3
278
    44
283
     0
284
     8
340
11
  0
ENDTAB
  0
TABLE
  2
BLOCK_RECORD
  5
1
330
0
100
AcDbSymbolTable
 70
     3
  0
BLOCK_RECORD
  5
1F
330
1
100
AcDbSymbolTableRecord
100
AcDbBlockTableRecord
  2
*Model_Space
340
22
  0
BLOCK_RECORD
  5
1B
330
1
100
AcDbSymbolTableRecord
100
AcDbBlockTableRecord
  2
*Paper_Space
340
1E
  0
BLOCK_RECORD
  5
23
330
1
100
AcDbSymbolTableRecord
100
AcDbBlockTableRecord
  2
*Paper_Space0
340
26
  0
BLOCK_RECORD
  5
17E
330
1
100
AcDbSymbolTableRecord
100
AcDbBlockTableRecord
  2
SW_NOTE_0
340
0
102
{BLKREFS
331
183
102
}
  0
BLOCK_RECORD
  5
267
330
1
100
AcDbSymbolTableRecord
100
AcDbBlockTableRecord
  2
SW_NOTE_1
340
0
102
{BLKREFS
331
26C
102
}
  0
ENDTAB
  0
ENDSEC
  0
SECTION
  2
BLOCKS
  0
BLOCK
  5
20
330
1F
100
AcDbEntity
  8
0
100
AcDbBlockBegin
  2
*Model_Space
 70
     0
 10
0.0
 20
0.0
 30
0.0
  3
*Model_Space
  1

  0
ENDBLK
  5
21
330
1F
100
AcDbEntity
  8
0
100
AcDbBlockEnd
  0
BLOCK
  5
1C
330
1B
100
AcDbEntity
 67
     1
  8
0
100
AcDbBlockBegin
  2
*Paper_Space
 70
     0
 10
0.0
 20
0.0
 30
0.0
  3
*Paper_Space
  1

  0
ENDBLK
  5
1D
330
1B
100
AcDbEntity
 67
     1
  8
0
100
AcDbBlockEnd
  0
BLOCK
  5
24
330
23
100
AcDbEntity
  8
0
100
AcDbBlockBegin
  2
*Paper_Space0
 70
     0
 10
0.0
 20
0.0
 30
0.0
  3
*Paper_Space0
  1

  0
ENDBLK
  5
25
330
23
100
AcDbEntity
  8
0
100
AcDbBlockEnd
  0
BLOCK
  5
17F
330
17E
100
AcDbEntity
  8
0
100
AcDbBlockBegin
  2
SW_NOTE_0
 70
     0
 10
0.0
 20
0.0
 30
0.0
  3
SW_NOTE_0
  1

  0
MTEXT
  5
181
330
17E
100
AcDbEntity
  8
O-TEKST
 62
     0
100
AcDbMText
 10
16.0734375
 20
8.1855801476
 30
0.0
 40
6.35
 41
0.0
 71
     2
 72
     1
  1
SCHNITT
  7
SLDTEXTSTYLE0
 73
     1
 44
1.0
  0
MTEXT
  5
182
330
17E
100
AcDbEntity
  8
O-TEKST
 62
     0
100
AcDbMText
 10
38.5538176
 20
5.3469457771
 30
0.0
 40
3.5
 41
0.0
 71
     2
 72
     1
  1
A-A
  7
SLDTEXTSTYLE0
 73
     1
 44
1.0
  0
ENDBLK
  5
180
330
17E
100
AcDbEntity
  8
0
100
AcDbBlockEnd
  0
BLOCK
  5
268
330
267
100
AcDbEntity
  8
0
100
AcDbBlockBegin
  2
SW_NOTE_1
 70
     0
 10
0.0
 20
0.0
 30
0.0
  3
SW_NOTE_1
  1

  0
MTEXT
  5
26A
330
267
100
AcDbEntity
  8
O-TEKST
 62
     0
100
AcDbMText
 10
16.0734375
 20
8.1855801476
 30
0.0
 40
6.35
 41
0.0
 71
     2
 72
     1
  1
SCHNITT
  7
SLDTEXTSTYLE0
 73
     1
 44
1.0
  0
MTEXT
  5
26B
330
267
100
AcDbEntity
  8
O-TEKST
 62
     0
100
AcDbMText
 10
38.0069426
 20
5.3469457771
 30
0.0
 40
3.5
 41
0.0
 71
     2
 72
     1
  1
B-B
  7
SLDTEXTSTYLE0
 73
     1
 44
1.0
  0
ENDBLK
  5
269
330
267
100
AcDbEntity
  8
0
100
AcDbBlockEnd
  0
ENDSEC
  0
SECTION
  2
ENTITIES
  0
LINE
  5
97
330
1F
100
AcDbEntity
  8
0
  6
Continuous
 62
     7
370
    25
100
AcDbLine
 10
60.7366949776
 20
70.5254545343
 30
0.0
 11
61.1621946553
 21
70.5254545343
 31
0.0
  0
ARC
  5
98
330
1F
100
AcDbEntity
  8
0
  6
Continuous
 62
     7
370
    25
100
AcDbCircle
 10
60.7366948941
 20
70.0254545455
 30
0.0
 40
0.5
100
AcDbArc
 50
90.0
 51
270.0
  0
LINE
  5
99
330
1F
100
AcDbEntity
  8
0
  6
Continuous
 62
     7
370
    25
100
AcDbLine
 10
61.1621946553
 20
69.5254545566
 30
0.0
 11
60.7366949776
 21
69.5254545566
 31
0.0
  0
ARC
  5
9A
330
1F
100
AcDbEntity
  8
0
  6
Continuous
 62
     7
370
    25
100
AcDbCircle
 10
61.7866948941
 20
70.0254545455
 30
0.0
 40
0.7999999999999993
100
AcDbArc
 50
218.6821874535
 51
321.3178125465
  0
LINE
  5
9B
330
1F
100
AcDbEntity
  8
0
  6
Continuous
 62
     7
370
    25
100
AcDbLine
 10
62.836694763
 20
69.5254545566
 30
0.0
 11
62.4111950854
 21
69.5254545566
 31
0.0
  0
ARC
  5
9C
330
1F
100
AcDbEntity
  8
0
  6
Continuous
 62
     7
370
    25
100
AcDbCircle
 10
62.8366948941
 20
70.0254545455
 30
0.0
 40
0.5
100
AcDbArc
 50
270.0
 51
90.0
  0
LINE
  5
9D
330
1F
100
AcDbEntity
  8
0
  6
Continuous
 62
     7
370
    25
100
AcDbLine
 10
62.4111950854
 20
70.5254545343
 30
0.0
 11
62.836694763
 21
70.5254545343
 31
0.0
  0
ARC
  5
9E
330
1F
100
AcDbEntity
  8
0
  6
Continuous
 62
     7
370
    25
100
AcDbCircle
 10
61.7866948941
 20
70.0254545455
 30
0.0
 40
0.8000000000000081
100
AcDbArc
 50
38.6821874535
 51
141.3178125465
  0
ARC
  5
9F
330
1F
100
AcDbEntity
  8
0
  6
Continuous
 62
     7
370
    25
100
AcDbCircle
 10
101.9366948941
 20
70.0254545455
 30
0.0
 40
0.5
100
AcDbArc
 50
90.0
 51
270.0
  0
LINE
  5
A0
330
1F
100
AcDbEntity
  8
0
  6
Continuous
 62
     7
370
    25
100
AcDbLine
 10
101.9366950253
 20
69.5254545566
 30
0.0
 11
102.3621947029
 21
69.5254545566
 31
0.0
  0
ARC
  5
A1
330
1F
100
AcDbEntity
  8
0
  6
Continuous
 62
     7
370
    25
100
AcDbCircle
 10
102.9866948941
 20
70.0254545455
 30
0.0
 40
0.7999999999999993
100
AcDbArc
 50
218.6821874535
 51
321.3178125465
  0
LINE
  5
A2
330
1F
100
AcDbEntity
  8
0
  6
Continuous
 62
     7
370
    25
100
AcDbLine
 10
103.611195133
 20
69.5254545566
 30
0.0
 11
104.0366948107
 21
69.5254545566
 31
0.0
  0
ARC
  5
A3
330
1F
100
AcDbEntity
  8
0
  6
Continuous
 62
     7
370
    25
100
AcDbCircle
 10
104.0366948941
 20
70.0254545455
 30
0.0
 40
0.5
100
AcDbArc
 50
270.0
 51
90.0
  0
LINE
  5
A4
330
1F
100
AcDbEntity
  8
0
  6
Continuous
 62
     7
370
    25
100
AcDbLine
 10
104.0366948107
 20
70.5254545343
 30
0.0
 11
103.611195133
 21
70.5254545343
 31
0.0
  0
ARC
  5
A5
330
1F
100
AcDbEntity
  8
0
  6
Continuous
 62
     7
370
    25
100
AcDbCircle
 10
102.9866948941
 20
70.0254545455
 30
0.0
 40
0.7999999999999993
100
AcDbArc
 50
38.6821874535
 51
141.3178125465
  0
LINE
  5
A6
330
1F
100
AcDbEntity
  8
0
  6
Continuous
 62
     7
370
    25
100
AcDbLine
 10
102.3621947029
 20
70.5254545343
 30
0.0
 11
101.9366950253
 21
70.5254545343
 31
0.0
  0
ARC
  5
A7
330
1F
100
AcDbEntity
  8
0
  6
Continuous
 62
     7
370
    25
100
AcDbCircle
 10
115.9866948941
 20
36.4254545455
 30
0.0
 40
2.0
100
AcDbArc
 50
270.0
 51
0.0
  0
LINE
  5
A8
330
1F
100
AcDbEntity
  8
0
  6
Continuous
 62
     7
370
    25
100
AcDbLine
 10
115.9866944412
 20
34.4254539256
 30
0.0
 11
48.7866953471
 21
34.4254539256
 31
0.0
  0
ARC
  5
A9
330
1F
100
AcDbEntity
  8
0
  6
Continuous
 62
     7
370
    25
100
AcDbCircle
 10
48.7866948941
 20
36.4254545455
 30
0.0
 40
2.0
100
AcDbArc
 50
180.0
 51
270.0
  0
ARC
  5
AA
330
1F
100
AcDbEntity
  8
0
  6
Continuous
 62
     7
370
    25
100
AcDbCircle
 10
48.7866948941
 20
103.6254545455
 30
0.0
 40
2.0
100
AcDbArc
 50
90.0
 51
180.0
  0
LINE
  5
AB
330
1F
100
AcDbEntity
  8
0
  6
Continuous
 62
     7
370
    25
100
AcDbLine
 10
46.7866942743
 20
36.4254549984
 30
0.0
 11
46.7866942743
 21
103.6254540925
 31
0.0
  0
LINE
  5
AC
330
1F
100
AcDbEntity
  8
0
  6
Continuous
 62
     7
370
    25
100
AcDbLine
 10
117.986695514
 20
103.6254540925
 30
0.0
 11
117.986695514
 21
36.4254549984
 31
0.0
  0
ARC
  5
AD
330
1F
100
AcDbEntity
  8
0
  6
Continuous
 62
     7
370
    25
100
AcDbCircle
 10
115.9866948941
 20
103.6254545455
 30
0.0
 40
2.0
100
AcDbArc
 50
0.0
 51
90.0
  0
LINE
  5
AE
330
1F
100
AcDbEntity
  8
0
  6
Continuous
 62
     7
370
    25
100
AcDbLine
 10
48.7866953471
 20
105.6254551653
 30
0.0
 11
115.9866944412
 21
105.6254551653
 31
0.0
  0
LINE
  5
AF
330
1F
100
AcDbEntity
  8
0
  6
Continuous
 62
     7
370
    25
100
AcDbLine
 10
46.5866938689
 20
105.8254555707
 30
0.0
 11
46.5866938689
 21
34.2254535203
 31
0.0
  0
LINE
  5
B0
330
1F
100
AcDbEntity
  8
0
  6
Continuous
 62
     7
370
    25
100
AcDbLine
 10
46.5866938689
 20
105.8254555707
 30
0.0
 11
118.1866959193
 21
105.8254555707
 31
0.0
  0
LINE
  5
B1
330
1F
100
AcDbEntity
  8
0
  6
Continuous
 62
     7
370
    25
100
AcDbLine
 10
118.1866959193
 20
105.8254555707
 30
0.0
 11
118.1866959193
 21
34.2254535203
 31
0.0
  0
LINE
  5
B2
330
1F
100
AcDbEntity
  8
0
  6
Continuous
 62
     7
370
    25
100
AcDbLine
 10
46.5866938689
 20
34.2254535203
 30
0.0
 11
118.1866959193
 21
34.2254535203
 31
0.0
  0
LINE
  5
B3
330
1F
100
AcDbEntity
  8
0
  6
Continuous
 62
     7
370
    25
100
AcDbLine
 10
46.3866934636
 20
106.025455976
 30
0.0
 11
46.5866938689
 21
105.8254555707
 31
0.0
  0
LINE
  5
B4
330
1F
100
AcDbEntity
  8
0
  6
Continuous
 62
     7
370
    25
100
AcDbLine
 10
118.3866963247
 20
106.025455976
 30
0.0
 11
46.3866934636
 21
106.025455976
 31
0.0
  0
LINE
  5
B5
330
1F
100
AcDbEntity
  8
0
  6
Continuous
 62
     7
370
    25
100
AcDbLine
 10
118.1866959193
 20
105.8254555707
 30
0.0
 11
118.3866963247
 21
106.025455976
 31
0.0
  0
LINE
  5
B6
330
1F
100
AcDbEntity
  8
0
  6
Continuous
 62
     7
370
    25
100
AcDbLine
 10
118.3866963247
 20
34.0254531149
 30
0.0
 11
118.3866963247
 21
106.025455976
 31
0.0
  0
LINE
  5
B7
330
1F
100
AcDbEntity
  8
0
  6
Continuous
 62
     7
370
    25
100
AcDbLine
 10
118.1866959193
 20
34.2254535203
 30
0.0
 11
118.3866963247
 21
34.0254531149
 31
0.0
  0
LINE
  5
B8
330
1F
100
AcDbEntity
  8
0
  6
Continuous
 62
     7
370
    25
100
AcDbLine
 10
46.3866934636
 20
34.0254531149
 30
0.0
 11
46.5866938689
 21
34.2254535203
 31
0.0
  0
LINE
  5
B9
330
1F
100
AcDbEntity
  8
0
  6
Continuous
 62
     7
370
    25
100
AcDbLine
 10
46.3866934636
 20
106.025455976
 30
0.0
 11
46.3866934636
 21
34.0254531149
 31
0.0
  0
LINE
  5
BA
330
1F
100
AcDbEntity
  8
0
  6
Continuous
 62
     7
370
    25
100
AcDbLine
 10
46.3866934636
 20
34.0254531149
 30
0.0
 11
118.3866963247
 21
34.0254531149
 31
0.0
  0
LINE
  5
BB
330
1F
100
AcDbEntity
  8
0
  6
Continuous
 62
     7
370
    25
100
AcDbLine
 10
122.3866954902
 20
30.0254539494
 30
0.0
 11
122.3866954902
 21
110.0254551415
 31
0.0
  0
LINE
  5
BC
330
1F
100
AcDbEntity
  8
0
  6
Continuous
 62
     7
370
    25
100
AcDbLine
 10
42.3866942981
 20
30.0254539494
 30
0.0
 11
122.3866954902
 21
30.0254539494
 31
0.0
  0
LINE
  5
BD
330
1F
100
AcDbEntity
  8
0
  6
Continuous
 62
     7
370
    25
100
AcDbLine
 10
42.3866942981
 20
110.0254551415
 30
0.0
 11
42.3866942981
 21
30.0254539494
 31
0.0
  0
LINE
  5
BE
330
1F
100
AcDbEntity
  8
0
  6
Continuous
 62
     7
370
    25
100
AcDbLine
 10
122.3866954902
 20
110.0254551415
 30
0.0
 11
42.3866942981
 21
110.0254551415
 31
0.0
  0
LINE
  5
BF
330
1F
100
AcDbEntity
  8
0
  6
Continuous
 62
     7
370
    25
100
AcDbLine
 10
62.3866945961
 20
70.5546047912
 30
0.0
 11
62.3866945961
 21
69.4963042997
 31
0.0
  0
LINE
  5
C0
330
1F
100
AcDbEntity
  8
0
  6
Continuous
 62
     7
370
    25
100
AcDbLine
 10
102.3866951922
 20
69.4963042997
 30
0.0
 11
102.3866951922
 21
70.5546047912
 31
0.0
  0
LINE
  5
C1
330
1F
100
AcDbEntity
  8
0
  6
PHANTOM
 62
     7
370
    35
100
AcDbLine
 10
82.3866948941
 20
120.5152510302
 30
0.0
 11
82.3866948941
 21
19.5356580607
 31
0.0
  0
LINE
  5
C2
330
1F
100
AcDbEntity
  8
0
  6
Continuous
 62
     7
370
    35
100
AcDbLine
 10
70.3866948941
 20
118.5152510302
 30
0.0
 11
82.3866948941
 21
118.5152510302
 31
0.0
  0
SOLID
  5
C3
330
1F
100
AcDbEntity
  8
0
  6
Continuous
 62
     7
370
    35
100
AcDbTrace
 10
82.3866948941
 20
118.5152510302
 30
0.0
 11
76.3866948941
 21
120.0152510302
 31
0.0
 12
76.3866948941
 22
117.0152510302
 32
0.0
 13
76.3866948941
 23
117.0152510302
 33
0.0
  0
LINE
  5
C4
330
1F
100
AcDbEntity
  8
0
  6
Continuous
 62
     7
370
    35
100
AcDbLine
 10
70.3866948941
 20
21.5356580607
 30
0.0
 11
82.3866948941
 21
21.5356580607
 31
0.0
  0
SOLID
  5
C5
330
1F
100
AcDbEntity
  8
0
  6
Continuous
 62
     7
370
    35
100
AcDbTrace
 10
82.3866948941
 20
21.5356580607
 30
0.0
 11
76.3866948941
 21
23.0356580607
 31
0.0
 12
76.3866948941
 22
20.0356580607
 32
0.0
 13
76.3866948941
 23
20.0356580607
 33
0.0
  0
MTEXT
  5
C7
330
1F
100
AcDbEntity
  8
0
  6
Continuous
 62
     7
100
AcDbMText
 10
70.3866948941
 20
128.6021237574
 30
0.0
 40
6.35
 41
0.0
 71
     1
 72
     1
  1
A
  7
SLDTEXTSTYLE0
 73
     1
 44
1.0
  0
MTEXT
  5
C8
330
1F
100
AcDbEntity
  8
0
  6
Continuous
 62
     7
100
AcDbMText
 10
70.3866948941
 20
18.1767294426
 30
0.0
 40
6.35
 41
0.0
 71
     1
 72
     1
  1
A
  7
SLDTEXTSTYLE0
 73
     1
 44
1.0
  0
LINE
  5
C9
330
1F
100
AcDbEntity
  8
0
  6
PHANTOM
 62
     7
370
    35
100
AcDbLine
 10
132.8764913789
 20
70.0254545455
 30
0.0
 11
31.8968984094
 21
70.0254545455
 31
0.0
  0
LINE
  5
CA
330
1F
100
AcDbEntity
  8
0
  6
Continuous
 62
     7
370
    35
100
AcDbLine
 10
130.8764913789
 20
58.0254545455
 30
0.0
 11
130.8764913789
 21
70.0254545455
 31
0.0
  0
SOLID
  5
CB
330
1F
100
AcDbEntity
  8
0
  6
Continuous
 62
     7
370
    35
100
AcDbTrace
 10
130.8764913789
 20
70.0254545455
 30
0.0
 11
129.3764913789
 21
64.0254545455
 31
0.0
 12
132.3764913789
 22
64.0254545455
 32
0.0
 13
132.3764913789
 23
64.0254545455
 33
0.0
  0
LINE
  5
CC
330
1F
100
AcDbEntity
  8
0
  6
Continuous
 62
     7
370
    35
100
AcDbLine
 10
33.8968984094
 20
58.0254545455
 30
0.0
 11
33.8968984094
 21
70.0254545455
 31
0.0
  0
SOLID
  5
CD
330
1F
100
AcDbEntity
  8
0
  6
Continuous
 62
     7
370
    35
100
AcDbTrace
 10
33.8968984094
 20
70.0254545455
 30
0.0
 11
32.3968984094
 21
64.0254545455
 31
0.0
 12
35.3968984094
 22
64.0254545455
 32
0.0
 13
35.3968984094
 23
64.0254545455
 33
0.0
  0
MTEXT
  5
CE
330
1F
100
AcDbEntity
  8
0
  6
Continuous
 62
     7
100
AcDbMText
 10
132.8210150153
 20
68.1123272727
 30
0.0
 40
6.35
 41
0.0
 71
     1
 72
     1
  1
B
  7
SLDTEXTSTYLE0
 73
     1
 44
1.0
  0
MTEXT
  5
CF
330
1F
100
AcDbEntity
  8
0
  6
Continuous
 62
     7
100
AcDbMText
 10
27.0910656821
 20
68.1123272727
 30
0.0
 40
6.35
 41
0.0
 71
     1
 72
     1
  1
B
  7
SLDTEXTSTYLE0
 73
     1
 44
1.0
  0
LINE
  5
D0
330
1F
100
AcDbEntity
  8
0
  6
Continuous
 62
     7
370
    25
100
AcDbLine
 10
263.2330592458
 20
99.5254532342
 30
0.0
 11
263.4330566708
 21
99.5254532342
 31
0.0
  0
LINE
  5
D1
330
1F
100
AcDbEntity
  8
0
  6
Continuous
 62
     7
370
    25
100
AcDbLine
 10
263.4330566708
 20
40.5254558568
 30
0.0
 11
263.4330566708
 21
99.5254532342
 31
0.0
  0
LINE
  5
D2
330
1F
100
AcDbEntity
  8
0
  6
Continuous
 62
     7
370
    25
100
AcDbLine
 10
263.2330592458
 20
40.5254558568
 30
0.0
 11
263.4330566708
 21
40.5254558568
 31
0.0
  0
LINE
  5
D3
330
1F
100
AcDbEntity
  8
0
  6
Continuous
 62
     7
370
    25
100
AcDbLine
 10
263.2330592458
 20
40.5254558568
 30
0.0
 11
263.2330592458
 21
99.5254532342
 31
0.0
  0
LINE
  5
D4
330
1F
100
AcDbEntity
  8
0
  6
Continuous
 62
     7
370
    25
100
AcDbLine
 10
268.0330570523
 20
99.5254532342
 30
0.0
 11
268.2330604379
 21
99.5254532342
 31
0.0
  0
LINE
  5
D5
330
1F
100
AcDbEntity
  8
0
  6
Continuous
 62
     7
370
    25
100
AcDbLine
 10
268.2330604379
 20
99.5254532342
 30
0.0
 11
268.2330604379
 21
40.5254558568
 31
0.0
  0
LINE
  5
D6
330
1F
100
AcDbEntity
  8
0
  6
Continuous
 62
     7
370
    25
100
AcDbLine
 10
268.0330570523
 20
99.5254532342
 30
0.0
 11
268.0330570523
 21
40.5254558568
 31
0.0
  0
LINE
  5
D7
330
1F
100
AcDbEntity
  8
0
  6
Continuous
 62
     7
370
    25
100
AcDbLine
 10
268.0330570523
 20
40.5254558568
 30
0.0
 11
268.2330604379
 21
40.5254558568
 31
0.0
  0
LINE
  5
D8
330
1F
100
AcDbEntity
  8
0
  6
Continuous
 62
     7
370
    25
100
AcDbLine
 10
263.6330600564
 20
99.5254532342
 30
0.0
 11
263.4330566708
 21
99.5254532342
 31
0.0
  0
LINE
  5
D9
330
1F
100
AcDbEntity
  8
0
  6
Continuous
 62
     7
370
    25
100
AcDbLine
 10
263.6330600564
 20
40.5254558568
 30
0.0
 11
263.4330566708
 21
40.5254558568
 31
0.0
  0
LINE
  5
DA
330
1F
100
AcDbEntity
  8
0
  6
Continuous
 62
     7
370
    25
100
AcDbLine
 10
268.0330570523
 20
99.5254532342
 30
0.0
 11
267.8330596272
 21
99.5254532342
 31
0.0
  0
LINE
  5
DB
330
1F
100
AcDbEntity
  8
0
  6
Continuous
 62
     7
370
    25
100
AcDbLine
 10
268.0330570523
 20
40.5254558568
 30
0.0
 11
267.8330596272
 21
40.5254558568
 31
0.0
  0
LINE
  5
DC
330
1F
100
AcDbEntity
  8
0
  6
Continuous
 62
     7
370
    25
100
AcDbLine
 10
267.8330596272
 20
99.5254532342
 30
0.0
 11
263.6330600564
 21
99.5254532342
 31
0.0
  0
LINE
  5
DD
330
1F
100
AcDbEntity
  8
0
  6
Continuous
 62
     7
370
    25
100
AcDbLine
 10
267.8330596272
 20
40.5254558568
 30
0.0
 11
263.6330600564
 21
40.5254558568
 31
0.0
  0
LINE
  5
DE
330
1F
100
AcDbEntity
  8
0
  6
Continuous
 62
     7
370
    25
100
AcDbLine
 10
268.5330565755
 20
105.6254551653
 30
0.0
 11
268.5330565755
 21
34.4254539256
 31
0.0
  0
LINE
  5
DF
330
1F
100
AcDbEntity
  8
0
  6
Continuous
 62
     7
370
    25
100
AcDbLine
 10
268.5330565755
 20
34.4254539256
 30
0.0
 11
268.2330604379
 21
34.4254539256
 31
0.0
  0
LINE
  5
E0
330
1F
100
AcDbEntity
  8
0
  6
Continuous
 62
     7
370
    25
100
AcDbLine
 10
268.2330604379
 20
105.6254551653
 30
0.0
 11
268.2330604379
 21
34.4254539256
 31
0.0
  0
LINE
  5
E1
330
1F
100
AcDbEntity
  8
0
  6
Continuous
 62
     7
370
    25
100
AcDbLine
 10
268.2330604379
 20
105.6254551653
 30
0.0
 11
268.5330565755
 21
105.6254551653
 31
0.0
  0
LINE
  5
E2
330
1F
100
AcDbEntity
  8
0
  6
Continuous
 62
     7
370
    25
100
AcDbLine
 10
198.7330581729
 20
36.525453711
 30
0.0
 11
179.2330588881
 21
36.525453711
 31
0.0
  0
ARC
  5
E3
330
1F
100
AcDbEntity
  8
0
  6
Continuous
 62
     7
370
    25
100
AcDbCircle
 10
202.2330585305
 20
36.5254545455
 30
0.0
 40
3.500000000000014
100
AcDbArc
 50
90.0
 51
180.0
  0
LINE
  5
E4
330
1F
100
AcDbEntity
  8
0
  6
Continuous
 62
     7
370
    25
100
AcDbLine
 10
213.2330592458
 20
40.0254533534
 30
0.0
 11
202.2330578153
 21
40.0254533534
 31
0.0
  0
LINE
  5
E5
330
1F
100
AcDbEntity
  8
0
  6
Continuous
 62
     7
370
    25
100
AcDbLine
 10
213.2330592458
 20
40.0254533534
 30
0.0
 11
213.2330592458
 21
34.2254535203
 31
0.0
  0
LINE
  5
E6
330
1F
100
AcDbEntity
  8
0
  6
Continuous
 62
     7
370
    25
100
AcDbLine
 10
213.2330592458
 20
34.2254535203
 30
0.0
 11
209.7330596034
 21
34.0254531149
 31
0.0
  0
LINE
  5
E7
330
1F
100
AcDbEntity
  8
0
  6
Continuous
 62
     7
370
    25
100
AcDbLine
 10
209.7330596034
 20
30.0254539494
 30
0.0
 11
209.7330596034
 21
34.0254531149
 31
0.0
  0
LINE
  5
E8
330
1F
100
AcDbEntity
  8
0
  6
Continuous
 62
     7
370
    25
100
AcDbLine
 10
209.7330596034
 20
30.0254539494
 30
0.0
 11
204.7330584113
 21
30.0254539494
 31
0.0
  0
LINE
  5
E9
330
1F
100
AcDbEntity
  8
0
  6
Continuous
 62
     7
370
    25
100
AcDbLine
 10
202.2335823361
 20
34.0254531149
 30
0.0
 11
204.7330584113
 21
30.0254539494
 31
0.0
  0
LINE
  5
EA
330
1F
100
AcDbEntity
  8
0
  6
Continuous
 62
     7
370
    25
100
AcDbLine
 10
198.7330581729
 20
34.0254531149
 30
0.0
 11
202.2335823361
 21
34.0254531149
 31
0.0
  0
LINE
  5
EB
330
1F
100
AcDbEntity
  8
0
  6
Continuous
 62
     7
370
    25
100
AcDbLine
 10
198.7330581729
 20
35.0254551415
 30
0.0
 11
198.7330581729
 21
34.0254531149
 31
0.0
  0
LINE
  5
EC
330
1F
100
AcDbEntity
  8
0
  6
Continuous
 62
     7
370
    25
100
AcDbLine
 10
179.2330588881
 20
35.0254551415
 30
0.0
 11
198.7330581729
 21
35.0254551415
 31
0.0
  0
LINE
  5
ED
330
1F
100
AcDbEntity
  8
0
  6
Continuous
 62
     7
370
    25
100
AcDbLine
 10
179.2330588881
 20
35.0254551415
 30
0.0
 11
179.2330588881
 21
36.525453711
 31
0.0
  0
LINE
  5
EE
330
1F
100
AcDbEntity
  8
0
  6
Continuous
 62
     7
370
    25
100
AcDbLine
 10
188.7330587689
 20
40.0254533534
 30
0.0
 11
202.2330578153
 21
40.0254533534
 31
0.0
  0
LINE
  5
EF
330
1F
100
AcDbEntity
  8
0
  6
Continuous
 62
     7
370
    25
100
AcDbLine
 10
198.7330581729
 20
105.0254539494
 30
0.0
 11
179.2330588881
 21
105.0254539494
 31
0.0
  0
LINE
  5
F0
330
1F
100
AcDbEntity
  8
0
  6
Continuous
 62
     7
370
    25
100
AcDbLine
 10
198.7330581729
 20
105.0254539494
 30
0.0
 11
198.7330581729
 21
106.025455976
 31
0.0
  0
LINE
  5
F1
330
1F
100
AcDbEntity
  8
0
  6
Continuous
 62
     7
370
    25
100
AcDbLine
 10
202.2335823361
 20
106.025455976
 30
0.0
 11
198.7330581729
 21
106.025455976
 31
0.0
  0
LINE
  5
F2
330
1F
100
AcDbEntity
  8
0
  6
Continuous
 62
     7
370
    25
100
AcDbLine
 10
202.2335823361
 20
106.025455976
 30
0.0
 11
204.7330584113
 21
110.0254551415
 31
0.0
  0
LINE
  5
F3
330
1F
100
AcDbEntity
  8
0
  6
Continuous
 62
     7
370
    25
100
AcDbLine
 10
204.7330584113
 20
110.0254551415
 30
0.0
 11
209.7330596034
 21
110.0254551415
 31
0.0
  0
LINE
  5
F4
330
1F
100
AcDbEntity
  8
0
  6
Continuous
 62
     7
370
    25
100
AcDbLine
 10
209.7330596034
 20
106.025455976
 30
0.0
 11
213.2330592458
 21
105.8254555707
 31
0.0
  0
LINE
  5
F5
330
1F
100
AcDbEntity
  8
0
  6
Continuous
 62
     7
370
    25
100
AcDbLine
 10
202.2330578153
 20
100.0254557375
 30
0.0
 11
213.2330592458
 21
100.0254557375
 31
0.0
  0
ARC
  5
F6
330
1F
100
AcDbEntity
  8
0
  6
Continuous
 62
     7
370
    25
100
AcDbCircle
 10
202.2330585305
 20
103.5254545455
 30
0.0
 40
3.5
100
AcDbArc
 50
180.0
 51
270.0
  0
LINE
  5
F7
330
1F
100
AcDbEntity
  8
0
  6
Continuous
 62
     7
370
    25
100
AcDbLine
 10
179.2330588881
 20
103.5254553799
 30
0.0
 11
198.7330581729
 21
103.5254553799
 31
0.0
  0
LINE
  5
F8
330
1F
100
AcDbEntity
  8
0
  6
Continuous
 62
     7
370
    25
100
AcDbLine
 10
213.2330592458
 20
105.8254555707
 30
0.0
 11
213.2330592458
 21
100.0254557375
 31
0.0
  0
LINE
  5
F9
330
1F
100
AcDbEntity
  8
0
  6
Continuous
 62
     7
370
    25
100
AcDbLine
 10
209.7330596034
 20
106.025455976
 30
0.0
 11
209.7330596034
 21
110.0254551415
 31
0.0
  0
LINE
  5
FA
330
1F
100
AcDbEntity
  8
0
  6
Continuous
 62
     7
370
    25
100
AcDbLine
 10
179.2330588881
 20
103.5254553799
 30
0.0
 11
179.2330588881
 21
105.0254539494
 31
0.0
  0
LINE
  5
FB
330
1F
100
AcDbEntity
  8
0
  6
Continuous
 62
     7
370
    25
100
AcDbLine
 10
202.2330578153
 20
100.0254557375
 30
0.0
 11
188.7330587689
 21
100.0254557375
 31
0.0
  0
LINE
  5
FC
330
1F
100
AcDbEntity
  8
0
  6
Continuous
 62
     7
370
    25
100
AcDbLine
 10
180.1313142959
 20
105.0254539494
 30
0.0
 11
180.1313142959
 21
106.025455976
 31
0.0
  0
LINE
  5
FD
330
1F
100
AcDbEntity
  8
0
  6
Continuous
 62
     7
370
    25
100
AcDbLine
 10
198.7330581729
 20
106.025455976
 30
0.0
 11
180.1313142959
 21
106.025455976
 31
0.0
  0
LINE
  5
FE
330
1F
100
AcDbEntity
  8
0
  6
Continuous
 62
     7
370
    25
100
AcDbLine
 10
180.1313142959
 20
35.0254551415
 30
0.0
 11
180.1313142959
 21
34.0254531149
 31
0.0
  0
LINE
  5
FF
330
1F
100
AcDbEntity
  8
0
  6
Continuous
 62
     7
370
    25
100
AcDbLine
 10
198.7330581729
 20
34.0254531149
 30
0.0
 11
180.1313142959
 21
34.0254531149
 31
0.0
  0
LINE
  5
100
330
1F
100
AcDbEntity
  8
0
  6
Continuous
 62
     7
370
    25
100
AcDbLine
 10
204.7330584113
 20
110.0254551415
 30
0.0
 11
188.7330587689
 21
110.0254551415
 31
0.0
  0
LINE
  5
101
330
1F
100
AcDbEntity
  8
0
  6
Continuous
 62
     7
370
    25
100
AcDbLine
 10
204.7330584113
 20
30.0254539494
 30
0.0
 11
188.7330587689
 21
30.0254539494
 31
0.0
  0
LINE
  5
102
330
1F
100
AcDbEntity
  8
0
  6
Continuous
 62
     7
370
    25
100
AcDbLine
 10
179.2330588881
 20
34.0375617985
 30
0.0
 11
179.0332775299
 21
34.0254531149
 31
0.0
  0
LINE
  5
103
330
1F
100
AcDbEntity
  8
0
  6
Continuous
 62
     7
370
    25
100
AcDbLine
 10
180.1313142959
 20
34.0254531149
 30
0.0
 11
179.0332775299
 21
34.0254531149
 31
0.0
  0
LINE
  5
104
330
1F
100
AcDbEntity
  8
0
  6
Continuous
 62
     7
370
    25
100
AcDbLine
 10
179.2330588881
 20
35.0254551415
 30
0.0
 11
179.2330588881
 21
34.0375617985
 31
0.0
  0
LINE
  5
105
330
1F
100
AcDbEntity
  8
0
  6
Continuous
 62
     7
370
    25
100
AcDbLine
 10
179.2330588881
 20
106.0133472924
 30
0.0
 11
179.0332775299
 21
106.025455976
 31
0.0
  0
LINE
  5
106
330
1F
100
AcDbEntity
  8
0
  6
Continuous
 62
     7
370
    25
100
AcDbLine
 10
180.1313142959
 20
106.025455976
 30
0.0
 11
179.0332775299
 21
106.025455976
 31
0.0
  0
LINE
  5
107
330
1F
100
AcDbEntity
  8
0
  6
Continuous
 62
     7
370
    25
100
AcDbLine
 10
179.2330588881
 20
105.0254539494
 30
0.0
 11
179.2330588881
 21
106.0133472924
 31
0.0
  0
LINE
  5
108
330
1F
100
AcDbEntity
  8
0
  6
Continuous
 62
     7
370
    25
100
AcDbLine
 10
179.2330588881
 20
40.0254533534
 30
0.0
 11
188.7330587689
 21
40.0254533534
 31
0.0
  0
LINE
  5
109
330
1F
100
AcDbEntity
  8
0
  6
Continuous
 62
     7
370
    25
100
AcDbLine
 10
179.2330588881
 20
36.525453711
 30
0.0
 11
179.2330588881
 21
40.0254533534
 31
0.0
  0
LINE
  5
10A
330
1F
100
AcDbEntity
  8
0
  6
Continuous
 62
     7
370
    25
100
AcDbLine
 10
188.7330587689
 20
100.0254557375
 30
0.0
 11
179.2330588881
 21
100.0254557375
 31
0.0
  0
LINE
  5
10B
330
1F
100
AcDbEntity
  8
0
  6
Continuous
 62
     7
370
    25
100
AcDbLine
 10
179.2330588881
 20
100.0254557375
 30
0.0
 11
179.2330588881
 21
103.5254553799
 31
0.0
  0
LINE
  5
10C
330
1F
100
AcDbEntity
  8
0
  6
Continuous
 62
     7
370
    25
100
AcDbLine
 10
175.7330585007
 20
30.0254539494
 30
0.0
 11
175.7330585007
 21
33.8254556899
 31
0.0
  0
LINE
  5
10D
330
1F
100
AcDbEntity
  8
0
  6
Continuous
 62
     7
370
    25
100
AcDbLine
 10
179.0332775299
 20
34.0254531149
 30
0.0
 11
175.7330585007
 21
33.8254556899
 31
0.0
  0
LINE
  5
10E
330
1F
100
AcDbEntity
  8
0
  6
Continuous
 62
     7
370
    25
100
AcDbLine
 10
188.7330587689
 20
30.0254539494
 30
0.0
 11
175.7330585007
 21
30.0254539494
 31
0.0
  0
LINE
  5
10F
330
1F
100
AcDbEntity
  8
0
  6
Continuous
 62
     7
370
    25
100
AcDbLine
 10
175.7330585007
 20
110.0254551415
 30
0.0
 11
175.7330585007
 21
106.225453401
 31
0.0
  0
LINE
  5
110
330
1F
100
AcDbEntity
  8
0
  6
Continuous
 62
     7
370
    25
100
AcDbLine
 10
179.0332775299
 20
106.025455976
 30
0.0
 11
175.7330585007
 21
106.225453401
 31
0.0
  0
LINE
  5
111
330
1F
100
AcDbEntity
  8
0
  6
Continuous
 62
     7
370
    25
100
AcDbLine
 10
188.7330587689
 20
110.0254551415
 30
0.0
 11
175.7330585007
 21
110.0254551415
 31
0.0
  0
LINE
  5
112
330
1F
100
AcDbEntity
  8
0
  6
Continuous
 62
     7
370
    25
100
AcDbLine
 10
179.2330588881
 20
43.0254534726
 30
0.0
 11
188.7330587689
 21
43.0254534726
 31
0.0
  0
LINE
  5
113
330
1F
100
AcDbEntity
  8
0
  6
Continuous
 62
     7
370
    25
100
AcDbLine
 10
179.2330588881
 20
40.0254533534
 30
0.0
 11
179.2330588881
 21
43.0254534726
 31
0.0
  0
LINE
  5
114
330
1F
100
AcDbEntity
  8
0
  6
Continuous
 62
     7
370
    25
100
AcDbLine
 10
213.2330592458
 20
40.0254533534
 30
0.0
 11
213.2330592458
 21
100.0254557375
 31
0.0
  0
LINE
  5
115
330
1F
100
AcDbEntity
  8
0
  6
Continuous
 62
     7
370
    25
100
AcDbLine
 10
179.2330588881
 20
66.5254545306
 30
0.0
 11
179.2330588881
 21
73.5254545604
 31
0.0
  0
SPLINE
  5
116
330
1F
100
AcDbEntity
  8
0
  6
Continuous
 62
     7
370
    25
100
AcDbSpline
210
0.0
220
0.0
230
1.0
 70
     8
 71
     3
 72
    11
 73
     7
 74
     0
 42
0.000000001
 43
0.00000001
 40
0.0
 40
0.0
 40
0.0
 40
0.0
 40
0.2476535715823262
 40
0.4953109892544929
 40
0.747661888562973
 40
0.9999999999999999
 40
0.9999999999999999
 40
0.9999999999999999
 40
0.9999999999999999
 10
188.7330587689292
 20
43.02545347257112
 30
0.0
 10
188.9584673181591
 20
43.02982705450759
 30
0.0
 10
189.4092879172407
 20
43.03857428630277
 30
0.0
 10
190.0863703241265
 20
43.11069998369958
 30
0.0
 10
190.7622150808606
 20
43.22316040899557
 30
0.0
 10
191.2070058335074
 20
43.33827098474473
 30
0.0
 10
191.4293955747496
 20
43.39582481427644
 30
0.0
  0
ARC
  5
117
330
1F
100
AcDbEntity
  8
0
  6
Continuous
 62
     7
370
    25
100
AcDbCircle
 10
188.7330585305
 20
53.0254545455
 30
0.0
 40
10.00000000000001
100
AcDbArc
 50
285.642471013
 51
90.0
  0
LINE
  5
118
330
1F
100
AcDbEntity
  8
0
  6
Continuous
 62
     7
370
    25
100
AcDbLine
 10
188.7330587689
 20
63.0254545157
 30
0.0
 11
179.2330588881
 21
63.0254545157
 31
0.0
  0
LINE
  5
119
330
1F
100
AcDbEntity
  8
0
  6
Continuous
 62
     7
370
    25
100
AcDbLine
 10
179.2330588881
 20
63.0254545157
 30
0.0
 11
179.2330588881
 21
66.5254545306
 31
0.0
  0
LINE
  5
11A
330
1F
100
AcDbEntity
  8
0
  6
Continuous
 62
     7
370
    25
100
AcDbLine
 10
179.2330588881
 20
77.0254545753
 30
0.0
 11
188.7330587689
 21
77.0254545753
 31
0.0
  0
LINE
  5
11B
330
1F
100
AcDbEntity
  8
0
  6
Continuous
 62
     7
370
    25
100
AcDbLine
 10
179.2330588881
 20
73.5254545604
 30
0.0
 11
179.2330588881
 21
77.0254545753
 31
0.0
  0
ARC
  5
11C
330
1F
100
AcDbEntity
  8
0
  6
Continuous
 62
     7
370
    25
100
AcDbCircle
 10
188.7330585305
 20
87.0254545455
 30
0.0
 40
10.00000000000002
100
AcDbArc
 50
270.0
 51
74.357528987
  0
LINE
  5
11D
330
1F
100
AcDbEntity
  8
0
  6
Continuous
 62
     7
370
    25
100
AcDbLine
 10
188.7330587689
 20
97.0254556183
 30
0.0
 11
179.2330588881
 21
97.0254556183
 31
0.0
  0
LINE
  5
11E
330
1F
100
AcDbEntity
  8
0
  6
Continuous
 62
     7
370
    25
100
AcDbLine
 10
179.2330588881
 20
97.0254556183
 30
0.0
 11
179.2330588881
 21
100.0254557375
 31
0.0
  0
SPLINE
  5
11F
330
1F
100
AcDbEntity
  8
0
  6
Continuous
 62
     7
370
    25
100
AcDbSpline
210
0.0
220
0.0
230
1.0
 70
     8
 71
     3
 72
    12
 73
     8
 74
     0
 42
0.000000001
 43
0.00000001
 40
0.0
 40
0.0
 40
0.0
 40
0.0
 40
0.0980162647424306
 40
0.3217984810993099
 40
0.5455841722293264
 40
0.7727936393396564
 40
1.0
 40
1.0
 40
1.0
 40
1.0
 10
191.4293955747496
 20
96.655084276633
 30
0.0
 10
191.3433067947882
 20
96.6784303406832
 30
0.0
 10
191.0606675950177
 20
96.75507810899737
 30
0.0
 10
190.5751193055315
 20
96.8604701990256
 30
0.0
 10
189.9682769276682
 20
96.95487571246508
 30
0.0
 10
189.3534296337915
 20
97.01429237995167
 30
0.0
 10
188.939848114783
 20
97.0217345558347
 30
0.0
 10
188.7330587689292
 20
97.02545561833834
 30
0.0
  0
LINE
  5
120
330
1F
100
AcDbEntity
  8
0
  6
Continuous
 62
     7
370
    25
100
AcDbLine
 10
179.2330588881
 20
63.0254545157
 30
0.0
 11
179.2330588881
 21
43.0254534726
 31
0.0
  0
LINE
  5
121
330
1F
100
AcDbEntity
  8
0
  6
Continuous
 62
     7
370
    25
100
AcDbLine
 10
179.2330588881
 20
97.0254556183
 30
0.0
 11
179.2330588881
 21
77.0254545753
 31
0.0
  0
LINE
  5
122
330
1F
100
AcDbEntity
  8
0
  6
Continuous
 62
     7
370
    25
100
AcDbLine
 10
179.0332775299
 20
39.5249322896
 30
0.0
 11
178.2330583517
 21
39.4946292882
 31
0.0
  0
LINE
  5
123
330
1F
100
AcDbEntity
  8
0
  6
Continuous
 62
     7
370
    25
100
AcDbLine
 10
179.0332775299
 20
39.5249322896
 30
0.0
 11
179.0332775299
 21
47.925454462
 31
0.0
  0
LINE
  5
124
330
1F
100
AcDbEntity
  8
0
  6
Continuous
 62
     7
370
    25
100
AcDbLine
 10
179.2330588881
 20
47.925454462
 30
0.0
 11
179.0332775299
 21
47.925454462
 31
0.0
  0
LINE
  5
125
330
1F
100
AcDbEntity
  8
0
  6
Continuous
 62
     7
370
    25
100
AcDbLine
 10
175.7330585007
 20
34.2254535203
 30
0.0
 11
175.7330585007
 21
33.8254556899
 31
0.0
  0
LINE
  5
126
330
1F
100
AcDbEntity
  8
0
  6
Continuous
 62
     7
370
    25
100
AcDbLine
 10
179.0332775299
 20
58.1254542713
 30
0.0
 11
179.0332775299
 21
66.5259771888
 31
0.0
  0
LINE
  5
127
330
1F
100
AcDbEntity
  8
0
  6
Continuous
 62
     7
370
    25
100
AcDbLine
 10
178.2330583517
 20
66.5562801902
 30
0.0
 11
179.0332775299
 21
66.5259771888
 31
0.0
  0
LINE
  5
128
330
1F
100
AcDbEntity
  8
0
  6
Continuous
 62
     7
370
    25
100
AcDbLine
 10
179.0332775299
 20
73.5249319021
 30
0.0
 11
178.2330583517
 21
73.4946289007
 31
0.0
  0
LINE
  5
129
330
1F
100
AcDbEntity
  8
0
  6
Continuous
 62
     7
370
    25
100
AcDbLine
 10
179.0332775299
 20
73.5249319021
 30
0.0
 11
179.0332775299
 21
81.9254548196
 31
0.0
  0
LINE
  5
12A
330
1F
100
AcDbEntity
  8
0
  6
Continuous
 62
     7
370
    25
100
AcDbLine
 10
179.2330588881
 20
81.9254548196
 30
0.0
 11
179.0332775299
 21
81.9254548196
 31
0.0
  0
LINE
  5
12B
330
1F
100
AcDbEntity
  8
0
  6
Continuous
 62
     7
370
    25
100
AcDbLine
 10
179.0332775299
 20
58.1254542713
 30
0.0
 11
179.2330588881
 21
58.1254542713
 31
0.0
  0
LINE
  5
12C
330
1F
100
AcDbEntity
  8
0
  6
Continuous
 62
     7
370
    25
100
AcDbLine
 10
178.2330583517
 20
100.5562798028
 30
0.0
 11
179.0332775299
 21
100.5259768014
 31
0.0
  0
LINE
  5
12D
330
1F
100
AcDbEntity
  8
0
  6
Continuous
 62
     7
370
    25
100
AcDbLine
 10
179.0332775299
 20
92.1254546289
 30
0.0
 11
179.0332775299
 21
100.5259768014
 31
0.0
  0
LINE
  5
12E
330
1F
100
AcDbEntity
  8
0
  6
Continuous
 62
     7
370
    25
100
AcDbLine
 10
179.0332775299
 20
92.1254546289
 30
0.0
 11
179.2330588881
 21
92.1254546289
 31
0.0
  0
LINE
  5
12F
330
1F
100
AcDbEntity
  8
0
  6
Continuous
 62
     7
370
    25
100
AcDbLine
 10
175.7330585007
 20
106.225453401
 30
0.0
 11
175.7330585007
 21
105.8254555707
 31
0.0
  0
LINE
  5
130
330
1F
100
AcDbEntity
  8
0
  6
Continuous
 62
     7
370
    25
100
AcDbLine
 10
268.2330604379
 20
34.2254535203
 30
0.0
 11
264.7330578153
 21
34.0254531149
 31
0.0
  0
LINE
  5
131
330
1F
100
AcDbEntity
  8
0
  6
Continuous
 62
     7
370
    25
100
AcDbLine
 10
264.7330578153
 20
30.0254539494
 30
0.0
 11
210.7330586497
 21
30.0254539494
 31
0.0
  0
LINE
  5
132
330
1F
100
AcDbEntity
  8
0
  6
Continuous
 62
     7
370
    25
100
AcDbLine
 10
210.7330586497
 20
33.8254556899
 30
0.0
 11
210.7330586497
 21
30.0254539494
 31
0.0
  0
LINE
  5
133
330
1F
100
AcDbEntity
  8
0
  6
Continuous
 62
     7
370
    25
100
AcDbLine
 10
210.7330586497
 20
33.8254556899
 30
0.0
 11
214.2330582921
 21
34.0375617985
 31
0.0
  0
LINE
  5
134
330
1F
100
AcDbEntity
  8
0
  6
Continuous
 62
     7
370
    25
100
AcDbLine
 10
268.2330604379
 20
40.0254533534
 30
0.0
 11
214.2330582921
 21
40.0254533534
 31
0.0
  0
LINE
  5
135
330
1F
100
AcDbEntity
  8
0
  6
Continuous
 62
     7
370
    25
100
AcDbLine
 10
268.2330604379
 20
40.0254533534
 30
0.0
 11
268.2330604379
 21
34.2254535203
 31
0.0
  0
LINE
  5
136
330
1F
100
AcDbEntity
  8
0
  6
Continuous
 62
     7
370
    25
100
AcDbLine
 10
264.7330578153
 20
30.0254539494
 30
0.0
 11
264.7330578153
 21
34.0254531149
 31
0.0
  0
LINE
  5
137
330
1F
100
AcDbEntity
  8
0
  6
Continuous
 62
     7
370
    25
100
AcDbLine
 10
214.2330582921
 20
34.0375617985
 30
0.0
 11
214.2330582921
 21
40.0254533534
 31
0.0
  0
LINE
  5
138
330
1F
100
AcDbEntity
  8
0
  6
Continuous
 62
     7
370
    25
100
AcDbLine
 10
210.7330586497
 20
110.0254551415
 30
0.0
 11
210.7330586497
 21
106.225453401
 31
0.0
  0
LINE
  5
139
330
1F
100
AcDbEntity
  8
0
  6
Continuous
 62
     7
370
    25
100
AcDbLine
 10
210.7330586497
 20
110.0254551415
 30
0.0
 11
264.7330578153
 21
110.0254551415
 31
0.0
  0
LINE
  5
13A
330
1F
100
AcDbEntity
  8
0
  6
Continuous
 62
     7
370
    25
100
AcDbLine
 10
264.7330578153
 20
106.025455976
 30
0.0
 11
268.2330604379
 21
105.8254555707
 31
0.0
  0
LINE
  5
13B
330
1F
100
AcDbEntity
  8
0
  6
Continuous
 62
     7
370
    25
100
AcDbLine
 10
214.2330582921
 20
100.0254557375
 30
0.0
 11
268.2330604379
 21
100.0254557375
 31
0.0
  0
LINE
  5
13C
330
1F
100
AcDbEntity
  8
0
  6
Continuous
 62
     7
370
    25
100
AcDbLine
 10
214.2330582921
 20
106.0133472924
 30
0.0
 11
210.7330586497
 21
106.225453401
 31
0.0
  0
LINE
  5
13D
330
1F
100
AcDbEntity
  8
0
  6
Continuous
 62
     7
370
    25
100
AcDbLine
 10
268.2330604379
 20
105.8254555707
 30
0.0
 11
268.2330604379
 21
100.0254557375
 31
0.0
  0
LINE
  5
13E
330
1F
100
AcDbEntity
  8
0
  6
Continuous
 62
     7
370
    25
100
AcDbLine
 10
264.7330578153
 20
106.025455976
 30
0.0
 11
264.7330578153
 21
110.0254551415
 31
0.0
  0
LINE
  5
13F
330
1F
100
AcDbEntity
  8
0
  6
Continuous
 62
     7
370
    25
100
AcDbLine
 10
214.2330582921
 20
100.0254557375
 30
0.0
 11
214.2330582921
 21
106.0133472924
 31
0.0
  0
LINE
  5
140
330
1F
100
AcDbEntity
  8
0
  6
Continuous
 62
     7
370
    25
100
AcDbLine
 10
214.2330582921
 20
83.5254550819
 30
0.0
 11
214.2330582921
 21
100.0254557375
 31
0.0
  0
LINE
  5
141
330
1F
100
AcDbEntity
  8
0
  6
Continuous
 62
     7
370
    25
100
AcDbLine
 10
214.2330582921
 20
40.0254533534
 30
0.0
 11
214.2330582921
 21
56.525454009
 31
0.0
  0
LINE
  5
142
330
1F
100
AcDbEntity
  8
0
  6
Continuous
 62
     7
370
    25
100
AcDbLine
 10
214.2330582921
 20
60.0254543964
 30
0.0
 11
223.7330611531
 21
60.0254543964
 31
0.0
  0
LINE
  5
143
330
1F
100
AcDbEntity
  8
0
  6
Continuous
 62
     7
370
    25
100
AcDbLine
 10
214.2330582921
 20
56.525454009
 30
0.0
 11
214.2330582921
 21
60.0254543964
 31
0.0
  0
ARC
  5
144
330
1F
100
AcDbEntity
  8
0
  6
Continuous
 62
     7
370
    25
100
AcDbCircle
 10
223.7330585305
 20
70.0254545455
 30
0.0
 40
10.0
100
AcDbArc
 50
270.0
 51
90.0
  0
LINE
  5
145
330
1F
100
AcDbEntity
  8
0
  6
Continuous
 62
     7
370
    25
100
AcDbLine
 10
223.7330611531
 20
80.0254546945
 30
0.0
 11
214.2330582921
 21
80.0254546945
 31
0.0
  0
LINE
  5
146
330
1F
100
AcDbEntity
  8
0
  6
Continuous
 62
     7
370
    25
100
AcDbLine
 10
214.2330582921
 20
80.0254546945
 30
0.0
 11
214.2330582921
 21
83.5254550819
 31
0.0
  0
LINE
  5
147
330
1F
100
AcDbEntity
  8
0
  6
Continuous
 62
     7
370
    25
100
AcDbLine
 10
214.2330582921
 20
80.0254546945
 30
0.0
 11
214.2330582921
 21
60.0254543964
 31
0.0
  0
LINE
  5
148
330
1F
100
AcDbEntity
  8
0
  6
Continuous
 62
     7
370
    25
100
AcDbLine
 10
214.033278424
 20
56.5249324684
 30
0.0
 11
213.2330592458
 21
56.494629467
 31
0.0
  0
LINE
  5
149
330
1F
100
AcDbEntity
  8
0
  6
Continuous
 62
     7
370
    25
100
AcDbLine
 10
214.033278424
 20
56.5249324684
 30
0.0
 11
214.033278424
 21
64.9254546408
 31
0.0
  0
LINE
  5
14A
330
1F
100
AcDbEntity
  8
0
  6
Continuous
 62
     7
370
    25
100
AcDbLine
 10
214.2330582921
 20
64.9254546408
 30
0.0
 11
214.033278424
 21
64.9254546408
 31
0.0
  0
LINE
  5
14B
330
1F
100
AcDbEntity
  8
0
  6
Continuous
 62
     7
370
    25
100
AcDbLine
 10
210.7330586497
 20
34.0825960879
 30
0.0
 11
210.7330586497
 21
33.8254556899
 31
0.0
  0
LINE
  5
14C
330
1F
100
AcDbEntity
  8
0
  6
Continuous
 62
     7
370
    25
100
AcDbLine
 10
213.2330592458
 20
83.5562796239
 30
0.0
 11
214.033278424
 21
83.5259766225
 31
0.0
  0
LINE
  5
14D
330
1F
100
AcDbEntity
  8
0
  6
Continuous
 62
     7
370
    25
100
AcDbLine
 10
214.033278424
 20
75.1254544501
 30
0.0
 11
214.033278424
 21
83.5259766225
 31
0.0
  0
LINE
  5
14E
330
1F
100
AcDbEntity
  8
0
  6
Continuous
 62
     7
370
    25
100
AcDbLine
 10
214.033278424
 20
75.1254544501
 30
0.0
 11
214.2330582921
 21
75.1254544501
 31
0.0
  0
LINE
  5
14F
330
1F
100
AcDbEntity
  8
0
  6
Continuous
 62
     7
370
    25
100
AcDbLine
 10
210.7330586497
 20
106.225453401
 30
0.0
 11
210.7330586497
 21
105.968313003
 31
0.0
  0
LINE
  5
150
330
1F
100
AcDbEntity
  8
0
  6
Continuous
 62
     7
370
    25
100
AcDbLine
 10
178.2330583517
 20
105.8254555707
 30
0.0
 11
170.2330585305
 21
105.8254555707
 31
0.0
  0
LINE
  5
151
330
1F
100
AcDbEntity
  8
0
  6
Continuous
 62
     7
370
    25
100
AcDbLine
 10
178.2330583517
 20
90.0254548435
 30
0.0
 11
170.2330585305
 21
90.0254548435
 31
0.0
  0
LINE
  5
152
330
1F
100
AcDbEntity
  8
0
  6
Continuous
 62
     7
370
    25
100
AcDbLine
 10
178.2330583517
 20
90.0254548435
 30
0.0
 11
178.2330583517
 21
105.8254555707
 31
0.0
  0
LINE
  5
153
330
1F
100
AcDbEntity
  8
0
  6
Continuous
 62
     7
370
    25
100
AcDbLine
 10
170.2330585305
 20
105.8254555707
 30
0.0
 11
170.2330585305
 21
90.0254548435
 31
0.0
  0
LINE
  5
154
330
1F
100
AcDbEntity
  8
0
  6
Continuous
 62
     7
370
    25
100
AcDbLine
 10
170.2330585305
 20
34.2254535203
 30
0.0
 11
178.2330583517
 21
34.2254535203
 31
0.0
  0
LINE
  5
155
330
1F
100
AcDbEntity
  8
0
  6
Continuous
 62
     7
370
    25
100
AcDbLine
 10
170.2330585305
 20
50.0254542474
 30
0.0
 11
178.2330583517
 21
50.0254542474
 31
0.0
  0
LINE
  5
156
330
1F
100
AcDbEntity
  8
0
  6
Continuous
 62
     7
370
    25
100
AcDbLine
 10
178.2330583517
 20
34.2254535203
 30
0.0
 11
178.2330583517
 21
50.0254542474
 31
0.0
  0
LINE
  5
157
330
1F
100
AcDbEntity
  8
0
  6
Continuous
 62
     7
370
    25
100
AcDbLine
 10
170.2330585305
 20
50.0254542474
 30
0.0
 11
170.2330585305
 21
34.2254535203
 31
0.0
  0
LINE
  5
158
330
1F
100
AcDbEntity
  8
0
  6
Continuous
 62
     7
370
    25
100
AcDbLine
 10
170.2330585305
 20
30.0254539494
 30
0.0
 11
174.7330587093
 21
30.0254539494
 31
0.0
  0
LINE
  5
159
330
1F
100
AcDbEntity
  8
0
  6
Continuous
 62
     7
370
    25
100
AcDbLine
 10
174.7330587093
 20
30.0254539494
 30
0.0
 11
174.7330587093
 21
34.2254535203
 31
0.0
  0
LINE
  5
15A
330
1F
100
AcDbEntity
  8
0
  6
Continuous
 62
     7
370
    25
100
AcDbLine
 10
170.2330585305
 20
30.0254539494
 30
0.0
 11
170.2330585305
 21
34.2254535203
 31
0.0
  0
LINE
  5
15B
330
1F
100
AcDbEntity
  8
0
  6
Continuous
 62
     7
370
    25
100
AcDbLine
 10
170.2330585305
 20
110.0254551415
 30
0.0
 11
174.7330587093
 21
110.0254551415
 31
0.0
  0
LINE
  5
15C
330
1F
100
AcDbEntity
  8
0
  6
Continuous
 62
     7
370
    25
100
AcDbLine
 10
174.7330587093
 20
105.8254555707
 30
0.0
 11
174.7330587093
 21
110.0254551415
 31
0.0
  0
LINE
  5
15D
330
1F
100
AcDbEntity
  8
0
  6
Continuous
 62
     7
370
    25
100
AcDbLine
 10
170.2330585305
 20
105.8254555707
 30
0.0
 11
170.2330585305
 21
110.0254551415
 31
0.0
  0
LINE
  5
15E
330
1F
100
AcDbEntity
  8
0
  6
Continuous
 62
     7
370
    25
100
AcDbLine
 10
178.2330583517
 20
50.0254542474
 30
0.0
 11
178.2330583517
 21
90.0254548435
 31
0.0
  0
LINE
  5
15F
330
1F
100
AcDbEntity
  8
0
  6
Continuous
 62
     7
370
    25
100
AcDbLine
 10
170.2330585305
 20
50.0254542474
 30
0.0
 11
170.2330585305
 21
90.0254548435
 31
0.0
  0
LINE
  5
160
330
1F
100
AcDbEntity
  8
0
  6
PHANTOM
 62
     8
370
    18
100
AcDbLine
 10
263.6330600564
 20
99.5254532342
 30
0.0
 11
263.6330600564
 21
40.5254558568
 31
0.0
  0
LINE
  5
161
330
1F
100
AcDbEntity
  8
0
  6
PHANTOM
 62
     8
370
    18
100
AcDbLine
 10
267.8330596272
 20
99.5254532342
 30
0.0
 11
267.8330596272
 21
40.5254558568
 31
0.0
  0
LINE
  5
162
330
1F
100
AcDbEntity
  8
0
  6
PHANTOM
 62
     8
370
    18
100
AcDbLine
 10
188.7330587689
 20
40.0254533534
 30
0.0
 11
188.7330587689
 21
36.525453711
 31
0.0
  0
LINE
  5
163
330
1F
100
AcDbEntity
  8
0
  6
PHANTOM
 62
     8
370
    18
100
AcDbLine
 10
188.7330587689
 20
100.0254557375
 30
0.0
 11
188.7330587689
 21
103.5254553799
 31
0.0
  0
LINE
  5
164
330
1F
100
AcDbEntity
  8
0
  6
PHANTOM
 62
     8
370
    18
100
AcDbLine
 10
188.7330587689
 20
106.025455976
 30
0.0
 11
188.7330587689
 21
110.0254551415
 31
0.0
  0
LINE
  5
165
330
1F
100
AcDbEntity
  8
0
  6
PHANTOM
 62
     8
370
    18
100
AcDbLine
 10
188.7330587689
 20
34.0254531149
 30
0.0
 11
188.7330587689
 21
30.0254539494
 31
0.0
  0
LINE
  5
166
330
1F
100
AcDbEntity
  8
0
  6
PHANTOM
 62
     8
370
    18
100
AcDbLine
 10
188.7330587689
 20
40.0254533534
 30
0.0
 11
188.7330587689
 21
43.0254534726
 31
0.0
  0
LINE
  5
167
330
1F
100
AcDbEntity
  8
0
  6
PHANTOM
 62
     8
370
    18
100
AcDbLine
 10
188.7330587689
 20
73.5254545604
 30
0.0
 11
179.2330588881
 21
73.5254545604
 31
0.0
  0
ARC
  5
168
330
1F
100
AcDbEntity
  8
0
  6
PHANTOM
 62
     8
370
    18
100
AcDbCircle
 10
188.7330585305
 20
87.0254545455
 30
0.0
 40
13.50000000000002
100
AcDbArc
 50
270.0
 51
74.357528987
  0
ARC
  5
169
330
1F
100
AcDbEntity
  8
0
  6
PHANTOM
 62
     8
370
    18
100
AcDbCircle
 10
188.7330585305
 20
53.0254545455
 30
0.0
 40
13.5
100
AcDbArc
 50
285.642471013
 51
90.0
  0
LINE
  5
16A
330
1F
100
AcDbEntity
  8
0
  6
PHANTOM
 62
     8
370
    18
100
AcDbLine
 10
179.2330588881
 20
66.5254545306
 30
0.0
 11
188.7330587689
 21
66.5254545306
 31
0.0
  0
LWPOLYLINE
  5
16B
330
1F
100
AcDbEntity
  8
0
  6
PHANTOM
 62
     8
370
    18
100
AcDbPolyline
 90
       16
 70
   128
 43
0.0
 10
192.3731129352
 20
40.0254533534
 10
192.2744687383
 20
40.377755547
 10
192.1769033853
 20
40.7261953597
 10
192.08148827
 20
41.0669551138
 10
191.9892694537
 20
41.396306539
 10
191.901254255
 20
41.7106405739
 10
191.8184097592
 20
42.0065090899
 10
191.7416434471
 20
42.2806725745
 10
191.671794254
 20
42.5301269536
 10
191.6096295897
 20
42.7521423344
 10
191.5558304374
 20
42.9442808871
 10
191.5109839026
 20
43.1044415478
 10
191.4755847041
 20
43.2308659796
 10
191.4500172917
 20
43.322174335
 10
191.4345647876
 20
43.3773622756
 10
191.4293955747
 20
43.3958248143
  0
LINE
  5
16C
330
1F
100
AcDbEntity
  8
0
  6
PHANTOM
 62
     8
370
    18
100
AcDbLine
 10
188.7330587689
 20
66.5254545306
 30
0.0
 11
188.7330587689
 21
63.0254545157
 31
0.0
  0
LINE
  5
16D
330
1F
100
AcDbEntity
  8
0
  6
PHANTOM
 62
     8
370
    18
100
AcDbLine
 10
188.7330587689
 20
73.5254545604
 30
0.0
 11
188.7330587689
 21
77.0254545753
 31
0.0
  0
LWPOLYLINE
  5
16E
330
1F
100
AcDbEntity
  8
0
  6
PHANTOM
 62
     8
370
    18
100
AcDbPolyline
 90
       16
 70
   128
 43
0.0
 10
192.3731129352
 20
100.0254557375
 10
192.2744687383
 20
99.6731535439
 10
192.1769033853
 20
99.3247137312
 10
192.08148827
 20
98.9839539771
 10
191.9892694537
 20
98.6546025519
 10
191.901254255
 20
98.340268517
 10
191.8184097592
 20
98.044400001
 10
191.7416434471
 20
97.7702365164
 10
191.671794254
 20
97.5207821374
 10
191.6096295897
 20
97.2987667565
 10
191.5558304374
 20
97.1066282038
 10
191.5109839026
 20
96.9464675431
 10
191.4755847041
 20
96.8200431113
 10
191.4500172917
 20
96.7287347559
 10
191.4345647876
 20
96.6735468154
 10
191.4293955747
 20
96.6550842766
  0
LINE
  5
16F
330
1F
100
AcDbEntity
  8
0
  6
PHANTOM
 62
     8
370
    18
100
AcDbLine
 10
188.7330587689
 20
100.0254557375
 30
0.0
 11
188.7330587689
 21
97.0254556183
 31
0.0
  0
LINE
  5
170
330
1F
100
AcDbEntity
  8
0
  6
PHANTOM
 62
     8
370
    18
100
AcDbLine
 10
214.2330582921
 20
83.5254550819
 30
0.0
 11
223.7330611531
 21
83.5254550819
 31
0.0
  0
LINE
  5
171
330
1F
100
AcDbEntity
  8
0
  6
PHANTOM
 62
     8
370
    18
100
AcDbLine
 10
223.7330611531
 20
56.525454009
 30
0.0
 11
214.2330582921
 21
56.525454009
 31
0.0
  0
ARC
  5
172
330
1F
100
AcDbEntity
  8
0
  6
PHANTOM
 62
     8
370
    18
100
AcDbCircle
 10
223.7330585305
 20
70.0254545455
 30
0.0
 40
13.5
100
AcDbArc
 50
270.0
 51
90.0
  0
LINE
  5
173
330
1F
100
AcDbEntity
  8
0
  6
PHANTOM
 62
     8
370
    18
100
AcDbLine
 10
223.7330611531
 20
56.525454009
 30
0.0
 11
223.7330611531
 21
60.0254543964
 31
0.0
  0
LINE
  5
174
330
1F
100
AcDbEntity
  8
0
  6
PHANTOM
 62
     8
370
    18
100
AcDbLine
 10
223.7330611531
 20
83.5254550819
 30
0.0
 11
223.7330611531
 21
80.0254546945
 31
0.0
  0
HATCH
  5
175
330
1F
100
AcDbEntity
  8
0
  6
Continuous
 62
     7
370
    18
100
AcDbHatch
 10
0.0
 20
0.0
 30
0.0
210
0.0
220
0.0
230
1.0
  2
ANSI34
 70
     0
 71
     0
 91
        1
 92
        0
 93
        4
 72
     1
 10
170.2330585305106
 20
90.0254545454547
 11
178.2330585305107
 21
90.02545454545469
 72
     1
 10
178.2330585305107
 20
90.02545454545469
 11
178.2330585305107
 21
105.8254545454547
 72
     1
 10
178.2330585305107
 20
105.8254545454547
 11
170.2330585305107
 21
105.8254545454547
 72
     1
 10
170.2330585305107
 20
105.8254545454547
 11
170.2330585305106
 21
90.0254545454547
 97
        0
 75
     0
 76
     1
 52
0.0
 41
1.0
 77
     0
 78
     4
 53
45.0
 43
0.0
 44
0.0
 45
-13.47038418160373
 46
13.47038418160373
 79
     0
 53
45.0
 43
4.49013
 44
0.0
 45
-13.47038418160373
 46
13.47038418160373
 79
     0
 53
45.0
 43
8.98026
 44
0.0
 45
-13.47038418160373
 46
13.47038418160373
 79
     0
 53
45.0
 43
13.4704
 44
0.0
 45
-13.47038418160373
 46
13.47038418160373
 79
     0
 98
        1
 10
0.0
 20
0.0
  0
HATCH
  5
176
330
1F
100
AcDbEntity
  8
0
  6
Continuous
 62
     7
370
    18
100
AcDbHatch
 10
0.0
 20
0.0
 30
0.0
210
0.0
220
0.0
230
1.0
  2
ANSI34
 70
     0
 71
     0
 91
        1
 92
        0
 93
        4
 72
     1
 10
178.2330585305105
 20
50.02545454545467
 11
170.2330585305105
 21
50.0254545454547
 72
     1
 10
170.2330585305105
 20
50.0254545454547
 11
170.2330585305104
 21
34.2254545454547
 72
     1
 10
170.2330585305104
 20
34.2254545454547
 11
178.2330585305105
 21
34.22545454545467
 72
     1
 10
178.2330585305105
 20
34.22545454545467
 11
178.2330585305105
 21
50.02545454545467
 97
        0
 75
     0
 76
     1
 52
0.0
 41
1.0
 77
     0
 78
     4
 53
45.0
 43
0.0
 44
0.0
 45
-13.47038418160373
 46
13.47038418160373
 79
     0
 53
45.0
 43
4.49013
 44
0.0
 45
-13.47038418160373
 46
13.47038418160373
 79
     0
 53
45.0
 43
8.98026
 44
0.0
 45
-13.47038418160373
 46
13.47038418160373
 79
     0
 53
45.0
 43
13.4704
 44
0.0
 45
-13.47038418160373
 46
13.47038418160373
 79
     0
 98
        1
 10
0.0
 20
0.0
  0
HATCH
  5
177
330
1F
100
AcDbEntity
  8
0
  6
Continuous
 62
     7
370
    18
100
AcDbHatch
 10
0.0
 20
0.0
 30
0.0
210
0.0
220
0.0
230
1.0
  2
ANSI34
 70
     0
 71
     0
 91
        1
 92
        0
 93
        8
 72
     1
 10
210.7330585305107
 20
106.2254545454546
 11
214.2330585305107
 21
106.0133473894006
 72
     1
 10
214.2330585305107
 20
106.0133473894006
 11
214.2330585305107
 21
100.0254545454546
 72
     1
 10
214.2330585305107
 20
100.0254545454546
 11
268.2330585305107
 21
100.0254545454544
 72
     1
 10
268.2330585305107
 20
100.0254545454544
 11
268.2330585305107
 21
105.8254545454544
 72
     1
 10
268.2330585305107
 20
105.8254545454544
 11
264.7330585305107
 21
106.0254545454544
 72
     1
 10
264.7330585305107
 20
106.0254545454544
 11
264.7330585305108
 21
110.0254545454544
 72
     1
 10
264.7330585305108
 20
110.0254545454544
 11
210.7330585305107
 21
110.0254545454546
 72
     1
 10
210.7330585305107
 20
110.0254545454546
 11
210.7330585305107
 21
106.2254545454546
 97
        0
 75
     0
 76
     1
 52
0.0
 41
1.0
 77
     0
 78
     4
 53
45.0
 43
0.0
 44
0.0
 45
-13.47038418160373
 46
13.47038418160373
 79
     0
 53
45.0
 43
4.49013
 44
0.0
 45
-13.47038418160373
 46
13.47038418160373
 79
     0
 53
45.0
 43
8.98026
 44
0.0
 45
-13.47038418160373
 46
13.47038418160373
 79
     0
 53
45.0
 43
13.4704
 44
0.0
 45
-13.47038418160373
 46
13.47038418160373
 79
     0
 98
        1
 10
0.0
 20
0.0
  0
HATCH
  5
178
330
1F
100
AcDbEntity
  8
0
  6
Continuous
 62
     7
370
    18
100
AcDbHatch
 10
0.0
 20
0.0
 30
0.0
210
0.0
220
0.0
230
1.0
  2
ANSI34
 70
     0
 71
     0
 91
        1
 92
        0
 93
        8
 72
     1
 10
268.2330585305105
 20
34.22545454545438
 11
268.2330585305105
 21
40.02545454545438
 72
     1
 10
268.2330585305105
 20
40.02545454545438
 11
214.2330585305105
 21
40.02545454545457
 72
     1
 10
214.2330585305105
 20
40.02545454545457
 11
214.2330585305105
 21
34.03756170150856
 72
     1
 10
214.2330585305105
 20
34.03756170150856
 11
210.7330585305105
 21
33.82545454545459
 72
     1
 10
210.7330585305105
 20
33.82545454545459
 11
210.7330585305104
 21
30.02545454545458
 72
     1
 10
210.7330585305104
 20
30.02545454545458
 11
264.7330585305104
 21
30.0254545454544
 72
     1
 10
264.7330585305104
 20
30.0254545454544
 11
264.7330585305104
 21
34.0254545454544
 72
     1
 10
264.7330585305104
 20
34.0254545454544
 11
268.2330585305105
 21
34.22545454545438
 97
        0
 75
     0
 76
     1
 52
0.0
 41
1.0
 77
     0
 78
     4
 53
45.0
 43
0.0
 44
0.0
 45
-13.47038418160373
 46
13.47038418160373
 79
     0
 53
45.0
 43
4.49013
 44
0.0
 45
-13.47038418160373
 46
13.47038418160373
 79
     0
 53
45.0
 43
8.98026
 44
0.0
 45
-13.47038418160373
 46
13.47038418160373
 79
     0
 53
45.0
 43
13.4704
 44
0.0
 45
-13.47038418160373
 46
13.47038418160373
 79
     0
 98
        1
 10
0.0
 20
0.0
  0
HATCH
  5
179
330
1F
100
AcDbEntity
  8
0
  6
Continuous
 62
     7
370
    18
100
AcDbHatch
 10
0.0
 20
0.0
 30
0.0
210
0.0
220
0.0
230
1.0
  2
ANSI34
 70
     0
 71
     0
 91
        1
 92
        0
 93
       12
 72
     1
 10
179.2330585305105
 20
36.52545454545469
 11
179.2330585305105
 21
35.0254545454547
 72
     1
 10
179.2330585305105
 20
35.0254545454547
 11
198.7330585305105
 21
35.02545454545463
 72
     1
 10
198.7330585305105
 20
35.02545454545463
 11
198.7330585305104
 21
34.02545454545463
 72
     1
 10
198.7330585305104
 20
34.02545454545463
 11
202.2335811228731
 21
34.02545454545461
 72
     1
 10
202.2335811228731
 20
34.02545454545461
 11
204.7330585305105
 21
30.0254545454546
 72
     1
 10
204.7330585305105
 20
30.0254545454546
 11
209.7330585305104
 21
30.02545454545458
 72
     1
 10
209.7330585305104
 20
30.02545454545458
 11
209.7330585305105
 21
34.02545454545459
 72
     1
 10
209.7330585305105
 20
34.02545454545459
 11
213.2330585305105
 21
34.22545454545458
 72
     1
 10
213.2330585305105
 20
34.22545454545458
 11
213.2330585305105
 21
40.02545454545457
 72
     1
 10
213.2330585305105
 20
40.02545454545457
 11
202.2330585305105
 21
40.02545454545461
 72
     2
 10
202.2330585305105
 20
36.52545454545461
 40
3.5
 50
90.0
 51
179.9999999999999
 73
     1
 72
     1
 10
198.7330585305105
 20
36.52545454545461
 11
179.2330585305105
 21
36.52545454545469
 97
        0
 75
     0
 76
     1
 52
0.0
 41
1.0
 77
     0
 78
     4
 53
45.0
 43
0.0
 44
0.0
 45
-13.47038418160373
 46
13.47038418160373
 79
     0
 53
45.0
 43
4.49013
 44
0.0
 45
-13.47038418160373
 46
13.47038418160373
 79
     0
 53
45.0
 43
8.98026
 44
0.0
 45
-13.47038418160373
 46
13.47038418160373
 79
     0
 53
45.0
 43
13.4704
 44
0.0
 45
-13.47038418160373
 46
13.47038418160373
 79
     0
 98
        1
 10
0.0
 20
0.0
  0
HATCH
  5
17A
330
1F
100
AcDbEntity
  8
0
  6
Continuous
 62
     7
370
    18
100
AcDbHatch
 10
0.0
 20
0.0
 30
0.0
210
0.0
220
0.0
230
1.0
  2
ANSI34
 70
     0
 71
     0
 91
        1
 92
        0
 93
       12
 72
     1
 10
179.2330585305107
 20
105.0254545454547
 11
179.2330585305107
 21
103.5254545454547
 72
     1
 10
179.2330585305107
 20
103.5254545454547
 11
198.7330585305107
 21
103.5254545454546
 72
     2
 10
202.2330585305107
 20
103.5254545454546
 40
3.5
 50
180.0
 51
270.0000000000008
 73
     1
 72
     1
 10
202.2330585305107
 20
100.0254545454546
 11
213.2330585305107
 21
100.0254545454546
 72
     1
 10
213.2330585305107
 20
100.0254545454546
 11
213.2330585305107
 21
105.8254545454546
 72
     1
 10
213.2330585305107
 20
105.8254545454546
 11
209.7330585305107
 21
106.0254545454546
 72
     1
 10
209.7330585305107
 20
106.0254545454546
 11
209.7330585305107
 21
110.0254545454546
 72
     1
 10
209.7330585305107
 20
110.0254545454546
 11
204.7330585305107
 21
110.0254545454546
 72
     1
 10
204.7330585305107
 20
110.0254545454546
 11
202.2335811228734
 21
106.0254545454546
 72
     1
 10
202.2335811228734
 20
106.0254545454546
 11
198.7330585305107
 21
106.0254545454546
 72
     1
 10
198.7330585305107
 20
106.0254545454546
 11
198.7330585305107
 21
105.0254545454546
 72
     1
 10
198.7330585305107
 20
105.0254545454546
 11
179.2330585305107
 21
105.0254545454547
 97
        0
 75
     0
 76
     1
 52
0.0
 41
1.0
 77
     0
 78
     4
 53
45.0
 43
0.0
 44
0.0
 45
-13.47038418160373
 46
13.47038418160373
 79
     0
 53
45.0
 43
4.49013
 44
0.0
 45
-13.47038418160373
 46
13.47038418160373
 79
     0
 53
45.0
 43
8.98026
 44
0.0
 45
-13.47038418160373
 46
13.47038418160373
 79
     0
 53
45.0
 43
13.4704
 44
0.0
 45
-13.47038418160373
 46
13.47038418160373
 79
     0
 98
        1
 10
0.0
 20
0.0
  0
HATCH
  5
17B
330
1F
100
AcDbEntity
  8
0
  6
Continuous
 62
     7
370
    18
100
AcDbHatch
 10
0.0
 20
0.0
 30
0.0
210
0.0
220
0.0
230
1.0
  2
DIN 201 Stahl und Stahlguss
 70
     0
 71
     0
 91
        1
 92
        0
 93
        4
 72
     1
 10
268.5330585305107
 20
105.6254545454544
 11
268.2330585305107
 21
105.6254545454544
 72
     1
 10
268.2330585305107
 20
105.6254545454544
 11
268.2330585305105
 21
34.42545454545431
 72
     1
 10
268.2330585305105
 20
34.42545454545432
 11
268.5330585305105
 21
34.42545454545432
 72
     1
 10
268.5330585305105
 20
34.42545454545432
 11
268.5330585305107
 21
105.6254545454545
 97
        0
 75
     0
 76
     2
 52
90.0
 41
1.0
 77
     0
 78
     4
 53
135.0000020971719
 43
0.0
 44
0.0
 45
-13.47038368855324
 46
-13.4703846746542
 79
     0
 53
135.0000020971719
 43
-0.0000000000000157
 44
4.490128
 45
-13.47038368855324
 46
-13.4703846746542
 79
     0
 53
135.0000020971719
 43
-0.0000000000000314
 44
8.980256
 45
-13.47038368855324
 46
-13.4703846746542
 79
     0
 53
135.0000020971719
 43
-0.000000000000047
 44
13.47038
 45
-13.47038368855324
 46
-13.4703846746542
 79
     0
 98
        1
 10
0.0
 20
0.0
  0
HATCH
  5
17C
330
1F
100
AcDbEntity
  8
0
  6
Continuous
 62
     7
370
    18
100
AcDbHatch
 10
0.0
 20
0.0
 30
0.0
210
0.0
220
0.0
230
1.0
  2
DIN 201 Stahl und Stahlguss
 70
     0
 71
     0
 91
        1
 92
        0
 93
        4
 72
     1
 10
268.2330585305105
 20
40.52545454545438
 11
268.2330585305107
 21
99.52545454545438
 72
     1
 10
268.2330585305107
 20
99.52545454545438
 11
268.0330585305107
 21
99.52545454545438
 72
     1
 10
268.0330585305107
 20
99.52545454545438
 11
268.0330585305105
 21
40.52545454545439
 72
     1
 10
268.0330585305105
 20
40.52545454545439
 11
268.2330585305105
 21
40.52545454545438
 97
        0
 75
     0
 76
     2
 52
0.0
 41
1.0
 77
     0
 78
     4
 53
45.00000209717174
 43
0.0
 44
0.0
 45
-13.47038467465416
 46
13.47038368855329
 79
     0
 53
45.00000209717174
 43
4.490128
 44
0.0
 45
-13.47038467465416
 46
13.47038368855329
 79
     0
 53
45.00000209717174
 43
8.980256
 44
0.0
 45
-13.47038467465416
 46
13.47038368855329
 79
     0
 53
45.00000209717174
 43
13.47038
 44
0.0
 45
-13.47038467465416
 46
13.47038368855329
 79
     0
 98
        1
 10
0.0
 20
0.0
  0
HATCH
  5
17D
330
1F
100
AcDbEntity
  8
0
  6
Continuous
 62
     7
370
    18
100
AcDbHatch
 10
0.0
 20
0.0
 30
0.0
210
0.0
220
0.0
230
1.0
  2
DIN 201 Stahl und Stahlguss
 70
     0
 71
     0
 91
        1
 92
        0
 93
        4
 72
     1
 10
263.2330585305107
 20
99.52545454545441
 11
263.2330585305105
 21
40.52545454545441
 72
     1
 10
263.2330585305105
 20
40.52545454545441
 11
263.4330585305105
 21
40.52545454545439
 72
     1
 10
263.4330585305105
 20
40.52545454545439
 11
263.4330585305107
 21
99.5254545454544
 72
     1
 10
263.4330585305107
 20
99.5254545454544
 11
263.2330585305107
 21
99.52545454545441
 97
        0
 75
     0
 76
     2
 52
0.0
 41
1.0
 77
     0
 78
     4
 53
45.00000209717174
 43
0.0
 44
0.0
 45
-13.47038467465416
 46
13.47038368855329
 79
     0
 53
45.00000209717174
 43
4.490128
 44
0.0
 45
-13.47038467465416
 46
13.47038368855329
 79
     0
 53
45.00000209717174
 43
8.980256
 44
0.0
 45
-13.47038467465416
 46
13.47038368855329
 79
     0
 53
45.00000209717174
 43
13.47038
 44
0.0
 45
-13.47038467465416
 46
13.47038368855329
 79
     0
 98
        1
 10
0.0
 20
0.0
  0
INSERT
  5
183
330
1F
100
AcDbEntity
  8
O-TEKST
100
AcDbBlockReference
  2
SW_NOTE_0
 10
197.8481648688
 20
9.7784581397
 30
0.0
  0
ARC
  5
184
330
1F
100
AcDbEntity
  8
0
  6
Continuous
 62
     7
370
    25
100
AcDbCircle
 10
80.2866948941
 20
259.9772727273
 30
0.0
 40
0.4000000000000341
100
AcDbArc
 50
180.0
 51
270.0
  0
LINE
  5
185
330
1F
100
AcDbEntity
  8
0
  6
Continuous
 62
     7
370
    25
100
AcDbLine
 10
79.8866948569
 20
264.177273824
 30
0.0
 11
79.8866948569
 21
259.9772742532
 31
0.0
  0
ARC
  5
186
330
1F
100
AcDbEntity
  8
0
  6
Continuous
 62
     7
370
    25
100
AcDbCircle
 10
80.2866948941
 20
264.1772727273
 30
0.0
 40
0.4000000000000057
100
AcDbArc
 50
90.0
 51
180.0
  0
LINE
  5
187
330
1F
100
AcDbEntity
  8
0
  6
Continuous
 62
     7
370
    25
100
AcDbLine
 10
84.4866948658
 20
264.5772746346
 30
0.0
 11
80.2866949225
 21
264.5772746346
 31
0.0
  0
ARC
  5
188
330
1F
100
AcDbEntity
  8
0
  6
Continuous
 62
     7
370
    25
100
AcDbCircle
 10
84.4866948941
 20
264.1772727273
 30
0.0
 40
0.4000000000000057
100
AcDbArc
 50
0.0
 51
90.0
  0
LINE
  5
189
330
1F
100
AcDbEntity
  8
0
  6
Continuous
 62
     7
370
    25
100
AcDbLine
 10
84.8866949314
 20
259.9772742532
 30
0.0
 11
84.8866949314
 21
264.177273824
 31
0.0
  0
ARC
  5
18A
330
1F
100
AcDbEntity
  8
0
  6
Continuous
 62
     7
370
    25
100
AcDbCircle
 10
84.4866948941
 20
259.9772727273
 30
0.0
 40
0.4000000000000341
100
AcDbArc
 50
270.0
 51
0.0
  0
LINE
  5
18B
330
1F
100
AcDbEntity
  8
0
  6
Continuous
 62
     7
370
    25
100
AcDbLine
 10
80.2866949225
 20
259.5772734425
 30
0.0
 11
84.4866948658
 21
259.5772734425
 31
0.0
  0
LINE
  5
18C
330
1F
100
AcDbEntity
  8
0
  6
Continuous
 62
     7
370
    25
100
AcDbLine
 10
84.6866948986
 20
259.9772742532
 30
0.0
 11
84.6866948986
 21
264.177273824
 31
0.0
  0
ARC
  5
18D
330
1F
100
AcDbEntity
  8
0
  6
Continuous
 62
     7
370
    25
100
AcDbCircle
 10
84.4866948941
 20
264.1772727273
 30
0.0
 40
0.1999999999999886
100
AcDbArc
 50
0.0
 51
90.0
  0
LINE
  5
18E
330
1F
100
AcDbEntity
  8
0
  6
Continuous
 62
     7
370
    25
100
AcDbLine
 10
84.4866948658
 20
264.3772712491
 30
0.0
 11
80.2866949225
 21
264.3772712491
 31
0.0
  0
ARC
  5
18F
330
1F
100
AcDbEntity
  8
0
  6
Continuous
 62
     7
370
    25
100
AcDbCircle
 10
80.2866948941
 20
264.1772727273
 30
0.0
 40
0.1999999999999886
100
AcDbArc
 50
90.0
 51
180.0
  0
LINE
  5
190
330
1F
100
AcDbEntity
  8
0
  6
Continuous
 62
     7
370
    25
100
AcDbLine
 10
80.0866948897
 20
264.177273824
 30
0.0
 11
80.0866948897
 21
259.9772742532
 31
0.0
  0
ARC
  5
191
330
1F
100
AcDbEntity
  8
0
  6
Continuous
 62
     7
370
    25
100
AcDbCircle
 10
80.2866948941
 20
259.9772727273
 30
0.0
 40
0.2000000000000455
100
AcDbArc
 50
180.0
 51
270.0
  0
LINE
  5
192
330
1F
100
AcDbEntity
  8
0
  6
Continuous
 62
     7
370
    25
100
AcDbLine
 10
80.2866949225
 20
259.7772708676
 30
0.0
 11
84.4866948658
 21
259.7772708676
 31
0.0
  0
ARC
  5
193
330
1F
100
AcDbEntity
  8
0
  6
Continuous
 62
     7
370
    25
100
AcDbCircle
 10
84.4866948941
 20
259.9772727273
 30
0.0
 40
0.2000000000000455
100
AcDbArc
 50
270.0
 51
0.0
  0
LINE
  5
194
330
1F
100
AcDbEntity
  8
0
  6
Continuous
 62
     7
370
    25
100
AcDbLine
 10
63.3366942862
 20
264.5772746346
 30
0.0
 11
63.3366942862
 21
264.8772707722
 31
0.0
  0
LINE
  5
195
330
1F
100
AcDbEntity
  8
0
  6
Continuous
 62
     7
370
    25
100
AcDbLine
 10
101.4366955021
 20
264.5772746346
 30
0.0
 11
101.4366955021
 21
264.8772707722
 31
0.0
  0
LINE
  5
196
330
1F
100
AcDbEntity
  8
0
  6
Continuous
 62
     7
370
    25
100
AcDbLine
 10
101.4366955021
 20
264.5772746346
 30
0.0
 11
63.3366942862
 21
264.5772746346
 31
0.0
  0
LINE
  5
197
330
1F
100
AcDbEntity
  8
0
  6
Continuous
 62
     7
370
    25
100
AcDbLine
 10
101.4366955021
 20
264.8772707722
 30
0.0
 11
63.3366942862
 21
264.8772707722
 31
0.0
  0
LINE
  5
198
330
1F
100
AcDbEntity
  8
0
  6
Continuous
 62
     7
370
    25
100
AcDbLine
 10
104.5366943339
 20
264.8772707722
 30
0.0
 11
104.5366943339
 21
264.5772746346
 31
0.0
  0
LINE
  5
199
330
1F
100
AcDbEntity
  8
0
  6
Continuous
 62
     7
370
    25
100
AcDbLine
 10
117.986695514
 20
264.5772746346
 30
0.0
 11
117.986695514
 21
264.8772707722
 31
0.0
  0
LINE
  5
19A
330
1F
100
AcDbEntity
  8
0
  6
Continuous
 62
     7
370
    25
100
AcDbLine
 10
117.986695514
 20
264.5772746346
 30
0.0
 11
104.5366943339
 21
264.5772746346
 31
0.0
  0
LINE
  5
19B
330
1F
100
AcDbEntity
  8
0
  6
Continuous
 62
     7
370
    25
100
AcDbLine
 10
117.986695514
 20
264.8772707722
 30
0.0
 11
104.5366943339
 21
264.8772707722
 31
0.0
  0
LINE
  5
19C
330
1F
100
AcDbEntity
  8
0
  6
Continuous
 62
     7
370
    25
100
AcDbLine
 10
60.2366954544
 20
264.8772707722
 30
0.0
 11
60.2366954544
 21
264.5772746346
 31
0.0
  0
LINE
  5
19D
330
1F
100
AcDbEntity
  8
0
  6
Continuous
 62
     7
370
    25
100
AcDbLine
 10
46.7866942743
 20
264.8772707722
 30
0.0
 11
46.7866942743
 21
264.5772746346
 31
0.0
  0
LINE
  5
19E
330
1F
100
AcDbEntity
  8
0
  6
Continuous
 62
     7
370
    25
100
AcDbLine
 10
60.2366954544
 20
264.5772746346
 30
0.0
 11
46.7866942743
 21
264.5772746346
 31
0.0
  0
LINE
  5
19F
330
1F
100
AcDbEntity
  8
0
  6
Continuous
 62
     7
370
    25
100
AcDbLine
 10
60.2366954544
 20
264.8772707722
 30
0.0
 11
46.7866942743
 21
264.8772707722
 31
0.0
  0
LINE
  5
1A0
330
1F
100
AcDbEntity
  8
0
  6
Continuous
 62
     7
370
    25
100
AcDbLine
 10
101.9366950253
 20
264.5772746346
 30
0.0
 11
101.4366955021
 21
264.5772746346
 31
0.0
  0
LINE
  5
1A1
330
1F
100
AcDbEntity
  8
0
  6
Continuous
 62
     7
370
    25
100
AcDbLine
 10
101.9366950253
 20
264.8772707722
 30
0.0
 11
101.4366955021
 21
264.8772707722
 31
0.0
  0
LINE
  5
1A2
330
1F
100
AcDbEntity
  8
0
  6
Continuous
 62
     7
370
    25
100
AcDbLine
 10
60.2366954544
 20
264.5772746346
 30
0.0
 11
60.7366949776
 21
264.5772746346
 31
0.0
  0
LINE
  5
1A3
330
1F
100
AcDbEntity
  8
0
  6
Continuous
 62
     7
370
    25
100
AcDbLine
 10
60.2366954544
 20
264.8772707722
 30
0.0
 11
60.7366949776
 21
264.8772707722
 31
0.0
  0
LINE
  5
1A4
330
1F
100
AcDbEntity
  8
0
  6
Continuous
 62
     7
370
    25
100
AcDbLine
 10
62.836694763
 20
264.5772746346
 30
0.0
 11
63.3366942862
 21
264.5772746346
 31
0.0
  0
LINE
  5
1A5
330
1F
100
AcDbEntity
  8
0
  6
Continuous
 62
     7
370
    25
100
AcDbLine
 10
62.836694763
 20
264.8772707722
 30
0.0
 11
63.3366942862
 21
264.8772707722
 31
0.0
  0
LINE
  5
1A6
330
1F
100
AcDbEntity
  8
0
  6
Continuous
 62
     7
370
    25
100
AcDbLine
 10
104.5366943339
 20
264.5772746346
 30
0.0
 11
104.0366948107
 21
264.5772746346
 31
0.0
  0
LINE
  5
1A7
330
1F
100
AcDbEntity
  8
0
  6
Continuous
 62
     7
370
    25
100
AcDbLine
 10
104.5366943339
 20
264.8772707722
 30
0.0
 11
104.0366948107
 21
264.8772707722
 31
0.0
  0
LINE
  5
1A8
330
1F
100
AcDbEntity
  8
0
  6
Continuous
 62
     7
370
    25
100
AcDbLine
 10
103.611195133
 20
264.5772746346
 30
0.0
 11
103.611195133
 21
264.8772707722
 31
0.0
  0
LINE
  5
1A9
330
1F
100
AcDbEntity
  8
0
  6
Continuous
 62
     7
370
    25
100
AcDbLine
 10
104.0366948107
 20
264.5772746346
 30
0.0
 11
103.611195133
 21
264.5772746346
 31
0.0
  0
LINE
  5
1AA
330
1F
100
AcDbEntity
  8
0
  6
Continuous
 62
     7
370
    25
100
AcDbLine
 10
104.0366948107
 20
264.8772707722
 30
0.0
 11
103.611195133
 21
264.8772707722
 31
0.0
  0
LINE
  5
1AB
330
1F
100
AcDbEntity
  8
0
  6
Continuous
 62
     7
370
    25
100
AcDbLine
 10
102.3621947029
 20
264.5772746346
 30
0.0
 11
102.3621947029
 21
264.8772707722
 31
0.0
  0
LINE
  5
1AC
330
1F
100
AcDbEntity
  8
0
  6
Continuous
 62
     7
370
    25
100
AcDbLine
 10
103.611195133
 20
264.5772746346
 30
0.0
 11
102.3621947029
 21
264.5772746346
 31
0.0
  0
LINE
  5
1AD
330
1F
100
AcDbEntity
  8
0
  6
Continuous
 62
     7
370
    25
100
AcDbLine
 10
103.611195133
 20
264.8772707722
 30
0.0
 11
102.3621947029
 21
264.8772707722
 31
0.0
  0
LINE
  5
1AE
330
1F
100
AcDbEntity
  8
0
  6
Continuous
 62
     7
370
    25
100
AcDbLine
 10
102.3621947029
 20
264.5772746346
 30
0.0
 11
101.9366950253
 21
264.5772746346
 31
0.0
  0
LINE
  5
1AF
330
1F
100
AcDbEntity
  8
0
  6
Continuous
 62
     7
370
    25
100
AcDbLine
 10
102.3621947029
 20
264.8772707722
 30
0.0
 11
101.9366950253
 21
264.8772707722
 31
0.0
  0
LINE
  5
1B0
330
1F
100
AcDbEntity
  8
0
  6
Continuous
 62
     7
370
    25
100
AcDbLine
 10
62.4111950854
 20
264.5772746346
 30
0.0
 11
62.4111950854
 21
264.8772707722
 31
0.0
  0
LINE
  5
1B1
330
1F
100
AcDbEntity
  8
0
  6
Continuous
 62
     7
370
    25
100
AcDbLine
 10
62.4111950854
 20
264.5772746346
 30
0.0
 11
62.836694763
 21
264.5772746346
 31
0.0
  0
LINE
  5
1B2
330
1F
100
AcDbEntity
  8
0
  6
Continuous
 62
     7
370
    25
100
AcDbLine
 10
62.4111950854
 20
264.8772707722
 30
0.0
 11
62.836694763
 21
264.8772707722
 31
0.0
  0
LINE
  5
1B3
330
1F
100
AcDbEntity
  8
0
  6
Continuous
 62
     7
370
    25
100
AcDbLine
 10
61.1621946553
 20
264.5772746346
 30
0.0
 11
61.1621946553
 21
264.8772707722
 31
0.0
  0
LINE
  5
1B4
330
1F
100
AcDbEntity
  8
0
  6
Continuous
 62
     7
370
    25
100
AcDbLine
 10
61.1621946553
 20
264.5772746346
 30
0.0
 11
62.4111950854
 21
264.5772746346
 31
0.0
  0
LINE
  5
1B5
330
1F
100
AcDbEntity
  8
0
  6
Continuous
 62
     7
370
    25
100
AcDbLine
 10
61.1621946553
 20
264.8772707722
 30
0.0
 11
62.4111950854
 21
264.8772707722
 31
0.0
  0
LINE
  5
1B6
330
1F
100
AcDbEntity
  8
0
  6
Continuous
 62
     7
370
    25
100
AcDbLine
 10
60.7366949776
 20
264.5772746346
 30
0.0
 11
61.1621946553
 21
264.5772746346
 31
0.0
  0
LINE
  5
1B7
330
1F
100
AcDbEntity
  8
0
  6
Continuous
 62
     7
370
    25
100
AcDbLine
 10
60.7366949776
 20
264.8772707722
 30
0.0
 11
61.1621946553
 21
264.8772707722
 31
0.0
  0
LINE
  5
1B8
330
1F
100
AcDbEntity
  8
0
  6
Continuous
 62
     7
370
    25
100
AcDbLine
 10
42.3866942981
 20
206.0772738002
 30
0.0
 11
42.3866942981
 21
172.0772726975
 31
0.0
  0
LINE
  5
1B9
330
1F
100
AcDbEntity
  8
0
  6
Continuous
 62
     7
370
    25
100
AcDbLine
 10
46.5866938689
 20
209.5772734425
 30
0.0
 11
46.3866934636
 21
206.0772738002
 31
0.0
  0
LINE
  5
1BA
330
1F
100
AcDbEntity
  8
0
  6
Continuous
 62
     7
370
    25
100
AcDbLine
 10
52.3866937021
 20
209.5772734425
 30
0.0
 11
52.3866937021
 21
175.5772730849
 31
0.0
  0
LINE
  5
1BB
330
1F
100
AcDbEntity
  8
0
  6
Continuous
 62
     7
370
    25
100
AcDbLine
 10
46.1866960386
 20
172.0772726975
 30
0.0
 11
46.3988021472
 21
175.5772730849
 31
0.0
  0
LINE
  5
1BC
330
1F
100
AcDbEntity
  8
0
  6
Continuous
 62
     7
370
    25
100
AcDbLine
 10
46.1866960386
 20
172.0772726975
 30
0.0
 11
42.3866942981
 21
172.0772726975
 31
0.0
  0
LINE
  5
1BD
330
1F
100
AcDbEntity
  8
0
  6
Continuous
 62
     7
370
    25
100
AcDbLine
 10
52.3866937021
 20
209.5772734425
 30
0.0
 11
46.5866938689
 21
209.5772734425
 31
0.0
  0
LINE
  5
1BE
330
1F
100
AcDbEntity
  8
0
  6
Continuous
 62
     7
370
    25
100
AcDbLine
 10
42.3866942981
 20
206.0772738002
 30
0.0
 11
46.3866934636
 21
206.0772738002
 31
0.0
  0
LINE
  5
1BF
330
1F
100
AcDbEntity
  8
0
  6
Continuous
 62
     7
370
    25
100
AcDbLine
 10
46.3988021472
 20
175.5772730849
 30
0.0
 11
52.3866937021
 21
175.5772730849
 31
0.0
  0
LINE
  5
1C0
330
1F
100
AcDbEntity
  8
0
  6
Continuous
 62
     7
370
    25
100
AcDbLine
 10
118.3866963247
 20
206.0772738002
 30
0.0
 11
118.1866959193
 21
209.5772734425
 31
0.0
  0
LINE
  5
1C1
330
1F
100
AcDbEntity
  8
0
  6
Continuous
 62
     7
370
    25
100
AcDbLine
 10
122.3866954902
 20
172.0772726975
 30
0.0
 11
122.3866954902
 21
206.0772738002
 31
0.0
  0
LINE
  5
1C2
330
1F
100
AcDbEntity
  8
0
  6
Continuous
 62
     7
370
    25
100
AcDbLine
 10
122.3866954902
 20
172.0772726975
 30
0.0
 11
118.5866937497
 21
172.0772726975
 31
0.0
  0
LINE
  5
1C3
330
1F
100
AcDbEntity
  8
0
  6
Continuous
 62
     7
370
    25
100
AcDbLine
 10
118.3745876411
 20
175.5772730849
 30
0.0
 11
118.5866937497
 21
172.0772726975
 31
0.0
  0
LINE
  5
1C4
330
1F
100
AcDbEntity
  8
0
  6
Continuous
 62
     7
370
    25
100
AcDbLine
 10
112.3866960862
 20
175.5772730849
 30
0.0
 11
112.3866960862
 21
209.5772734425
 31
0.0
  0
LINE
  5
1C5
330
1F
100
AcDbEntity
  8
0
  6
Continuous
 62
     7
370
    25
100
AcDbLine
 10
118.1866959193
 20
209.5772734425
 30
0.0
 11
112.3866960862
 21
209.5772734425
 31
0.0
  0
LINE
  5
1C6
330
1F
100
AcDbEntity
  8
0
  6
Continuous
 62
     7
370
    25
100
AcDbLine
 10
118.3866963247
 20
206.0772738002
 30
0.0
 11
122.3866954902
 21
206.0772738002
 31
0.0
  0
LINE
  5
1C7
330
1F
100
AcDbEntity
  8
0
  6
Continuous
 62
     7
370
    25
100
AcDbLine
 10
112.3866960862
 20
175.5772730849
 30
0.0
 11
118.3745876411
 21
175.5772730849
 31
0.0
  0
LINE
  5
1C8
330
1F
100
AcDbEntity
  8
0
  6
Continuous
 62
     7
370
    25
100
AcDbLine
 10
112.3866960862
 20
209.5772734425
 30
0.0
 11
52.3866937021
 21
209.5772734425
 31
0.0
  0
LINE
  5
1C9
330
1F
100
AcDbEntity
  8
0
  6
Continuous
 62
     7
370
    25
100
AcDbLine
 10
68.8866943577
 20
175.5772730849
 30
0.0
 11
52.3866937021
 21
175.5772730849
 31
0.0
  0
LINE
  5
1CA
330
1F
100
AcDbEntity
  8
0
  6
Continuous
 62
     7
370
    25
100
AcDbLine
 10
112.3866960862
 20
175.5772730849
 30
0.0
 11
95.8866954306
 21
175.5772730849
 31
0.0
  0
LINE
  5
1CB
330
1F
100
AcDbEntity
  8
0
  6
Continuous
 62
     7
370
    25
100
AcDbLine
 10
92.3866950432
 20
175.5772730849
 30
0.0
 11
92.3866950432
 21
185.0772729657
 31
0.0
  0
LINE
  5
1CC
330
1F
100
AcDbEntity
  8
0
  6
Continuous
 62
     7
370
    25
100
AcDbLine
 10
95.8866954306
 20
175.5772730849
 30
0.0
 11
92.3866950432
 21
175.5772730849
 31
0.0
  0
ARC
  5
1CD
330
1F
100
AcDbEntity
  8
0
  6
Continuous
 62
     7
370
    25
100
AcDbCircle
 10
82.3866948941
 20
185.0772727273
 30
0.0
 40
10.0
100
AcDbArc
 50
0.0
 51
180.0
  0
LINE
  5
1CE
330
1F
100
AcDbEntity
  8
0
  6
Continuous
 62
     7
370
    25
100
AcDbLine
 10
72.3866947451
 20
185.0772729657
 30
0.0
 11
72.3866947451
 21
175.5772730849
 31
0.0
  0
LINE
  5
1CF
330
1F
100
AcDbEntity
  8
0
  6
Continuous
 62
     7
370
    25
100
AcDbLine
 10
72.3866947451
 20
175.5772730849
 30
0.0
 11
68.8866943577
 21
175.5772730849
 31
0.0
  0
LINE
  5
1D0
330
1F
100
AcDbEntity
  8
0
  6
Continuous
 62
     7
370
    25
100
AcDbLine
 10
72.3866947451
 20
175.5772730849
 30
0.0
 11
92.3866950432
 21
175.5772730849
 31
0.0
  0
LINE
  5
1D1
330
1F
100
AcDbEntity
  8
0
  6
Continuous
 62
     7
370
    25
100
AcDbLine
 10
95.8872169712
 20
175.3774917267
 30
0.0
 11
95.9175199726
 21
174.5772725485
 31
0.0
  0
LINE
  5
1D2
330
1F
100
AcDbEntity
  8
0
  6
Continuous
 62
     7
370
    25
100
AcDbLine
 10
95.8872169712
 20
175.3774917267
 30
0.0
 11
87.4866947988
 21
175.3774917267
 31
0.0
  0
LINE
  5
1D3
330
1F
100
AcDbEntity
  8
0
  6
Continuous
 62
     7
370
    25
100
AcDbLine
 10
87.4866947988
 20
175.5772730849
 30
0.0
 11
87.4866947988
 21
175.3774917267
 31
0.0
  0
LINE
  5
1D4
330
1F
100
AcDbEntity
  8
0
  6
Continuous
 62
     7
370
    25
100
AcDbLine
 10
118.1866959193
 20
172.0772726975
 30
0.0
 11
118.5866937497
 21
172.0772726975
 31
0.0
  0
LINE
  5
1D5
330
1F
100
AcDbEntity
  8
0
  6
Continuous
 62
     7
370
    25
100
AcDbLine
 10
68.8558698157
 20
174.5772725485
 30
0.0
 11
68.8861728171
 21
175.3774917267
 31
0.0
  0
LINE
  5
1D6
330
1F
100
AcDbEntity
  8
0
  6
Continuous
 62
     7
370
    25
100
AcDbLine
 10
77.2866949895
 20
175.3774917267
 30
0.0
 11
68.8861728171
 21
175.3774917267
 31
0.0
  0
LINE
  5
1D7
330
1F
100
AcDbEntity
  8
0
  6
Continuous
 62
     7
370
    25
100
AcDbLine
 10
77.2866949895
 20
175.3774917267
 30
0.0
 11
77.2866949895
 21
175.5772730849
 31
0.0
  0
LINE
  5
1D8
330
1F
100
AcDbEntity
  8
0
  6
Continuous
 62
     7
370
    25
100
AcDbLine
 10
46.1866960386
 20
172.0772726975
 30
0.0
 11
46.5866938689
 21
172.0772726975
 31
0.0
  0
ARC
  5
1D9
330
1F
100
AcDbEntity
  8
0
  6
Continuous
 62
     7
370
    25
100
AcDbCircle
 10
115.8866948941
 20
233.5772727273
 30
0.0
 40
3.5
100
AcDbArc
 50
180.0
 51
270.0
  0
LINE
  5
1DA
330
1F
100
AcDbEntity
  8
0
  6
Continuous
 62
     7
370
    25
100
AcDbLine
 10
112.3866960862
 20
233.5772743962
 30
0.0
 11
112.3866960862
 21
264.5772746346
 31
0.0
  0
LINE
  5
1DB
330
1F
100
AcDbEntity
  8
0
  6
Continuous
 62
     7
370
    25
100
AcDbLine
 10
118.3866963247
 20
261.077272012
 30
0.0
 11
118.1866959193
 21
264.5772746346
 31
0.0
  0
LINE
  5
1DC
330
1F
100
AcDbEntity
  8
0
  6
Continuous
 62
     7
370
    25
100
AcDbLine
 10
122.3866954902
 20
236.077272012
 30
0.0
 11
122.3866954902
 21
261.077272012
 31
0.0
  0
LINE
  5
1DD
330
1F
100
AcDbEntity
  8
0
  6
Continuous
 62
     7
370
    25
100
AcDbLine
 10
118.3866963247
 20
233.5777929566
 30
0.0
 11
122.3866954902
 21
236.077272012
 31
0.0
  0
LINE
  5
1DE
330
1F
100
AcDbEntity
  8
0
  6
Continuous
 62
     7
370
    25
100
AcDbLine
 10
118.3866963247
 20
233.5777929566
 30
0.0
 11
118.3866963247
 21
230.0772717736
 31
0.0
  0
LINE
  5
1DF
330
1F
100
AcDbEntity
  8
0
  6
Continuous
 62
     7
370
    25
100
AcDbLine
 10
117.3866942981
 20
230.0772717736
 30
0.0
 11
118.3866963247
 21
230.0772717736
 31
0.0
  0
LINE
  5
1E0
330
1F
100
AcDbEntity
  8
0
  6
Continuous
 62
     7
370
    25
100
AcDbLine
 10
117.3866942981
 20
230.0772717736
 30
0.0
 11
117.3866942981
 21
210.5772724889
 31
0.0
  0
LINE
  5
1E1
330
1F
100
AcDbEntity
  8
0
  6
Continuous
 62
     7
370
    25
100
AcDbLine
 10
115.8866957286
 20
210.5772724889
 30
0.0
 11
115.8866957286
 21
230.0772717736
 31
0.0
  0
LINE
  5
1E2
330
1F
100
AcDbEntity
  8
0
  6
Continuous
 62
     7
370
    25
100
AcDbLine
 10
118.1866959193
 20
264.5772746346
 30
0.0
 11
112.3866960862
 21
264.5772746346
 31
0.0
  0
LINE
  5
1E3
330
1F
100
AcDbEntity
  8
0
  6
Continuous
 62
     7
370
    25
100
AcDbLine
 10
118.3866963247
 20
261.077272012
 30
0.0
 11
122.3866954902
 21
261.077272012
 31
0.0
  0
LINE
  5
1E4
330
1F
100
AcDbEntity
  8
0
  6
Continuous
 62
     7
370
    25
100
AcDbLine
 10
115.8866957286
 20
210.5772724889
 30
0.0
 11
117.3866942981
 21
210.5772724889
 31
0.0
  0
LINE
  5
1E5
330
1F
100
AcDbEntity
  8
0
  6
Continuous
 62
     7
370
    25
100
AcDbLine
 10
47.3866954902
 20
230.0772717736
 30
0.0
 11
46.3866934636
 21
230.0772717736
 31
0.0
  0
LINE
  5
1E6
330
1F
100
AcDbEntity
  8
0
  6
Continuous
 62
     7
370
    25
100
AcDbLine
 10
46.3866934636
 20
230.0772717736
 30
0.0
 11
46.3866934636
 21
233.5777929566
 31
0.0
  0
LINE
  5
1E7
330
1F
100
AcDbEntity
  8
0
  6
Continuous
 62
     7
370
    25
100
AcDbLine
 10
46.3866934636
 20
233.5777929566
 30
0.0
 11
42.3866942981
 21
236.077272012
 31
0.0
  0
LINE
  5
1E8
330
1F
100
AcDbEntity
  8
0
  6
Continuous
 62
     7
370
    25
100
AcDbLine
 10
42.3866942981
 20
261.077272012
 30
0.0
 11
42.3866942981
 21
236.077272012
 31
0.0
  0
LINE
  5
1E9
330
1F
100
AcDbEntity
  8
0
  6
Continuous
 62
     7
370
    25
100
AcDbLine
 10
46.5866938689
 20
264.5772746346
 30
0.0
 11
46.3866934636
 21
261.077272012
 31
0.0
  0
LINE
  5
1EA
330
1F
100
AcDbEntity
  8
0
  6
Continuous
 62
     7
370
    25
100
AcDbLine
 10
52.3866937021
 20
264.5772746346
 30
0.0
 11
52.3866937021
 21
233.5772743962
 31
0.0
  0
ARC
  5
1EB
330
1F
100
AcDbEntity
  8
0
  6
Continuous
 62
     7
370
    25
100
AcDbCircle
 10
48.8866948941
 20
233.5772727273
 30
0.0
 40
3.500000000000007
100
AcDbArc
 50
270.0
 51
0.0
  0
LINE
  5
1EC
330
1F
100
AcDbEntity
  8
0
  6
Continuous
 62
     7
370
    25
100
AcDbLine
 10
48.8866940597
 20
230.0772717736
 30
0.0
 11
48.8866940597
 21
210.5772724889
 31
0.0
  0
LINE
  5
1ED
330
1F
100
AcDbEntity
  8
0
  6
Continuous
 62
     7
370
    25
100
AcDbLine
 10
47.3866954902
 20
210.5772724889
 30
0.0
 11
47.3866954902
 21
230.0772717736
 31
0.0
  0
LINE
  5
1EE
330
1F
100
AcDbEntity
  8
0
  6
Continuous
 62
     7
370
    25
100
AcDbLine
 10
52.3866937021
 20
264.5772746346
 30
0.0
 11
46.5866938689
 21
264.5772746346
 31
0.0
  0
LINE
  5
1EF
330
1F
100
AcDbEntity
  8
0
  6
Continuous
 62
     7
370
    25
100
AcDbLine
 10
42.3866942981
 20
261.077272012
 30
0.0
 11
46.3866934636
 21
261.077272012
 31
0.0
  0
LINE
  5
1F0
330
1F
100
AcDbEntity
  8
0
  6
Continuous
 62
     7
370
    25
100
AcDbLine
 10
47.3866954902
 20
210.5772724889
 30
0.0
 11
48.8866940597
 21
210.5772724889
 31
0.0
  0
LINE
  5
1F1
330
1F
100
AcDbEntity
  8
0
  6
Continuous
 62
     7
370
    25
100
AcDbLine
 10
118.3866963247
 20
211.4755293868
 30
0.0
 11
118.3866963247
 21
230.0772717736
 31
0.0
  0
LINE
  5
1F2
330
1F
100
AcDbEntity
  8
0
  6
Continuous
 62
     7
370
    25
100
AcDbLine
 10
117.3866942981
 20
211.4755293868
 30
0.0
 11
118.3866963247
 21
211.4755293868
 31
0.0
  0
LINE
  5
1F3
330
1F
100
AcDbEntity
  8
0
  6
Continuous
 62
     7
370
    25
100
AcDbLine
 10
47.3866954902
 20
211.4755293868
 30
0.0
 11
46.3866934636
 21
211.4755293868
 31
0.0
  0
LINE
  5
1F4
330
1F
100
AcDbEntity
  8
0
  6
Continuous
 62
     7
370
    25
100
AcDbLine
 10
46.3866934636
 20
211.4755293868
 30
0.0
 11
46.3866934636
 21
230.0772717736
 31
0.0
  0
LINE
  5
1F5
330
1F
100
AcDbEntity
  8
0
  6
Continuous
 62
     7
370
    25
100
AcDbLine
 10
42.3866942981
 20
220.0772753499
 30
0.0
 11
42.3866942981
 21
236.077272012
 31
0.0
  0
LINE
  5
1F6
330
1F
100
AcDbEntity
  8
0
  6
Continuous
 62
     7
370
    25
100
AcDbLine
 10
122.3866954902
 20
220.0772753499
 30
0.0
 11
122.3866954902
 21
236.077272012
 31
0.0
  0
LINE
  5
1F7
330
1F
100
AcDbEntity
  8
0
  6
Continuous
 62
     7
370
    25
100
AcDbLine
 10
112.3866960862
 20
220.0772753499
 30
0.0
 11
112.3866960862
 21
233.5772743962
 31
0.0
  0
LINE
  5
1F8
330
1F
100
AcDbEntity
  8
0
  6
Continuous
 62
     7
370
    25
100
AcDbLine
 10
52.3866937021
 20
233.5772743962
 30
0.0
 11
52.3866937021
 21
220.0772753499
 31
0.0
  0
LINE
  5
1F9
330
1F
100
AcDbEntity
  8
0
  6
Continuous
 62
     7
370
    25
100
AcDbLine
 10
118.3866963247
 20
210.3774926207
 30
0.0
 11
118.3745876411
 21
210.5772724889
 31
0.0
  0
LINE
  5
1FA
330
1F
100
AcDbEntity
  8
0
  6
Continuous
 62
     7
370
    25
100
AcDbLine
 10
118.3866963247
 20
210.3774926207
 30
0.0
 11
118.3866963247
 21
211.4755293868
 31
0.0
  0
LINE
  5
1FB
330
1F
100
AcDbEntity
  8
0
  6
Continuous
 62
     7
370
    25
100
AcDbLine
 10
118.3745876411
 20
210.5772724889
 30
0.0
 11
117.3866942981
 21
210.5772724889
 31
0.0
  0
LINE
  5
1FC
330
1F
100
AcDbEntity
  8
0
  6
Continuous
 62
     7
370
    25
100
AcDbLine
 10
46.3866934636
 20
210.3774926207
 30
0.0
 11
46.3988021472
 21
210.5772724889
 31
0.0
  0
LINE
  5
1FD
330
1F
100
AcDbEntity
  8
0
  6
Continuous
 62
     7
370
    25
100
AcDbLine
 10
46.3866934636
 20
210.3774926207
 30
0.0
 11
46.3866934636
 21
211.4755293868
 31
0.0
  0
LINE
  5
1FE
330
1F
100
AcDbEntity
  8
0
  6
Continuous
 62
     7
370
    25
100
AcDbLine
 10
46.3988021472
 20
210.5772724889
 30
0.0
 11
47.3866954902
 21
210.5772724889
 31
0.0
  0
LINE
  5
1FF
330
1F
100
AcDbEntity
  8
0
  6
Continuous
 62
     7
370
    25
100
AcDbLine
 10
112.3866960862
 20
210.5772724889
 30
0.0
 11
112.3866960862
 21
220.0772753499
 31
0.0
  0
LINE
  5
200
330
1F
100
AcDbEntity
  8
0
  6
Continuous
 62
     7
370
    25
100
AcDbLine
 10
115.8866957286
 20
210.5772724889
 30
0.0
 11
112.3866960862
 21
210.5772724889
 31
0.0
  0
LINE
  5
201
330
1F
100
AcDbEntity
  8
0
  6
Continuous
 62
     7
370
    25
100
AcDbLine
 10
52.3866937021
 20
220.0772753499
 30
0.0
 11
52.3866937021
 21
210.5772724889
 31
0.0
  0
LINE
  5
202
330
1F
100
AcDbEntity
  8
0
  6
Continuous
 62
     7
370
    25
100
AcDbLine
 10
52.3866937021
 20
210.5772724889
 30
0.0
 11
48.8866940597
 21
210.5772724889
 31
0.0
  0
LINE
  5
203
330
1F
100
AcDbEntity
  8
0
  6
Continuous
 62
     7
370
    25
100
AcDbLine
 10
118.5866937497
 20
207.0772728465
 30
0.0
 11
122.3866954902
 21
207.0772728465
 31
0.0
  0
LINE
  5
204
330
1F
100
AcDbEntity
  8
0
  6
Continuous
 62
     7
370
    25
100
AcDbLine
 10
118.5866937497
 20
207.0772728465
 30
0.0
 11
118.3866963247
 21
210.3774926207
 31
0.0
  0
LINE
  5
205
330
1F
100
AcDbEntity
  8
0
  6
Continuous
 62
     7
370
    25
100
AcDbLine
 10
122.3866954902
 20
207.0772728465
 30
0.0
 11
122.3866954902
 21
220.0772753499
 31
0.0
  0
LINE
  5
206
330
1F
100
AcDbEntity
  8
0
  6
Continuous
 62
     7
370
    25
100
AcDbLine
 10
46.1866960386
 20
207.0772728465
 30
0.0
 11
42.3866942981
 21
207.0772728465
 31
0.0
  0
LINE
  5
207
330
1F
100
AcDbEntity
  8
0
  6
Continuous
 62
     7
370
    25
100
AcDbLine
 10
46.1866960386
 20
207.0772728465
 30
0.0
 11
46.3866934636
 21
210.3774926207
 31
0.0
  0
LINE
  5
208
330
1F
100
AcDbEntity
  8
0
  6
Continuous
 62
     7
370
    25
100
AcDbLine
 10
42.3866942981
 20
207.0772728465
 30
0.0
 11
42.3866942981
 21
220.0772753499
 31
0.0
  0
SPLINE
  5
209
330
1F
100
AcDbEntity
  8
0
  6
Continuous
 62
     7
370
    25
100
AcDbSpline
210
0.0
220
0.0
230
1.0
 70
     8
 71
     3
 72
    11
 73
     7
 74
     0
 42
0.000000001
 43
0.00000001
 40
0.0
 40
0.0
 40
0.0
 40
0.0
 40
0.247652068229517
 40
0.4953112480926161
 40
0.7476622831741914
 40
1.0
 40
1.0
 40
1.0
 40
1.0
 10
109.3866959670305
 20
220.077275349877
 30
0.0
 10
109.3823222798349
 20
220.3026824010971
 30
0.0
 10
109.3735747798479
 20
220.7535029763779
 30
0.0
 10
109.30144980699
 20
221.430585448732
 30
0.0
 10
109.1889891788735
 20
222.1064312067291
 30
0.0
 10
109.0738784639539
 20
222.5512214251608
 30
0.0
 10
109.0163246253252
 20
222.7736106655814
 30
0.0
  0
ARC
  5
20A
330
1F
100
AcDbEntity
  8
0
  6
Continuous
 62
     7
370
    25
100
AcDbCircle
 10
99.3866948941
 20
220.0772727273
 30
0.0
 40
10.00000000000001
100
AcDbArc
 50
15.642471013
 51
180.0
  0
LINE
  5
20B
330
1F
100
AcDbEntity
  8
0
  6
Continuous
 62
     7
370
    25
100
AcDbLine
 10
85.886694909
 20
210.5772724889
 30
0.0
 11
78.8866948792
 21
210.5772724889
 31
0.0
  0
LINE
  5
20C
330
1F
100
AcDbEntity
  8
0
  6
Continuous
 62
     7
370
    25
100
AcDbLine
 10
109.386695967
 20
210.5772724889
 30
0.0
 11
109.386695967
 21
220.0772753499
 31
0.0
  0
LINE
  5
20D
330
1F
100
AcDbEntity
  8
0
  6
Continuous
 62
     7
370
    25
100
AcDbLine
 10
112.3866960862
 20
210.5772724889
 30
0.0
 11
109.386695967
 21
210.5772724889
 31
0.0
  0
LINE
  5
20E
330
1F
100
AcDbEntity
  8
0
  6
Continuous
 62
     7
370
    25
100
AcDbLine
 10
89.3866949239
 20
210.5772724889
 30
0.0
 11
89.3866949239
 21
220.0772753499
 31
0.0
  0
LINE
  5
20F
330
1F
100
AcDbEntity
  8
0
  6
Continuous
 62
     7
370
    25
100
AcDbLine
 10
89.3866949239
 20
210.5772724889
 30
0.0
 11
85.886694909
 21
210.5772724889
 31
0.0
  0
LINE
  5
210
330
1F
100
AcDbEntity
  8
0
  6
Continuous
 62
     7
370
    25
100
AcDbLine
 10
75.3866948643
 20
220.0772753499
 30
0.0
 11
75.3866948643
 21
210.5772724889
 31
0.0
  0
LINE
  5
211
330
1F
100
AcDbEntity
  8
0
  6
Continuous
 62
     7
370
    25
100
AcDbLine
 10
78.8866948792
 20
210.5772724889
 30
0.0
 11
75.3866948643
 21
210.5772724889
 31
0.0
  0
ARC
  5
212
330
1F
100
AcDbEntity
  8
0
  6
Continuous
 62
     7
370
    25
100
AcDbCircle
 10
65.3866948941
 20
220.0772727273
 30
0.0
 40
10.0
100
AcDbArc
 50
0.0
 51
164.357528987
  0
SPLINE
  5
213
330
1F
100
AcDbEntity
  8
0
  6
Continuous
 62
     7
370
    25
100
AcDbSpline
210
0.0
220
0.0
230
1.0
 70
     8
 71
     3
 72
    12
 73
     8
 74
     0
 42
0.000000001
 43
0.00000001
 40
0.0
 40
0.0
 40
0.0
 40
0.0
 40
0.0980157909704531
 40
0.3217986631880035
 40
0.5455850162644063
 40
0.7727951513942481
 40
1.0
 40
1.0
 40
1.0
 40
1.0
 10
55.75706516296858
 20
222.7736106655814
 30
0.0
 10
55.73371907485626
 20
222.6875223884623
 30
0.0
 10
55.65707081368497
 20
222.4048833134848
 30
0.0
 10
55.55167936904805
 20
221.9193343540695
 30
0.0
 10
55.45727369096208
 20
221.3124905316022
 30
0.0
 10
55.39785726720825
 20
220.6976437180057
 30
0.0
 10
55.39041494105101
 20
220.2840632020971
 30
0.0
 10
55.38669382126325
 20
220.077275349877
 30
0.0
  0
LINE
  5
214
330
1F
100
AcDbEntity
  8
0
  6
Continuous
 62
     7
370
    25
100
AcDbLine
 10
55.3866938213
 20
220.0772753499
 30
0.0
 11
55.3866938213
 21
210.5772724889
 31
0.0
  0
LINE
  5
215
330
1F
100
AcDbEntity
  8
0
  6
Continuous
 62
     7
370
    25
100
AcDbLine
 10
55.3866938213
 20
210.5772724889
 30
0.0
 11
52.3866937021
 21
210.5772724889
 31
0.0
  0
LINE
  5
216
330
1F
100
AcDbEntity
  8
0
  6
Continuous
 62
     7
370
    25
100
AcDbLine
 10
89.3866949239
 20
210.5772724889
 30
0.0
 11
109.386695967
 21
210.5772724889
 31
0.0
  0
LINE
  5
217
330
1F
100
AcDbEntity
  8
0
  6
Continuous
 62
     7
370
    25
100
AcDbLine
 10
55.3866938213
 20
210.5772724889
 30
0.0
 11
75.3866948643
 21
210.5772724889
 31
0.0
  0
LINE
  5
218
330
1F
100
AcDbEntity
  8
0
  6
Continuous
 62
     7
370
    25
100
AcDbLine
 10
112.9175201514
 20
209.5772734425
 30
0.0
 11
112.88721715
 21
210.3774926207
 31
0.0
  0
LINE
  5
219
330
1F
100
AcDbEntity
  8
0
  6
Continuous
 62
     7
370
    25
100
AcDbLine
 10
112.88721715
 20
210.3774926207
 30
0.0
 11
104.4866949776
 21
210.3774926207
 31
0.0
  0
LINE
  5
21A
330
1F
100
AcDbEntity
  8
0
  6
Continuous
 62
     7
370
    25
100
AcDbLine
 10
104.4866949776
 20
210.3774926207
 30
0.0
 11
104.4866949776
 21
210.5772724889
 31
0.0
  0
LINE
  5
21B
330
1F
100
AcDbEntity
  8
0
  6
Continuous
 62
     7
370
    25
100
AcDbLine
 10
118.3295533517
 20
207.0772728465
 30
0.0
 11
118.5866937497
 21
207.0772728465
 31
0.0
  0
LINE
  5
21C
330
1F
100
AcDbEntity
  8
0
  6
Continuous
 62
     7
370
    25
100
AcDbLine
 10
94.2866951683
 20
210.3774926207
 30
0.0
 11
85.8861722508
 21
210.3774926207
 31
0.0
  0
LINE
  5
21D
330
1F
100
AcDbEntity
  8
0
  6
Continuous
 62
     7
370
    25
100
AcDbLine
 10
85.8861722508
 20
210.3774926207
 30
0.0
 11
85.8558692494
 21
209.5772734425
 31
0.0
  0
LINE
  5
21E
330
1F
100
AcDbEntity
  8
0
  6
Continuous
 62
     7
370
    25
100
AcDbLine
 10
78.9175205389
 20
209.5772734425
 30
0.0
 11
78.8872175375
 21
210.3774926207
 31
0.0
  0
LINE
  5
21F
330
1F
100
AcDbEntity
  8
0
  6
Continuous
 62
     7
370
    25
100
AcDbLine
 10
78.8872175375
 20
210.3774926207
 30
0.0
 11
70.48669462
 21
210.3774926207
 31
0.0
  0
LINE
  5
220
330
1F
100
AcDbEntity
  8
0
  6
Continuous
 62
     7
370
    25
100
AcDbLine
 10
70.48669462
 20
210.3774926207
 30
0.0
 11
70.48669462
 21
210.5772724889
 31
0.0
  0
LINE
  5
221
330
1F
100
AcDbEntity
  8
0
  6
Continuous
 62
     7
370
    25
100
AcDbLine
 10
94.2866951683
 20
210.5772724889
 30
0.0
 11
94.2866951683
 21
210.3774926207
 31
0.0
  0
LINE
  5
222
330
1F
100
AcDbEntity
  8
0
  6
Continuous
 62
     7
370
    25
100
AcDbLine
 10
60.2866948107
 20
210.3774926207
 30
0.0
 11
51.8861726382
 21
210.3774926207
 31
0.0
  0
LINE
  5
223
330
1F
100
AcDbEntity
  8
0
  6
Continuous
 62
     7
370
    25
100
AcDbLine
 10
51.8861726382
 20
210.3774926207
 30
0.0
 11
51.8558696368
 21
209.5772734425
 31
0.0
  0
LINE
  5
224
330
1F
100
AcDbEntity
  8
0
  6
Continuous
 62
     7
370
    25
100
AcDbLine
 10
60.2866948107
 20
210.5772724889
 30
0.0
 11
60.2866948107
 21
210.3774926207
 31
0.0
  0
LINE
  5
225
330
1F
100
AcDbEntity
  8
0
  6
Continuous
 62
     7
370
    25
100
AcDbLine
 10
46.1866960386
 20
207.0772728465
 30
0.0
 11
46.4438364366
 21
207.0772728465
 31
0.0
  0
LINE
  5
226
330
1F
100
AcDbEntity
  8
0
  6
Continuous
 62
     7
370
    25
100
AcDbLine
 10
118.1866959193
 20
174.5772725485
 30
0.0
 11
118.1866959193
 21
166.5772727273
 31
0.0
  0
LINE
  5
227
330
1F
100
AcDbEntity
  8
0
  6
Continuous
 62
     7
370
    25
100
AcDbLine
 10
102.3866951922
 20
174.5772725485
 30
0.0
 11
102.3866951922
 21
166.5772727273
 31
0.0
  0
LINE
  5
228
330
1F
100
AcDbEntity
  8
0
  6
Continuous
 62
     7
370
    25
100
AcDbLine
 10
102.3866951922
 20
174.5772725485
 30
0.0
 11
118.1866959193
 21
174.5772725485
 31
0.0
  0
LINE
  5
229
330
1F
100
AcDbEntity
  8
0
  6
Continuous
 62
     7
370
    25
100
AcDbLine
 10
118.1866959193
 20
166.5772727273
 30
0.0
 11
102.3866951922
 21
166.5772727273
 31
0.0
  0
LINE
  5
22A
330
1F
100
AcDbEntity
  8
0
  6
Continuous
 62
     7
370
    25
100
AcDbLine
 10
46.5866938689
 20
166.5772727273
 30
0.0
 11
46.5866938689
 21
174.5772725485
 31
0.0
  0
LINE
  5
22B
330
1F
100
AcDbEntity
  8
0
  6
Continuous
 62
     7
370
    25
100
AcDbLine
 10
62.3866945961
 20
166.5772727273
 30
0.0
 11
62.3866945961
 21
174.5772725485
 31
0.0
  0
LINE
  5
22C
330
1F
100
AcDbEntity
  8
0
  6
Continuous
 62
     7
370
    25
100
AcDbLine
 10
46.5866938689
 20
174.5772725485
 30
0.0
 11
62.3866945961
 21
174.5772725485
 31
0.0
  0
LINE
  5
22D
330
1F
100
AcDbEntity
  8
0
  6
Continuous
 62
     7
370
    25
100
AcDbLine
 10
62.3866945961
 20
166.5772727273
 30
0.0
 11
46.5866938689
 21
166.5772727273
 31
0.0
  0
LINE
  5
22E
330
1F
100
AcDbEntity
  8
0
  6
Continuous
 62
     7
370
    25
100
AcDbLine
 10
102.3866951922
 20
174.5772725485
 30
0.0
 11
62.3866945961
 21
174.5772725485
 31
0.0
  0
LINE
  5
22F
330
1F
100
AcDbEntity
  8
0
  6
Continuous
 62
     7
370
    25
100
AcDbLine
 10
102.3866951922
 20
166.5772727273
 30
0.0
 11
62.3866945961
 21
166.5772727273
 31
0.0
  0
LINE
  5
230
330
1F
100
AcDbEntity
  8
0
  6
Continuous
 62
     7
370
    25
100
AcDbLine
 10
122.3866954902
 20
166.5772727273
 30
0.0
 11
122.3866954902
 21
171.0772729061
 31
0.0
  0
LINE
  5
231
330
1F
100
AcDbEntity
  8
0
  6
Continuous
 62
     7
370
    25
100
AcDbLine
 10
122.3866954902
 20
171.0772729061
 30
0.0
 11
118.1866959193
 21
171.0772729061
 31
0.0
  0
LINE
  5
232
330
1F
100
AcDbEntity
  8
0
  6
Continuous
 62
     7
370
    25
100
AcDbLine
 10
122.3866954902
 20
166.5772727273
 30
0.0
 11
118.1866959193
 21
166.5772727273
 31
0.0
  0
LINE
  5
233
330
1F
100
AcDbEntity
  8
0
  6
Continuous
 62
     7
370
    25
100
AcDbLine
 10
42.3866942981
 20
166.5772727273
 30
0.0
 11
42.3866942981
 21
171.0772729061
 31
0.0
  0
LINE
  5
234
330
1F
100
AcDbEntity
  8
0
  6
Continuous
 62
     7
370
    25
100
AcDbLine
 10
46.5866938689
 20
171.0772729061
 30
0.0
 11
42.3866942981
 21
171.0772729061
 31
0.0
  0
LINE
  5
235
330
1F
100
AcDbEntity
  8
0
  6
Continuous
 62
     7
370
    25
100
AcDbLine
 10
46.5866938689
 20
166.5772727273
 30
0.0
 11
42.3866942981
 21
166.5772727273
 31
0.0
  0
LINE
  5
236
330
1F
100
AcDbEntity
  8
0
  6
Continuous
 62
     7
370
    25
100
AcDbLine
 10
52.8866962054
 20
259.5772734425
 30
0.0
 11
79.8866948569
 21
259.5772734425
 31
0.0
  0
LINE
  5
237
330
1F
100
AcDbEntity
  8
0
  6
Continuous
 62
     7
370
    25
100
AcDbLine
 10
52.8866962054
 20
259.5772734425
 30
0.0
 11
52.8866962054
 21
259.9772742532
 31
0.0
  0
LINE
  5
238
330
1F
100
AcDbEntity
  8
0
  6
Continuous
 62
     7
370
    25
100
AcDbLine
 10
79.8866948569
 20
259.5772734425
 30
0.0
 11
79.8866948569
 21
259.9772742532
 31
0.0
  0
LINE
  5
239
330
1F
100
AcDbEntity
  8
0
  6
Continuous
 62
     7
370
    25
100
AcDbLine
 10
52.8866962054
 20
264.177273824
 30
0.0
 11
52.8866962054
 21
264.5772746346
 31
0.0
  0
LINE
  5
23A
330
1F
100
AcDbEntity
  8
0
  6
Continuous
 62
     7
370
    25
100
AcDbLine
 10
79.8866948569
 20
264.177273824
 30
0.0
 11
79.8866948569
 21
264.5772746346
 31
0.0
  0
LINE
  5
23B
330
1F
100
AcDbEntity
  8
0
  6
Continuous
 62
     7
370
    25
100
AcDbLine
 10
52.8866962054
 20
259.9772742532
 30
0.0
 11
52.8866962054
 21
264.177273824
 31
0.0
  0
LINE
  5
23C
330
1F
100
AcDbEntity
  8
0
  6
Continuous
 62
     7
370
    25
100
AcDbLine
 10
111.8866935828
 20
259.9772742532
 30
0.0
 11
111.8866935828
 21
264.177273824
 31
0.0
  0
LINE
  5
23D
330
1F
100
AcDbEntity
  8
0
  6
Continuous
 62
     7
370
    25
100
AcDbLine
 10
84.8866949314
 20
259.5772734425
 30
0.0
 11
111.8866935828
 21
259.5772734425
 31
0.0
  0
LINE
  5
23E
330
1F
100
AcDbEntity
  8
0
  6
Continuous
 62
     7
370
    25
100
AcDbLine
 10
84.8866949314
 20
259.5772734425
 30
0.0
 11
84.8866949314
 21
259.9772742532
 31
0.0
  0
LINE
  5
23F
330
1F
100
AcDbEntity
  8
0
  6
Continuous
 62
     7
370
    25
100
AcDbLine
 10
111.8866935828
 20
259.5772734425
 30
0.0
 11
111.8866935828
 21
259.9772742532
 31
0.0
  0
LINE
  5
240
330
1F
100
AcDbEntity
  8
0
  6
Continuous
 62
     7
370
    25
100
AcDbLine
 10
84.8866949314
 20
264.177273824
 30
0.0
 11
84.8866949314
 21
264.5772746346
 31
0.0
  0
LINE
  5
241
330
1F
100
AcDbEntity
  8
0
  6
Continuous
 62
     7
370
    25
100
AcDbLine
 10
111.8866935828
 20
264.177273824
 30
0.0
 11
111.8866935828
 21
264.5772746346
 31
0.0
  0
LINE
  5
242
330
1F
100
AcDbEntity
  8
0
  6
PHANTOM
 62
     8
370
    18
100
AcDbLine
 10
101.9366950253
 20
264.5772746346
 30
0.0
 11
101.9366950253
 21
264.8772707722
 31
0.0
  0
LINE
  5
243
330
1F
100
AcDbEntity
  8
0
  6
PHANTOM
 62
     8
370
    18
100
AcDbLine
 10
60.7366949776
 20
264.5772746346
 30
0.0
 11
60.7366949776
 21
264.8772707722
 31
0.0
  0
LINE
  5
244
330
1F
100
AcDbEntity
  8
0
  6
PHANTOM
 62
     8
370
    18
100
AcDbLine
 10
62.836694763
 20
264.5772746346
 30
0.0
 11
62.836694763
 21
264.8772707722
 31
0.0
  0
LINE
  5
245
330
1F
100
AcDbEntity
  8
0
  6
PHANTOM
 62
     8
370
    18
100
AcDbLine
 10
104.0366948107
 20
264.5772746346
 30
0.0
 11
104.0366948107
 21
264.8772707722
 31
0.0
  0
LINE
  5
246
330
1F
100
AcDbEntity
  8
0
  6
PHANTOM
 62
     8
370
    18
100
AcDbLine
 10
68.8866943577
 20
175.5772730849
 30
0.0
 11
68.8866943577
 21
185.0772729657
 31
0.0
  0
LINE
  5
247
330
1F
100
AcDbEntity
  8
0
  6
PHANTOM
 62
     8
370
    18
100
AcDbLine
 10
95.8866954306
 20
185.0772729657
 30
0.0
 11
95.8866954306
 21
175.5772730849
 31
0.0
  0
ARC
  5
248
330
1F
100
AcDbEntity
  8
0
  6
PHANTOM
 62
     8
370
    18
100
AcDbCircle
 10
82.3866948941
 20
185.0772727273
 30
0.0
 40
13.5
100
AcDbArc
 50
0.0
 51
180.0
  0
LINE
  5
249
330
1F
100
AcDbEntity
  8
0
  6
PHANTOM
 62
     8
370
    18
100
AcDbLine
 10
95.8866954306
 20
185.0772729657
 30
0.0
 11
92.3866950432
 21
185.0772729657
 31
0.0
  0
LINE
  5
24A
330
1F
100
AcDbEntity
  8
0
  6
PHANTOM
 62
     8
370
    18
100
AcDbLine
 10
68.8866943577
 20
185.0772729657
 30
0.0
 11
72.3866947451
 21
185.0772729657
 31
0.0
  0
LINE
  5
24B
330
1F
100
AcDbEntity
  8
0
  6
PHANTOM
 62
     8
370
    18
100
AcDbLine
 10
46.3866934636
 20
220.0772753499
 30
0.0
 11
42.3866942981
 21
220.0772753499
 31
0.0
  0
LINE
  5
24C
330
1F
100
AcDbEntity
  8
0
  6
PHANTOM
 62
     8
370
    18
100
AcDbLine
 10
118.3866963247
 20
220.0772753499
 30
0.0
 11
122.3866954902
 21
220.0772753499
 31
0.0
  0
LINE
  5
24D
330
1F
100
AcDbEntity
  8
0
  6
PHANTOM
 62
     8
370
    18
100
AcDbLine
 10
112.3866960862
 20
220.0772753499
 30
0.0
 11
115.8866957286
 21
220.0772753499
 31
0.0
  0
LINE
  5
24E
330
1F
100
AcDbEntity
  8
0
  6
PHANTOM
 62
     8
370
    18
100
AcDbLine
 10
52.3866937021
 20
220.0772753499
 30
0.0
 11
48.8866940597
 21
220.0772753499
 31
0.0
  0
LINE
  5
24F
330
1F
100
AcDbEntity
  8
0
  6
PHANTOM
 62
     8
370
    18
100
AcDbLine
 10
112.3866960862
 20
220.0772753499
 30
0.0
 11
109.386695967
 21
220.0772753499
 31
0.0
  0
LWPOLYLINE
  5
250
330
1F
100
AcDbEntity
  8
0
  6
PHANTOM
 62
     8
370
    18
100
AcDbPolyline
 90
       16
 70
   128
 43
0.0
 10
112.3866960862
 20
223.7173250458
 10
112.0343938926
 20
223.6186793587
 10
111.6859540799
 20
223.5211184762
 10
111.3451943258
 20
223.4257033608
 10
111.0158429006
 20
223.3334830544
 10
110.7015088657
 20
223.2454708359
 10
110.4056403497
 20
223.1626263402
 10
110.1314768651
 20
223.0858555577
 10
109.882022486
 20
223.016010835
 10
109.6600071052
 20
222.9538431905
 10
109.4678685525
 20
222.9000440381
 10
109.3077078918
 20
222.8551975033
 10
109.18128346
 20
222.8197983048
 10
109.0899751046
 20
222.7942338727
 10
109.034787164
 20
222.7787783883
 10
109.0163246253
 20
222.7736106656
  0
ARC
  5
251
330
1F
100
AcDbEntity
  8
0
  6
PHANTOM
 62
     8
370
    18
100
AcDbCircle
 10
99.3866948941
 20
220.0772727273
 30
0.0
 40
13.50000000000001
100
AcDbArc
 50
15.642471013
 51
180.0
  0
LINE
  5
252
330
1F
100
AcDbEntity
  8
0
  6
PHANTOM
 62
     8
370
    18
100
AcDbLine
 10
85.886694909
 20
220.0772753499
 30
0.0
 11
89.3866949239
 21
220.0772753499
 31
0.0
  0
LINE
  5
253
330
1F
100
AcDbEntity
  8
0
  6
PHANTOM
 62
     8
370
    18
100
AcDbLine
 10
78.8866948792
 20
220.0772753499
 30
0.0
 11
78.8866948792
 21
210.5772724889
 31
0.0
  0
ARC
  5
254
330
1F
100
AcDbEntity
  8
0
  6
PHANTOM
 62
     8
370
    18
100
AcDbCircle
 10
65.3866948941
 20
220.0772727273
 30
0.0
 40
13.5
100
AcDbArc
 50
0.0
 51
164.357528987
  0
LINE
  5
255
330
1F
100
AcDbEntity
  8
0
  6
PHANTOM
 62
     8
370
    18
100
AcDbLine
 10
85.886694909
 20
210.5772724889
 30
0.0
 11
85.886694909
 21
220.0772753499
 31
0.0
  0
LINE
  5
256
330
1F
100
AcDbEntity
  8
0
  6
PHANTOM
 62
     8
370
    18
100
AcDbLine
 10
78.8866948792
 20
220.0772753499
 30
0.0
 11
75.3866948643
 21
220.0772753499
 31
0.0
  0
LWPOLYLINE
  5
257
330
1F
100
AcDbEntity
  8
0
  6
PHANTOM
 62
     8
370
    18
100
AcDbPolyline
 90
       16
 70
   128
 43
0.0
 10
52.3866937021
 20
223.7173250458
 10
52.7389958957
 20
223.6186793587
 10
53.0874357084
 20
223.5211184762
 10
53.4281954625
 20
223.4257033608
 10
53.7575468877
 20
223.3334830544
 10
54.0718809226
 20
223.2454708359
 10
54.3677494386
 20
223.1626263402
 10
54.6419129232
 20
223.0858555577
 10
54.8913673023
 20
223.016010835
 10
55.1133826831
 20
222.9538431905
 10
55.3055212358
 20
222.9000440381
 10
55.4656818965
 20
222.8551975033
 10
55.5921063283
 20
222.8197983048
 10
55.6834146837
 20
222.7942338727
 10
55.7386026242
 20
222.7787783883
 10
55.757065163
 20
222.7736106656
  0
LINE
  5
258
330
1F
100
AcDbEntity
  8
0
  6
PHANTOM
 62
     8
370
    18
100
AcDbLine
 10
52.3866937021
 20
220.0772753499
 30
0.0
 11
55.3866938213
 21
220.0772753499
 31
0.0
  0
LINE
  5
259
330
1F
100
AcDbEntity
  8
0
  6
PHANTOM
 62
     8
370
    18
100
AcDbLine
 10
52.8866962054
 20
259.9772742532
 30
0.0
 11
79.8866948569
 21
259.9772742532
 31
0.0
  0
LINE
  5
25A
330
1F
100
AcDbEntity
  8
0
  6
PHANTOM
 62
     8
370
    18
100
AcDbLine
 10
52.8866962054
 20
264.177273824
 30
0.0
 11
79.8866948569
 21
264.177273824
 31
0.0
  0
LINE
  5
25B
330
1F
100
AcDbEntity
  8
0
  6
PHANTOM
 62
     8
370
    18
100
AcDbLine
 10
84.8866949314
 20
259.9772742532
 30
0.0
 11
111.8866935828
 21
259.9772742532
 31
0.0
  0
LINE
  5
25C
330
1F
100
AcDbEntity
  8
0
  6
PHANTOM
 62
     8
370
    18
100
AcDbLine
 10
84.8866949314
 20
264.177273824
 30
0.0
 11
111.8866935828
 21
264.177273824
 31
0.0
  0
HATCH
  5
25D
330
1F
100
AcDbEntity
  8
0
  6
Continuous
 62
     7
370
    18
100
AcDbHatch
 10
0.0
 20
0.0
 30
0.0
210
0.0
220
0.0
230
1.0
  2
ANSI34
 70
     0
 71
     0
 91
        1
 92
        0
 93
        4
 72
     1
 10
118.1866948941469
 20
174.5772727272727
 11
102.3866948941469
 21
174.5772727272727
 72
     1
 10
102.3866948941469
 20
174.5772727272727
 11
102.3866948941469
 21
166.5772727272727
 72
     1
 10
102.3866948941469
 20
166.5772727272727
 11
118.1866948941469
 21
166.5772727272727
 72
     1
 10
118.1866948941469
 20
166.5772727272727
 11
118.1866948941469
 21
174.5772727272727
 97
        0
 75
     0
 76
     1
 52
0.0
 41
1.0
 77
     0
 78
     4
 53
45.0
 43
0.0
 44
0.0
 45
-13.47038418160373
 46
13.47038418160373
 79
     0
 53
45.0
 43
4.49013
 44
0.0
 45
-13.47038418160373
 46
13.47038418160373
 79
     0
 53
45.0
 43
8.98026
 44
0.0
 45
-13.47038418160373
 46
13.47038418160373
 79
     0
 53
45.0
 43
13.4704
 44
0.0
 45
-13.47038418160373
 46
13.47038418160373
 79
     0
 98
        1
 10
0.0
 20
0.0
  0
HATCH
  5
25E
330
1F
100
AcDbEntity
  8
0
  6
Continuous
 62
     7
370
    18
100
AcDbHatch
 10
0.0
 20
0.0
 30
0.0
210
0.0
220
0.0
230
1.0
  2
ANSI34
 70
     0
 71
     0
 91
        1
 92
        0
 93
        4
 72
     1
 10
46.58669489414688
 20
166.5772727272727
 11
62.38669489414687
 21
166.5772727272727
 72
     1
 10
62.38669489414687
 20
166.5772727272727
 11
62.38669489414687
 21
174.5772727272727
 72
     1
 10
62.38669489414687
 20
174.5772727272727
 11
46.58669489414688
 21
174.5772727272727
 72
     1
 10
46.58669489414688
 20
174.5772727272727
 11
46.58669489414688
 21
166.5772727272727
 97
        0
 75
     0
 76
     1
 52
0.0
 41
1.0
 77
     0
 78
     4
 53
45.0
 43
0.0
 44
0.0
 45
-13.47038418160373
 46
13.47038418160373
 79
     0
 53
45.0
 43
4.49013
 44
0.0
 45
-13.47038418160373
 46
13.47038418160373
 79
     0
 53
45.0
 43
8.98026
 44
0.0
 45
-13.47038418160373
 46
13.47038418160373
 79
     0
 53
45.0
 43
13.4704
 44
0.0
 45
-13.47038418160373
 46
13.47038418160373
 79
     0
 98
        1
 10
0.0
 20
0.0
  0
HATCH
  5
25F
330
1F
100
AcDbEntity
  8
0
  6
Continuous
 62
     7
370
    18
100
AcDbHatch
 10
0.0
 20
0.0
 30
0.0
210
0.0
220
0.0
230
1.0
  2
ANSI34
 70
     0
 71
     0
 91
        1
 92
        0
 93
       12
 72
     1
 10
115.8866948941469
 20
230.0772727272726
 11
115.8866948941469
 21
210.5772727272727
 72
     1
 10
115.8866948941469
 20
210.5772727272727
 11
117.3866948941469
 21
210.5772727272727
 72
     1
 10
117.3866948941469
 20
210.5772727272727
 11
117.3866948941469
 21
230.0772727272726
 72
     1
 10
117.3866948941469
 20
230.0772727272726
 11
118.3866948941469
 21
230.0772727272726
 72
     1
 10
118.3866948941469
 20
230.0772727272726
 11
118.3866948941469
 21
233.5777953196354
 72
     1
 10
118.3866948941469
 20
233.5777953196354
 11
122.3866948941469
 21
236.0772727272726
 72
     1
 10
122.3866948941469
 20
236.0772727272726
 11
122.3866948941469
 21
261.0772727272727
 72
     1
 10
122.3866948941469
 20
261.0772727272727
 11
118.3866948941469
 21
261.0772727272727
 72
     1
 10
118.3866948941469
 20
261.0772727272727
 11
118.1866948941469
 21
264.5772727272727
 72
     1
 10
118.1866948941469
 20
264.5772727272727
 11
112.3866948941469
 21
264.5772727272727
 72
     1
 10
112.3866948941469
 20
264.5772727272727
 11
112.3866948941469
 21
233.5772727272726
 72
     2
 10
115.8866948941469
 20
233.5772727272726
 40
3.5
 50
180.0
 51
270.0000000000008
 73
     1
 97
        0
 75
     0
 76
     1
 52
0.0
 41
1.0
 77
     0
 78
     4
 53
45.0
 43
0.0
 44
0.0
 45
-13.47038418160373
 46
13.47038418160373
 79
     0
 53
45.0
 43
4.49013
 44
0.0
 45
-13.47038418160373
 46
13.47038418160373
 79
     0
 53
45.0
 43
8.98026
 44
0.0
 45
-13.47038418160373
 46
13.47038418160373
 79
     0
 53
45.0
 43
13.4704
 44
0.0
 45
-13.47038418160373
 46
13.47038418160373
 79
     0
 98
        1
 10
0.0
 20
0.0
  0
HATCH
  5
260
330
1F
100
AcDbEntity
  8
0
  6
Continuous
 62
     7
370
    18
100
AcDbHatch
 10
0.0
 20
0.0
 30
0.0
210
0.0
220
0.0
230
1.0
  2
ANSI34
 70
     0
 71
     0
 91
        1
 92
        0
 93
       12
 72
     1
 10
47.38669489414687
 20
230.0772727272726
 11
47.38669489414687
 21
210.5772727272727
 72
     1
 10
47.38669489414687
 20
210.5772727272727
 11
48.88669489414686
 21
210.5772727272727
 72
     1
 10
48.88669489414686
 20
210.5772727272727
 11
48.88669489414686
 21
230.0772727272726
 72
     2
 10
48.88669489414686
 20
233.5772727272726
 40
3.5
 50
270.0000000000008
 51
360.0000000000008
 73
     1
 72
     1
 10
52.38669489414686
 20
233.5772727272726
 11
52.38669489414686
 21
264.5772727272727
 72
     1
 10
52.38669489414686
 20
264.5772727272727
 11
46.58669489414687
 21
264.5772727272727
 72
     1
 10
46.58669489414687
 20
264.5772727272727
 11
46.38669489414686
 21
261.0772727272727
 72
     1
 10
46.38669489414686
 20
261.0772727272727
 11
42.38669489414686
 21
261.0772727272727
 72
     1
 10
42.38669489414686
 20
261.0772727272727
 11
42.38669489414686
 21
236.0772727272726
 72
     1
 10
42.38669489414686
 20
236.0772727272726
 11
46.38669489414686
 21
233.5777953196354
 72
     1
 10
46.38669489414686
 20
233.5777953196354
 11
46.38669489414686
 21
230.0772727272726
 72
     1
 10
46.38669489414686
 20
230.0772727272726
 11
47.38669489414687
 21
230.0772727272726
 97
        0
 75
     0
 76
     1
 52
0.0
 41
1.0
 77
     0
 78
     4
 53
45.0
 43
0.0
 44
0.0
 45
-13.47038418160373
 46
13.47038418160373
 79
     0
 53
45.0
 43
4.49013
 44
0.0
 45
-13.47038418160373
 46
13.47038418160373
 79
     0
 53
45.0
 43
8.98026
 44
0.0
 45
-13.47038418160373
 46
13.47038418160373
 79
     0
 53
45.0
 43
13.4704
 44
0.0
 45
-13.47038418160373
 46
13.47038418160373
 79
     0
 98
        1
 10
0.0
 20
0.0
  0
HATCH
  5
261
330
1F
100
AcDbEntity
  8
0
  6
Continuous
 62
     7
370
    18
100
AcDbHatch
 10
0.0
 20
0.0
 30
0.0
210
0.0
220
0.0
230
1.0
  2
ANSI34
 70
     0
 71
     0
 91
        1
 92
        0
 93
        8
 72
     1
 10
112.3866948941469
 20
209.5772727272727
 11
112.3866948941469
 21
175.5772727272727
 72
     1
 10
112.3866948941469
 20
175.5772727272727
 11
118.3745877380929
 21
175.5772727272726
 72
     1
 10
118.3745877380929
 20
175.5772727272726
 11
118.5866948941469
 21
172.0772727272727
 72
     1
 10
118.5866948941469
 20
172.0772727272727
 11
122.3866948941469
 21
172.0772727272727
 72
     1
 10
122.3866948941469
 20
172.0772727272727
 11
122.3866948941469
 21
206.0772727272727
 72
     1
 10
122.3866948941469
 20
206.0772727272727
 11
118.3866948941469
 21
206.0772727272727
 72
     1
 10
118.3866948941469
 20
206.0772727272727
 11
118.1866948941469
 21
209.5772727272727
 72
     1
 10
118.1866948941469
 20
209.5772727272727
 11
112.3866948941469
 21
209.5772727272727
 97
        0
 75
     0
 76
     1
 52
0.0
 41
1.0
 77
     0
 78
     4
 53
45.0
 43
0.0
 44
0.0
 45
-13.47038418160373
 46
13.47038418160373
 79
     0
 53
45.0
 43
4.49013
 44
0.0
 45
-13.47038418160373
 46
13.47038418160373
 79
     0
 53
45.0
 43
8.98026
 44
0.0
 45
-13.47038418160373
 46
13.47038418160373
 79
     0
 53
45.0
 43
13.4704
 44
0.0
 45
-13.47038418160373
 46
13.47038418160373
 79
     0
 98
        1
 10
0.0
 20
0.0
  0
HATCH
  5
262
330
1F
100
AcDbEntity
  8
0
  6
Continuous
 62
     7
370
    18
100
AcDbHatch
 10
0.0
 20
0.0
 30
0.0
210
0.0
220
0.0
230
1.0
  2
ANSI34
 70
     0
 71
     0
 91
        1
 92
        0
 93
        8
 72
     1
 10
42.38669489414686
 20
172.0772727272727
 11
46.18669489414686
 21
172.0772727272727
 72
     1
 10
46.18669489414686
 20
172.0772727272727
 11
46.39880205020086
 21
175.5772727272726
 72
     1
 10
46.39880205020086
 20
175.5772727272726
 11
52.38669489414686
 21
175.5772727272727
 72
     1
 10
52.38669489414686
 20
175.5772727272727
 11
52.38669489414686
 21
209.5772727272727
 72
     1
 10
52.38669489414686
 20
209.5772727272727
 11
46.58669489414687
 21
209.5772727272727
 72
     1
 10
46.58669489414687
 20
209.5772727272727
 11
46.38669489414686
 21
206.0772727272727
 72
     1
 10
46.38669489414686
 20
206.0772727272727
 11
42.38669489414686
 21
206.0772727272727
 72
     1
 10
42.38669489414686
 20
206.0772727272727
 11
42.38669489414686
 21
172.0772727272727
 97
        0
 75
     0
 76
     1
 52
0.0
 41
1.0
 77
     0
 78
     4
 53
45.0
 43
0.0
 44
0.0
 45
-13.47038418160373
 46
13.47038418160373
 79
     0
 53
45.0
 43
4.49013
 44
0.0
 45
-13.47038418160373
 46
13.47038418160373
 79
     0
 53
45.0
 43
8.98026
 44
0.0
 45
-13.47038418160373
 46
13.47038418160373
 79
     0
 53
45.0
 43
13.4704
 44
0.0
 45
-13.47038418160373
 46
13.47038418160373
 79
     0
 98
        1
 10
0.0
 20
0.0
  0
HATCH
  5
263
330
1F
100
AcDbEntity
  8
0
  6
Continuous
 62
     7
370
    18
100
AcDbHatch
 10
0.0
 20
0.0
 30
0.0
210
0.0
220
0.0
230
1.0
  2
DIN 201 Stahl und Stahlguss
 70
     0
 71
     0
 91
        1
 92
        0
 93
        4
 72
     1
 10
60.23669489414682
 20
264.8772727272726
 11
46.78669489414681
 21
264.8772727272726
 72
     1
 10
46.78669489414681
 20
264.8772727272726
 11
46.78669489414681
 21
264.5772727272727
 72
     1
 10
46.78669489414681
 20
264.5772727272727
 11
60.23669489414682
 21
264.5772727272727
 72
     1
 10
60.23669489414682
 20
264.5772727272727
 11
60.23669489414682
 21
264.8772727272726
 97
        0
 75
     0
 76
     2
 52
90.0
 41
1.0
 77
     0
 78
     4
 53
135.0000020971719
 43
0.0
 44
0.0
 45
-13.47038368855324
 46
-13.4703846746542
 79
     0
 53
135.0000020971719
 43
-0.0000000000000157
 44
4.490128
 45
-13.47038368855324
 46
-13.4703846746542
 79
     0
 53
135.0000020971719
 43
-0.0000000000000314
 44
8.980256
 45
-13.47038368855324
 46
-13.4703846746542
 79
     0
 53
135.0000020971719
 43
-0.000000000000047
 44
13.47038
 45
-13.47038368855324
 46
-13.4703846746542
 79
     0
 98
        1
 10
0.0
 20
0.0
  0
HATCH
  5
264
330
1F
100
AcDbEntity
  8
0
  6
Continuous
 62
     7
370
    18
100
AcDbHatch
 10
0.0
 20
0.0
 30
0.0
210
0.0
220
0.0
230
1.0
  2
DIN 201 Stahl und Stahlguss
 70
     0
 71
     0
 91
        1
 92
        0
 93
        4
 72
     1
 10
63.33669489414681
 20
264.5772727272727
 11
101.4366948941469
 21
264.5772727272727
 72
     1
 10
101.4366948941469
 20
264.5772727272727
 11
101.4366948941469
 21
264.8772727272726
 72
     1
 10
101.4366948941469
 20
264.8772727272726
 11
63.33669489414681
 21
264.8772727272726
 72
     1
 10
63.33669489414681
 20
264.8772727272726
 11
63.33669489414681
 21
264.5772727272727
 97
        0
 75
     0
 76
     2
 52
90.0
 41
1.0
 77
     0
 78
     4
 53
135.0000020971719
 43
0.0
 44
0.0
 45
-13.47038368855324
 46
-13.4703846746542
 79
     0
 53
135.0000020971719
 43
-0.0000000000000157
 44
4.490128
 45
-13.47038368855324
 46
-13.4703846746542
 79
     0
 53
135.0000020971719
 43
-0.0000000000000314
 44
8.980256
 45
-13.47038368855324
 46
-13.4703846746542
 79
     0
 53
135.0000020971719
 43
-0.000000000000047
 44
13.47038
 45
-13.47038368855324
 46
-13.4703846746542
 79
     0
 98
        1
 10
0.0
 20
0.0
  0
HATCH
  5
265
330
1F
100
AcDbEntity
  8
0
  6
Continuous
 62
     7
370
    18
100
AcDbHatch
 10
0.0
 20
0.0
 30
0.0
210
0.0
220
0.0
230
1.0
  2
DIN 201 Stahl und Stahlguss
 70
     0
 71
     0
 91
        1
 92
        0
 93
        4
 72
     1
 10
104.5366948941469
 20
264.5772727272727
 11
117.9866948941469
 21
264.5772727272727
 72
     1
 10
117.9866948941469
 20
264.5772727272727
 11
117.9866948941469
 21
264.8772727272726
 72
     1
 10
117.9866948941469
 20
264.8772727272726
 11
104.5366948941469
 21
264.8772727272726
 72
     1
 10
104.5366948941469
 20
264.8772727272726
 11
104.5366948941469
 21
264.5772727272727
 97
        0
 75
     0
 76
     2
 52
90.0
 41
1.0
 77
     0
 78
     4
 53
135.0000020971719
 43
0.0
 44
0.0
 45
-13.47038368855324
 46
-13.4703846746542
 79
     0
 53
135.0000020971719
 43
-0.0000000000000157
 44
4.490128
 45
-13.47038368855324
 46
-13.4703846746542
 79
     0
 53
135.0000020971719
 43
-0.0000000000000314
 44
8.980256
 45
-13.47038368855324
 46
-13.4703846746542
 79
     0
 53
135.0000020971719
 43
-0.000000000000047
 44
13.47038
 45
-13.47038368855324
 46
-13.4703846746542
 79
     0
 98
        1
 10
0.0
 20
0.0
  0
HATCH
  5
266
330
1F
100
AcDbEntity
  8
0
  6
Continuous
 62
     7
370
    18
100
AcDbHatch
 10
0.0
 20
0.0
 30
0.0
210
0.0
220
0.0
230
1.0
  2
DIN 201 Stahl und Stahlguss
 70
     0
 71
     0
 91
        2
 92
        0
 93
        8
 72
     1
 10
80.28669489414688
 20
259.5772727272727
 11
84.48669489414686
 21
259.5772727272727
 72
     2
 10
84.48669489414686
 20
259.9772727272727
 40
0.4
 50
270.0000000000008
 51
360.0000000000008
 73
     1
 72
     1
 10
84.88669489414687
 20
259.9772727272727
 11
84.88669489414687
 21
264.1772727272726
 72
     2
 10
84.48669489414686
 20
264.1772727272726
 40
0.4
 50
0.0
 51
90.0
 73
     1
 72
     1
 10
84.48669489414686
 20
264.5772727272726
 11
80.28669489414688
 21
264.5772727272726
 72
     2
 10
80.28669489414686
 20
264.1772727272726
 40
0.4
 50
89.99999999999797
 51
180.0
 73
     1
 72
     1
 10
79.88669489414686
 20
264.1772727272726
 11
79.88669489414686
 21
259.9772727272727
 72
     2
 10
80.28669489414686
 20
259.9772727272727
 40
0.4
 50
180.0
 51
270.0000000000028
 73
     1
 97
        0
 92
        0
 93
        8
 72
     2
 10
84.48669489414686
 20
259.9772727272727
 40
0.2000000000000002
 50
0.0
 51
90.0
 73
     0
 72
     1
 10
84.48669489414686
 20
259.7772727272726
 11
80.28669489414686
 21
259.7772727272726
 72
     2
 10
80.28669489414686
 20
259.9772727272727
 40
0.2000000000000002
 50
90.0
 51
180.0
 73
     0
 72
     1
 10
80.08669489414687
 20
259.9772727272727
 11
80.08669489414687
 21
264.1772727272726
 72
     2
 10
80.28669489414686
 20
264.1772727272726
 40
0.2
 50
180.0
 51
270.0000000000049
 73
     0
 72
     1
 10
80.28669489414688
 20
264.3772727272726
 11
84.48669489414686
 21
264.3772727272726
 72
     2
 10
84.48669489414686
 20
264.1772727272726
 40
0.2
 50
270.0000000000008
 51
360.0000000000008
 73
     0
 72
     1
 10
84.68669489414685
 20
264.1772727272726
 11
84.68669489414685
 21
259.9772727272727
 97
        0
 75
     0
 76
     2
 52
0.0
 41
1.0
 77
     0
 78
     4
 53
45.00000209717174
 43
0.0
 44
0.0
 45
-13.47038467465416
 46
13.47038368855329
 79
     0
 53
45.00000209717174
 43
4.490128
 44
0.0
 45
-13.47038467465416
 46
13.47038368855329
 79
     0
 53
45.00000209717174
 43
8.980256
 44
0.0
 45
-13.47038467465416
 46
13.47038368855329
 79
     0
 53
45.00000209717174
 43
13.47038
 44
0.0
 45
-13.47038467465416
 46
13.47038368855329
 79
     0
 98
        1
 10
0.0
 20
0.0
  0
INSERT
  5
26C
330
1F
100
AcDbEntity
  8
O-TEKST
100
AcDbBlockReference
  2
SW_NOTE_1
 10
61.624717013
 20
145.3613696937
 30
0.0
  0
LINE
  5
26D
330
1F
100
AcDbEntity
  8
0
  6
Continuous
 62
     7
370
    25
100
AcDbLine
 10
413.2476058924
 20
34.4254539256
 30
0.0
 11
413.54760203
 21
34.4254539256
 31
0.0
  0
LINE
  5
26E
330
1F
100
AcDbEntity
  8
0
  6
Continuous
 62
     7
370
    25
100
AcDbLine
 10
413.54760203
 20
34.4254539256
 30
0.0
 11
413.54760203
 21
36.4254549984
 31
0.0
  0
LINE
  5
26F
330
1F
100
AcDbEntity
  8
0
  6
Continuous
 62
     7
370
    25
100
AcDbLine
 10
413.54760203
 20
36.4254549984
 30
0.0
 11
413.54760203
 21
103.6254540925
 31
0.0
  0
LINE
  5
270
330
1F
100
AcDbEntity
  8
0
  6
Continuous
 62
     7
370
    25
100
AcDbLine
 10
413.2476058924
 20
105.6254551653
 30
0.0
 11
413.54760203
 21
105.6254551653
 31
0.0
  0
LINE
  5
271
330
1F
100
AcDbEntity
  8
0
  6
Continuous
 62
     7
370
    25
100
AcDbLine
 10
413.54760203
 20
103.6254540925
 30
0.0
 11
413.54760203
 21
105.6254551653
 31
0.0
  0
LINE
  5
272
330
1F
100
AcDbEntity
  8
0
  6
Continuous
 62
     7
370
    25
100
AcDbLine
 10
320.7476039553
 20
110.0254551415
 30
0.0
 11
320.7476039553
 21
103.0254558568
 31
0.0
  0
LINE
  5
273
330
1F
100
AcDbEntity
  8
0
  6
Continuous
 62
     7
370
    25
100
AcDbLine
 10
354.7476050579
 20
110.0254551415
 30
0.0
 11
320.7476039553
 21
110.0254551415
 31
0.0
  0
LINE
  5
274
330
1F
100
AcDbEntity
  8
0
  6
Continuous
 62
     7
370
    25
100
AcDbLine
 10
354.7476050579
 20
110.0254551415
 30
0.0
 11
354.7476050579
 21
30.0254539494
 31
0.0
  0
LINE
  5
275
330
1F
100
AcDbEntity
  8
0
  6
Continuous
 62
     7
370
    25
100
AcDbLine
 10
354.7476050579
 20
30.0254539494
 30
0.0
 11
320.7476039553
 21
30.0254539494
 31
0.0
  0
LINE
  5
276
330
1F
100
AcDbEntity
  8
0
  6
Continuous
 62
     7
370
    25
100
AcDbLine
 10
333.7476042235
 20
37.0254532342
 30
0.0
 11
320.7476039553
 21
37.0254532342
 31
0.0
  0
ARC
  5
277
330
1F
100
AcDbEntity
  8
0
  6
Continuous
 62
     7
370
    25
100
AcDbCircle
 10
333.7476039851
 20
53.0254545455
 30
0.0
 40
16.00000000000001
100
AcDbArc
 50
270.0
 51
90.0
  0
LINE
  5
278
330
1F
100
AcDbEntity
  8
0
  6
Continuous
 62
     7
370
    25
100
AcDbLine
 10
320.7476039553
 20
69.0254545678
 30
0.0
 11
333.7476042235
 21
69.0254545678
 31
0.0
  0
LINE
  5
279
330
1F
100
AcDbEntity
  8
0
  6
Continuous
 62
     7
370
    25
100
AcDbLine
 10
320.7476039553
 20
71.0254545231
 30
0.0
 11
320.7476039553
 21
69.0254545678
 31
0.0
  0
LINE
  5
27A
330
1F
100
AcDbEntity
  8
0
  6
Continuous
 62
     7
370
    25
100
AcDbLine
 10
333.7476042235
 20
71.0254545231
 30
0.0
 11
320.7476039553
 21
71.0254545231
 31
0.0
  0
ARC
  5
27B
330
1F
100
AcDbEntity
  8
0
  6
Continuous
 62
     7
370
    25
100
AcDbCircle
 10
333.7476039851
 20
87.0254545455
 30
0.0
 40
16.0
100
AcDbArc
 50
270.0
 51
90.0
  0
LINE
  5
27C
330
1F
100
AcDbEntity
  8
0
  6
Continuous
 62
     7
370
    25
100
AcDbLine
 10
320.7476039553
 20
103.0254558568
 30
0.0
 11
333.7476042235
 21
103.0254558568
 31
0.0
  0
LINE
  5
27D
330
1F
100
AcDbEntity
  8
0
  6
Continuous
 62
     7
370
    25
100
AcDbLine
 10
320.7476039553
 20
37.0254532342
 30
0.0
 11
320.7476039553
 21
30.0254539494
 31
0.0
  0
LINE
  5
27E
330
1F
100
AcDbEntity
  8
0
  6
Continuous
 62
     7
370
    25
100
AcDbLine
 10
324.0478229844
 20
39.5249322896
 30
0.0
 11
320.7476039553
 21
39.3999592309
 31
0.0
  0
LINE
  5
27F
330
1F
100
AcDbEntity
  8
0
  6
Continuous
 62
     7
370
    25
100
AcDbLine
 10
333.7476042235
 20
39.5249322896
 30
0.0
 11
324.0478229844
 21
39.5249322896
 31
0.0
  0
LINE
  5
280
330
1F
100
AcDbEntity
  8
0
  6
Continuous
 62
     7
370
    25
100
AcDbLine
 10
320.7476039553
 20
37.0254532342
 30
0.0
 11
320.7476039553
 21
39.3999592309
 31
0.0
  0
ARC
  5
281
330
1F
100
AcDbEntity
  8
0
  6
Continuous
 62
     7
370
    25
100
AcDbCircle
 10
333.7476039851
 20
53.0254545455
 30
0.0
 40
13.50052259236269
100
AcDbArc
 50
270.0
 51
90.0
  0
LINE
  5
282
330
1F
100
AcDbEntity
  8
0
  6
Continuous
 62
     7
370
    25
100
AcDbLine
 10
324.0478229844
 20
66.5259771888
 30
0.0
 11
333.7476042235
 21
66.5259771888
 31
0.0
  0
LINE
  5
283
330
1F
100
AcDbEntity
  8
0
  6
Continuous
 62
     7
370
    25
100
AcDbLine
 10
320.7476039553
 20
66.6509509925
 30
0.0
 11
324.0478229844
 21
66.5259771888
 31
0.0
  0
LINE
  5
284
330
1F
100
AcDbEntity
  8
0
  6
Continuous
 62
     7
370
    25
100
AcDbLine
 10
320.7476039553
 20
66.6509509925
 30
0.0
 11
320.7476039553
 21
69.0254545678
 31
0.0
  0
LINE
  5
285
330
1F
100
AcDbEntity
  8
0
  6
Continuous
 62
     7
370
    25
100
AcDbLine
 10
324.0478229844
 20
73.5249319021
 30
0.0
 11
320.7476039553
 21
73.3999580984
 31
0.0
  0
LINE
  5
286
330
1F
100
AcDbEntity
  8
0
  6
Continuous
 62
     7
370
    25
100
AcDbLine
 10
333.7476042235
 20
73.5249319021
 30
0.0
 11
324.0478229844
 21
73.5249319021
 31
0.0
  0
LINE
  5
287
330
1F
100
AcDbEntity
  8
0
  6
Continuous
 62
     7
370
    25
100
AcDbLine
 10
320.7476039553
 20
71.0254545231
 30
0.0
 11
320.7476039553
 21
73.3999580984
 31
0.0
  0
ARC
  5
288
330
1F
100
AcDbEntity
  8
0
  6
Continuous
 62
     7
370
    25
100
AcDbCircle
 10
333.7476039851
 20
87.0254545455
 30
0.0
 40
13.50052259236269
100
AcDbArc
 50
270.0
 51
90.0
  0
LINE
  5
289
330
1F
100
AcDbEntity
  8
0
  6
Continuous
 62
     7
370
    25
100
AcDbLine
 10
324.0478229844
 20
100.5259768014
 30
0.0
 11
333.7476042235
 21
100.5259768014
 31
0.0
  0
LINE
  5
28A
330
1F
100
AcDbEntity
  8
0
  6
Continuous
 62
     7
370
    25
100
AcDbLine
 10
320.7476039553
 20
100.6509498601
 30
0.0
 11
324.0478229844
 21
100.5259768014
 31
0.0
  0
LINE
  5
28B
330
1F
100
AcDbEntity
  8
0
  6
Continuous
 62
     7
370
    25
100
AcDbLine
 10
320.7476039553
 20
100.6509498601
 30
0.0
 11
320.7476039553
 21
103.0254558568
 31
0.0
  0
LINE
  5
28C
330
1F
100
AcDbEntity
  8
0
  6
Continuous
 62
     7
370
    25
100
AcDbLine
 10
324.0478229844
 20
58.1254542713
 30
0.0
 11
325.1458597505
 21
58.1254542713
 31
0.0
  0
LINE
  5
28D
330
1F
100
AcDbEntity
  8
0
  6
Continuous
 62
     7
370
    25
100
AcDbLine
 10
325.1458597505
 20
47.925454462
 30
0.0
 11
324.0478229844
 21
47.925454462
 31
0.0
  0
ARC
  5
28E
330
1F
100
AcDbEntity
  8
0
  6
Continuous
 62
     7
370
    25
100
AcDbCircle
 10
333.7476039851
 20
53.0254545455
 30
0.0
 40
10.00000000000003
100
AcDbArc
 50
210.6638297424
 51
149.3361702576
  0
LINE
  5
28F
330
1F
100
AcDbEntity
  8
0
  6
Continuous
 62
     7
370
    25
100
AcDbLine
 10
324.0478229844
 20
66.5259771888
 30
0.0
 11
324.0478229844
 21
58.1254542713
 31
0.0
  0
LINE
  5
290
330
1F
100
AcDbEntity
  8
0
  6
Continuous
 62
     7
370
    25
100
AcDbLine
 10
324.0478229844
 20
47.925454462
 30
0.0
 11
324.0478229844
 21
39.5249322896
 31
0.0
  0
LINE
  5
291
330
1F
100
AcDbEntity
  8
0
  6
Continuous
 62
     7
370
    25
100
AcDbLine
 10
354.7476050579
 20
34.0254531149
 30
0.0
 11
355.7476041043
 21
34.0825960879
 31
0.0
  0
LINE
  5
292
330
1F
100
AcDbEntity
  8
0
  6
Continuous
 62
     7
370
    25
100
AcDbLine
 10
355.7476041043
 20
105.968313003
 30
0.0
 11
354.7476050579
 21
106.025455976
 31
0.0
  0
LINE
  5
293
330
1F
100
AcDbEntity
  8
0
  6
Continuous
 62
     7
370
    25
100
AcDbLine
 10
358.2476047003
 20
56.494629467
 30
0.0
 11
358.2476047003
 21
83.5562796239
 31
0.0
  0
LINE
  5
294
330
1F
100
AcDbEntity
  8
0
  6
Continuous
 62
     7
370
    25
100
AcDbLine
 10
324.0478229844
 20
92.1254546289
 30
0.0
 11
325.1458597505
 21
92.1254546289
 31
0.0
  0
LINE
  5
295
330
1F
100
AcDbEntity
  8
0
  6
Continuous
 62
     7
370
    25
100
AcDbLine
 10
325.1458597505
 20
81.9254548196
 30
0.0
 11
324.0478229844
 21
81.9254548196
 31
0.0
  0
ARC
  5
296
330
1F
100
AcDbEntity
  8
0
  6
Continuous
 62
     7
370
    25
100
AcDbCircle
 10
333.7476039851
 20
87.0254545455
 30
0.0
 40
10.00000000000003
100
AcDbArc
 50
210.6638297424
 51
149.3361702576
  0
LINE
  5
297
330
1F
100
AcDbEntity
  8
0
  6
Continuous
 62
     7
370
    25
100
AcDbLine
 10
324.0478229844
 20
100.5259768014
 30
0.0
 11
324.0478229844
 21
92.1254546289
 31
0.0
  0
LINE
  5
298
330
1F
100
AcDbEntity
  8
0
  6
Continuous
 62
     7
370
    25
100
AcDbLine
 10
324.0478229844
 20
81.9254548196
 30
0.0
 11
324.0478229844
 21
73.5249319021
 31
0.0
  0
LINE
  5
299
330
1F
100
AcDbEntity
  8
0
  6
Continuous
 62
     7
370
    25
100
AcDbLine
 10
324.2476043427
 20
58.1254542713
 30
0.0
 11
324.2476043427
 21
47.925454462
 31
0.0
  0
LINE
  5
29A
330
1F
100
AcDbEntity
  8
0
  6
Continuous
 62
     7
370
    25
100
AcDbLine
 10
324.2476043427
 20
92.1254546289
 30
0.0
 11
324.2476043427
 21
81.9254548196
 31
0.0
  0
ARC
  5
29B
330
1F
100
AcDbEntity
  8
0
  6
Continuous
 62
     7
370
    25
100
AcDbCircle
 10
368.7476039851
 20
70.0254545455
 30
0.0
 40
16.00000000000001
100
AcDbArc
 50
270.0
 51
90.0
  0
LINE
  5
29C
330
1F
100
AcDbEntity
  8
0
  6
Continuous
 62
     7
370
    25
100
AcDbLine
 10
355.7476041043
 20
86.0254541878
 30
0.0
 11
368.7476066077
 21
86.0254541878
 31
0.0
  0
LINE
  5
29D
330
1F
100
AcDbEntity
  8
0
  6
Continuous
 62
     7
370
    25
100
AcDbLine
 10
355.7476041043
 20
110.0254551415
 30
0.0
 11
355.7476041043
 21
86.0254541878
 31
0.0
  0
LINE
  5
29E
330
1F
100
AcDbEntity
  8
0
  6
Continuous
 62
     7
370
    25
100
AcDbLine
 10
409.7476032698
 20
110.0254551415
 30
0.0
 11
355.7476041043
 21
110.0254551415
 31
0.0
  0
LINE
  5
29F
330
1F
100
AcDbEntity
  8
0
  6
Continuous
 62
     7
370
    25
100
AcDbLine
 10
409.7476032698
 20
110.0254551415
 30
0.0
 11
409.7476032698
 21
30.0254539494
 31
0.0
  0
LINE
  5
2A0
330
1F
100
AcDbEntity
  8
0
  6
Continuous
 62
     7
370
    25
100
AcDbLine
 10
409.7476032698
 20
30.0254539494
 30
0.0
 11
355.7476041043
 21
30.0254539494
 31
0.0
  0
LINE
  5
2A1
330
1F
100
AcDbEntity
  8
0
  6
Continuous
 62
     7
370
    25
100
AcDbLine
 10
355.7476041043
 20
54.0254549031
 30
0.0
 11
355.7476041043
 21
30.0254539494
 31
0.0
  0
LINE
  5
2A2
330
1F
100
AcDbEntity
  8
0
  6
Continuous
 62
     7
370
    25
100
AcDbLine
 10
368.7476066077
 20
54.0254549031
 30
0.0
 11
355.7476041043
 21
54.0254549031
 31
0.0
  0
CIRCLE
  5
2A3
330
1F
100
AcDbEntity
  8
0
  6
Continuous
 62
     7
370
    25
100
AcDbCircle
 10
404.7476039851
 20
90.0254545455
 30
0.0
 40
2.0
  0
CIRCLE
  5
2A4
330
1F
100
AcDbEntity
  8
0
  6
Continuous
 62
     7
370
    25
100
AcDbCircle
 10
404.7476039851
 20
50.0254545455
 30
0.0
 40
2.0
  0
LINE
  5
2A5
330
1F
100
AcDbEntity
  8
0
  6
Continuous
 62
     7
370
    25
100
AcDbLine
 10
359.0478238785
 20
56.5249324684
 30
0.0
 11
355.7476041043
 21
56.3999579196
 31
0.0
  0
LINE
  5
2A6
330
1F
100
AcDbEntity
  8
0
  6
Continuous
 62
     7
370
    25
100
AcDbLine
 10
368.7476066077
 20
56.5249324684
 30
0.0
 11
359.0478238785
 21
56.5249324684
 31
0.0
  0
LINE
  5
2A7
330
1F
100
AcDbEntity
  8
0
  6
Continuous
 62
     7
370
    25
100
AcDbLine
 10
355.7476041043
 20
54.0254549031
 30
0.0
 11
355.7476041043
 21
56.3999579196
 31
0.0
  0
ARC
  5
2A8
330
1F
100
AcDbEntity
  8
0
  6
Continuous
 62
     7
370
    25
100
AcDbCircle
 10
368.7476039851
 20
70.0254545455
 30
0.0
 40
13.50052259236269
100
AcDbArc
 50
270.0
 51
90.0
  0
LINE
  5
2A9
330
1F
100
AcDbEntity
  8
0
  6
Continuous
 62
     7
370
    25
100
AcDbLine
 10
355.7476041043
 20
83.6509511714
 30
0.0
 11
355.7476041043
 21
86.0254541878
 31
0.0
  0
LINE
  5
2AA
330
1F
100
AcDbEntity
  8
0
  6
Continuous
 62
     7
370
    25
100
AcDbLine
 10
359.0478238785
 20
83.5259766225
 30
0.0
 11
368.7476066077
 21
83.5259766225
 31
0.0
  0
LINE
  5
2AB
330
1F
100
AcDbEntity
  8
0
  6
Continuous
 62
     7
370
    25
100
AcDbLine
 10
355.7476041043
 20
83.6509511714
 30
0.0
 11
359.0478238785
 21
83.5259766225
 31
0.0
  0
LINE
  5
2AC
330
1F
100
AcDbEntity
  8
0
  6
Continuous
 62
     7
370
    25
100
AcDbLine
 10
359.0478238785
 20
75.1254544501
 30
0.0
 11
360.1458606446
 21
75.1254544501
 31
0.0
  0
LINE
  5
2AD
330
1F
100
AcDbEntity
  8
0
  6
Continuous
 62
     7
370
    25
100
AcDbLine
 10
360.1458606446
 20
64.9254546408
 30
0.0
 11
359.0478238785
 21
64.9254546408
 31
0.0
  0
ARC
  5
2AE
330
1F
100
AcDbEntity
  8
0
  6
Continuous
 62
     7
370
    25
100
AcDbCircle
 10
368.7476039851
 20
70.0254545455
 30
0.0
 40
9.999999999999984
100
AcDbArc
 50
210.6638297424
 51
149.3361702576
  0
LINE
  5
2AF
330
1F
100
AcDbEntity
  8
0
  6
Continuous
 62
     7
370
    25
100
AcDbLine
 10
359.0478238785
 20
83.5259766225
 30
0.0
 11
359.0478238785
 21
75.1254544501
 31
0.0
  0
LINE
  5
2B0
330
1F
100
AcDbEntity
  8
0
  6
Continuous
 62
     7
370
    25
100
AcDbLine
 10
359.0478238785
 20
64.9254546408
 30
0.0
 11
359.0478238785
 21
56.5249324684
 31
0.0
  0
LINE
  5
2B1
330
1F
100
AcDbEntity
  8
0
  6
Continuous
 62
     7
370
    25
100
AcDbLine
 10
409.7476032698
 20
106.025455976
 30
0.0
 11
413.2476058924
 21
105.8254555707
 31
0.0
  0
LINE
  5
2B2
330
1F
100
AcDbEntity
  8
0
  6
Continuous
 62
     7
370
    25
100
AcDbLine
 10
413.2476058924
 20
105.8254555707
 30
0.0
 11
413.2476058924
 21
34.2254535203
 31
0.0
  0
LINE
  5
2B3
330
1F
100
AcDbEntity
  8
0
  6
Continuous
 62
     7
370
    25
100
AcDbLine
 10
409.7476032698
 20
34.0254531149
 30
0.0
 11
413.2476058924
 21
34.2254535203
 31
0.0
  0
LINE
  5
2B4
330
1F
100
AcDbEntity
  8
0
  6
Continuous
 62
     7
370
    25
100
AcDbLine
 10
359.2476037466
 20
75.1254544501
 30
0.0
 11
359.2476037466
 21
64.9254546408
 31
0.0
  0
CIRCLE
  5
2B5
330
1F
100
AcDbEntity
  8
0
  6
Continuous
 62
     7
370
    25
100
AcDbCircle
 10
404.7476039851
 20
50.0254545455
 30
0.0
 40
0.5
  0
CIRCLE
  5
2B6
330
1F
100
AcDbEntity
  8
0
  6
Continuous
 62
     7
370
    25
100
AcDbCircle
 10
404.7476039851
 20
90.0254545455
 30
0.0
 40
0.5
  0
LINE
  5
2B7
330
1F
100
AcDbEntity
  8
0
  6
Continuous
 62
     7
370
    25
100
AcDbLine
 10
319.7476041639
 20
30.0254539494
 30
0.0
 11
319.7476041639
 21
47.0254541282
 31
0.0
  0
LINE
  5
2B8
330
1F
100
AcDbEntity
  8
0
  6
Continuous
 62
     7
370
    25
100
AcDbLine
 10
315.2476039851
 20
30.0254539494
 30
0.0
 11
319.7476041639
 21
30.0254539494
 31
0.0
  0
LINE
  5
2B9
330
1F
100
AcDbEntity
  8
0
  6
Continuous
 62
     7
370
    25
100
AcDbLine
 10
315.2476039851
 20
47.0254541282
 30
0.0
 11
319.7476041639
 21
47.0254541282
 31
0.0
  0
LINE
  5
2BA
330
1F
100
AcDbEntity
  8
0
  6
Continuous
 62
     7
370
    25
100
AcDbLine
 10
315.2476039851
 20
30.0254539494
 30
0.0
 11
315.2476039851
 21
47.0254541282
 31
0.0
  0
LINE
  5
2BB
330
1F
100
AcDbEntity
  8
0
  6
Continuous
 62
     7
370
    25
100
AcDbLine
 10
315.2476039851
 20
110.0254551415
 30
0.0
 11
319.7476041639
 21
110.0254551415
 31
0.0
  0
LINE
  5
2BC
330
1F
100
AcDbEntity
  8
0
  6
Continuous
 62
     7
370
    25
100
AcDbLine
 10
319.7476041639
 20
93.0254549627
 30
0.0
 11
319.7476041639
 21
110.0254551415
 31
0.0
  0
LINE
  5
2BD
330
1F
100
AcDbEntity
  8
0
  6
Continuous
 62
     7
370
    25
100
AcDbLine
 10
315.2476039851
 20
93.0254549627
 30
0.0
 11
319.7476041639
 21
93.0254549627
 31
0.0
  0
LINE
  5
2BE
330
1F
100
AcDbEntity
  8
0
  6
Continuous
 62
     7
370
    25
100
AcDbLine
 10
315.2476039851
 20
93.0254549627
 30
0.0
 11
315.2476039851
 21
110.0254551415
 31
0.0
  0
LINE
  5
2BF
330
1F
100
AcDbEntity
  8
0
  6
Continuous
 62
     7
370
    25
100
AcDbLine
 10
319.7476041639
 20
34.2254535203
 30
0.0
 11
320.7476039553
 21
34.2254535203
 31
0.0
  0
LINE
  5
2C0
330
1F
100
AcDbEntity
  8
0
  6
Continuous
 62
     7
370
    25
100
AcDbLine
 10
319.7476041639
 20
105.8254555707
 30
0.0
 11
320.7476039553
 21
105.8254555707
 31
0.0
  0
LINE
  5
2C1
330
1F
100
AcDbEntity
  8
0
  6
Continuous
 62
     7
370
    25
100
AcDbLine
 10
323.2476038062
 20
100.5562798028
 30
0.0
 11
323.2476038062
 21
73.4946289007
 31
0.0
  0
LINE
  5
2C2
330
1F
100
AcDbEntity
  8
0
  6
Continuous
 62
     7
370
    25
100
AcDbLine
 10
323.2476038062
 20
66.5562801902
 30
0.0
 11
323.2476038062
 21
39.4946292882
 31
0.0
  0
LINE
  5
2C3
330
1F
100
AcDbEntity
  8
0
  6
Continuous
 62
     7
370
    25
100
AcDbLine
 10
315.2476039851
 20
47.0254541282
 30
0.0
 11
315.2476039851
 21
93.0254549627
 31
0.0
  0
LINE
  5
2C4
330
1F
100
AcDbEntity
  8
0
  6
PHANTOM
 62
     8
370
    18
100
AcDbLine
 10
413.2476058924
 20
36.4254549984
 30
0.0
 11
413.54760203
 21
36.4254549984
 31
0.0
  0
LINE
  5
2C5
330
1F
100
AcDbEntity
  8
0
  6
PHANTOM
 62
     8
370
    18
100
AcDbLine
 10
413.2476058924
 20
103.6254540925
 30
0.0
 11
413.54760203
 21
103.6254540925
 31
0.0
  0
LINE
  5
2C6
330
1F
100
AcDbEntity
  8
0
  6
PHANTOM
 62
     8
370
    18
100
AcDbLine
 10
333.7476042235
 20
39.5249322896
 30
0.0
 11
333.7476042235
 21
37.0254532342
 31
0.0
  0
LINE
  5
2C7
330
1F
100
AcDbEntity
  8
0
  6
PHANTOM
 62
     8
370
    18
100
AcDbLine
 10
333.7476042235
 20
66.5259771888
 30
0.0
 11
333.7476042235
 21
69.0254545678
 31
0.0
  0
LINE
  5
2C8
330
1F
100
AcDbEntity
  8
0
  6
PHANTOM
 62
     8
370
    18
100
AcDbLine
 10
333.7476042235
 20
73.5249319021
 30
0.0
 11
333.7476042235
 21
71.0254545231
 31
0.0
  0
LINE
  5
2C9
330
1F
100
AcDbEntity
  8
0
  6
PHANTOM
 62
     8
370
    18
100
AcDbLine
 10
333.7476042235
 20
100.5259768014
 30
0.0
 11
333.7476042235
 21
103.0254558568
 31
0.0
  0
LINE
  5
2CA
330
1F
100
AcDbEntity
  8
0
  6
PHANTOM
 62
     8
370
    18
100
AcDbLine
 10
368.7476066077
 20
56.5249324684
 30
0.0
 11
368.7476066077
 21
54.0254549031
 31
0.0
  0
LINE
  5
2CB
330
1F
100
AcDbEntity
  8
0
  6
PHANTOM
 62
     8
370
    18
100
AcDbLine
 10
368.7476066077
 20
83.5259766225
 30
0.0
 11
368.7476066077
 21
86.0254541878
 31
0.0
  0
LINE
  5
2CC
330
1F
100
AcDbEntity
  8
0
  6
Continuous
 62
     7
370
    25
100
AcDbLine
 10
117.986695514
 20
397.4500019073
 30
0.0
 11
117.986695514
 21
397.749998045
 31
0.0
  0
LINE
  5
2CD
330
1F
100
AcDbEntity
  8
0
  6
Continuous
 62
     7
370
    25
100
AcDbLine
 10
117.986695514
 20
397.749998045
 30
0.0
 11
115.9866944412
 21
397.749998045
 31
0.0
  0
LINE
  5
2CE
330
1F
100
AcDbEntity
  8
0
  6
Continuous
 62
     7
370
    25
100
AcDbLine
 10
115.9866944412
 20
397.749998045
 30
0.0
 11
48.7866953471
 21
397.749998045
 31
0.0
  0
LINE
  5
2CF
330
1F
100
AcDbEntity
  8
0
  6
Continuous
 62
     7
370
    25
100
AcDbLine
 10
46.7866942743
 20
397.4500019073
 30
0.0
 11
46.7866942743
 21
397.749998045
 31
0.0
  0
LINE
  5
2D0
330
1F
100
AcDbEntity
  8
0
  6
Continuous
 62
     7
370
    25
100
AcDbLine
 10
48.7866953471
 20
397.749998045
 30
0.0
 11
46.7866942743
 21
397.749998045
 31
0.0
  0
ARC
  5
2D1
330
1F
100
AcDbEntity
  8
0
  6
Continuous
 62
     7
370
    25
100
AcDbCircle
 10
82.3866948941
 20
317.95
 30
0.0
 40
16.00000000000001
100
AcDbArc
 50
0.0
 51
180.0
  0
LINE
  5
2D2
330
1F
100
AcDbEntity
  8
0
  6
Continuous
 62
     7
370
    25
100
AcDbLine
 10
66.3866952518
 20
304.9499999702
 30
0.0
 11
66.3866952518
 21
317.9500002384
 31
0.0
  0
LINE
  5
2D3
330
1F
100
AcDbEntity
  8
0
  6
Continuous
 62
     7
370
    25
100
AcDbLine
 10
42.3866942981
 20
304.9499999702
 30
0.0
 11
66.3866952518
 21
304.9499999702
 31
0.0
  0
LINE
  5
2D4
330
1F
100
AcDbEntity
  8
0
  6
Continuous
 62
     7
370
    25
100
AcDbLine
 10
42.3866942981
 20
338.9500010729
 30
0.0
 11
42.3866942981
 21
304.9499999702
 31
0.0
  0
LINE
  5
2D5
330
1F
100
AcDbEntity
  8
0
  6
Continuous
 62
     7
370
    25
100
AcDbLine
 10
122.3866954902
 20
338.9500010729
 30
0.0
 11
122.3866954902
 21
304.9499999702
 31
0.0
  0
LINE
  5
2D6
330
1F
100
AcDbEntity
  8
0
  6
Continuous
 62
     7
370
    25
100
AcDbLine
 10
98.3866945365
 20
317.9500002384
 30
0.0
 11
98.3866945365
 21
304.9499999702
 31
0.0
  0
LINE
  5
2D7
330
1F
100
AcDbEntity
  8
0
  6
Continuous
 62
     7
370
    25
100
AcDbLine
 10
42.3866942981
 20
338.9500010729
 30
0.0
 11
122.3866954902
 21
338.9500010729
 31
0.0
  0
LINE
  5
2D8
330
1F
100
AcDbEntity
  8
0
  6
Continuous
 62
     7
370
    25
100
AcDbLine
 10
98.3866945365
 20
304.9499999702
 30
0.0
 11
122.3866954902
 21
304.9499999702
 31
0.0
  0
CIRCLE
  5
2D9
330
1F
100
AcDbEntity
  8
0
  6
Continuous
 62
     7
370
    25
100
AcDbCircle
 10
62.3866948941
 20
333.95
 30
0.0
 40
2.0
  0
CIRCLE
  5
2DA
330
1F
100
AcDbEntity
  8
0
  6
Continuous
 62
     7
370
    25
100
AcDbCircle
 10
102.3866948941
 20
333.95
 30
0.0
 40
2.0
  0
LINE
  5
2DB
330
1F
100
AcDbEntity
  8
0
  6
Continuous
 62
     7
370
    25
100
AcDbLine
 10
95.8872169712
 20
308.2502189994
 30
0.0
 11
96.01219152
 21
304.9499999702
 31
0.0
  0
LINE
  5
2DC
330
1F
100
AcDbEntity
  8
0
  6
Continuous
 62
     7
370
    25
100
AcDbLine
 10
95.8872169712
 20
317.9500002384
 30
0.0
 11
95.8872169712
 21
308.2502189994
 31
0.0
  0
LINE
  5
2DD
330
1F
100
AcDbEntity
  8
0
  6
Continuous
 62
     7
370
    25
100
AcDbLine
 10
98.3866945365
 20
304.9499999702
 30
0.0
 11
96.01219152
 21
304.9499999702
 31
0.0
  0
ARC
  5
2DE
330
1F
100
AcDbEntity
  8
0
  6
Continuous
 62
     7
370
    25
100
AcDbCircle
 10
82.3866948941
 20
317.95
 30
0.0
 40
13.5005225923627
100
AcDbArc
 50
0.0
 51
180.0
  0
LINE
  5
2DF
330
1F
100
AcDbEntity
  8
0
  6
Continuous
 62
     7
370
    25
100
AcDbLine
 10
68.7611982682
 20
304.9499999702
 30
0.0
 11
66.3866952518
 21
304.9499999702
 31
0.0
  0
LINE
  5
2E0
330
1F
100
AcDbEntity
  8
0
  6
Continuous
 62
     7
370
    25
100
AcDbLine
 10
68.8861728171
 20
308.2502189994
 30
0.0
 11
68.8861728171
 21
317.9500002384
 31
0.0
  0
LINE
  5
2E1
330
1F
100
AcDbEntity
  8
0
  6
Continuous
 62
     7
370
    25
100
AcDbLine
 10
68.7611982682
 20
304.9499999702
 30
0.0
 11
68.8861728171
 21
308.2502189994
 31
0.0
  0
LINE
  5
2E2
330
1F
100
AcDbEntity
  8
0
  6
Continuous
 62
     7
370
    25
100
AcDbLine
 10
46.3866934636
 20
338.9500010729
 30
0.0
 11
46.4438364366
 21
339.9500001192
 31
0.0
  0
LINE
  5
2E3
330
1F
100
AcDbEntity
  8
0
  6
Continuous
 62
     7
370
    25
100
AcDbLine
 10
51.8558696368
 20
342.4500007153
 30
0.0
 11
78.9175205389
 21
342.4500007153
 31
0.0
  0
LINE
  5
2E4
330
1F
100
AcDbEntity
  8
0
  6
Continuous
 62
     7
370
    25
100
AcDbLine
 10
85.8558692494
 20
342.4500007153
 30
0.0
 11
112.9175201514
 21
342.4500007153
 31
0.0
  0
LINE
  5
2E5
330
1F
100
AcDbEntity
  8
0
  6
Continuous
 62
     7
370
    25
100
AcDbLine
 10
118.3866963247
 20
338.9500010729
 30
0.0
 11
118.3295533517
 21
339.9500001192
 31
0.0
  0
LINE
  5
2E6
330
1F
100
AcDbEntity
  8
0
  6
Continuous
 62
     7
370
    25
100
AcDbLine
 10
77.2866949895
 20
308.2502189994
 30
0.0
 11
77.2866949895
 21
309.3482557654
 31
0.0
  0
LINE
  5
2E7
330
1F
100
AcDbEntity
  8
0
  6
Continuous
 62
     7
370
    25
100
AcDbLine
 10
87.4866947988
 20
309.3482557654
 30
0.0
 11
87.4866947988
 21
308.2502189994
 31
0.0
  0
ARC
  5
2E8
330
1F
100
AcDbEntity
  8
0
  6
Continuous
 62
     7
370
    25
100
AcDbCircle
 10
82.3866948941
 20
317.95
 30
0.0
 40
9.999999999999975
100
AcDbArc
 50
300.6638297424
 51
239.3361702576
  0
LINE
  5
2E9
330
1F
100
AcDbEntity
  8
0
  6
Continuous
 62
     7
370
    25
100
AcDbLine
 10
68.8861728171
 20
308.2502189994
 30
0.0
 11
77.2866949895
 21
308.2502189994
 31
0.0
  0
LINE
  5
2EA
330
1F
100
AcDbEntity
  8
0
  6
Continuous
 62
     7
370
    25
100
AcDbLine
 10
87.4866947988
 20
308.2502189994
 30
0.0
 11
95.8872169712
 21
308.2502189994
 31
0.0
  0
LINE
  5
2EB
330
1F
100
AcDbEntity
  8
0
  6
Continuous
 62
     7
370
    25
100
AcDbLine
 10
77.2866949895
 20
308.4500003576
 30
0.0
 11
87.4866947988
 21
308.4500003576
 31
0.0
  0
CIRCLE
  5
2EC
330
1F
100
AcDbEntity
  8
0
  6
Continuous
 62
     7
370
    25
100
AcDbCircle
 10
102.3866948941
 20
333.95
 30
0.0
 40
0.5
  0
CIRCLE
  5
2ED
330
1F
100
AcDbEntity
  8
0
  6
Continuous
 62
     7
370
    25
100
AcDbCircle
 10
62.3866948941
 20
333.95
 30
0.0
 40
0.5
  0
LINE
  5
2EE
330
1F
100
AcDbEntity
  8
0
  6
Continuous
 62
     7
370
    25
100
AcDbLine
 10
83.3866948718
 20
352.9500026226
 30
0.0
 11
83.3866948718
 21
339.9500001192
 31
0.0
  0
LINE
  5
2EF
330
1F
100
AcDbEntity
  8
0
  6
Continuous
 62
     7
370
    25
100
AcDbLine
 10
81.3866949165
 20
339.9500001192
 30
0.0
 11
83.3866948718
 21
339.9500001192
 31
0.0
  0
LINE
  5
2F0
330
1F
100
AcDbEntity
  8
0
  6
Continuous
 62
     7
370
    25
100
AcDbLine
 10
81.3866949165
 20
339.9500001192
 30
0.0
 11
81.3866949165
 21
352.9500026226
 31
0.0
  0
ARC
  5
2F1
330
1F
100
AcDbEntity
  8
0
  6
Continuous
 62
     7
370
    25
100
AcDbCircle
 10
65.3866948941
 20
352.95
 30
0.0
 40
16.0
100
AcDbArc
 50
0.0
 51
180.0
  0
LINE
  5
2F2
330
1F
100
AcDbEntity
  8
0
  6
Continuous
 62
     7
370
    25
100
AcDbLine
 10
49.3866935828
 20
352.9500026226
 30
0.0
 11
49.3866935828
 21
339.9500001192
 31
0.0
  0
LINE
  5
2F3
330
1F
100
AcDbEntity
  8
0
  6
Continuous
 62
     7
370
    25
100
AcDbLine
 10
42.3866942981
 20
339.9500001192
 30
0.0
 11
49.3866935828
 21
339.9500001192
 31
0.0
  0
LINE
  5
2F4
330
1F
100
AcDbEntity
  8
0
  6
Continuous
 62
     7
370
    25
100
AcDbLine
 10
42.3866942981
 20
393.9499992847
 30
0.0
 11
42.3866942981
 21
339.9500001192
 31
0.0
  0
LINE
  5
2F5
330
1F
100
AcDbEntity
  8
0
  6
Continuous
 62
     7
370
    25
100
AcDbLine
 10
122.3866954902
 20
393.9499992847
 30
0.0
 11
122.3866954902
 21
339.9500001192
 31
0.0
  0
LINE
  5
2F6
330
1F
100
AcDbEntity
  8
0
  6
Continuous
 62
     7
370
    25
100
AcDbLine
 10
115.3866962054
 20
339.9500001192
 30
0.0
 11
115.3866962054
 21
352.9500026226
 31
0.0
  0
ARC
  5
2F7
330
1F
100
AcDbEntity
  8
0
  6
Continuous
 62
     7
370
    25
100
AcDbCircle
 10
99.3866948941
 20
352.95
 30
0.0
 40
16.00000000000001
100
AcDbArc
 50
0.0
 51
180.0
  0
LINE
  5
2F8
330
1F
100
AcDbEntity
  8
0
  6
Continuous
 62
     7
370
    25
100
AcDbLine
 10
42.3866942981
 20
393.9499992847
 30
0.0
 11
122.3866954902
 21
393.9499992847
 31
0.0
  0
LINE
  5
2F9
330
1F
100
AcDbEntity
  8
0
  6
Continuous
 62
     7
370
    25
100
AcDbLine
 10
115.3866962054
 20
339.9500001192
 30
0.0
 11
122.3866954902
 21
339.9500001192
 31
0.0
  0
ARC
  5
2FA
330
1F
100
AcDbEntity
  8
0
  6
Continuous
 62
     7
370
    25
100
AcDbCircle
 10
99.3866948941
 20
352.95
 30
0.0
 40
13.5005225923627
100
AcDbArc
 50
0.0
 51
180.0
  0
LINE
  5
2FB
330
1F
100
AcDbEntity
  8
0
  6
Continuous
 62
     7
370
    25
100
AcDbLine
 10
113.0121902087
 20
339.9500001192
 30
0.0
 11
112.88721715
 21
343.2502198935
 31
0.0
  0
LINE
  5
2FC
330
1F
100
AcDbEntity
  8
0
  6
Continuous
 62
     7
370
    25
100
AcDbLine
 10
112.88721715
 20
343.2502198935
 30
0.0
 11
112.88721715
 21
352.9500026226
 31
0.0
  0
LINE
  5
2FD
330
1F
100
AcDbEntity
  8
0
  6
Continuous
 62
     7
370
    25
100
AcDbLine
 10
113.0121902087
 20
339.9500001192
 30
0.0
 11
115.3866962054
 21
339.9500001192
 31
0.0
  0
LINE
  5
2FE
330
1F
100
AcDbEntity
  8
0
  6
Continuous
 62
     7
370
    25
100
AcDbLine
 10
85.8861722508
 20
352.9500026226
 30
0.0
 11
85.8861722508
 21
343.2502198935
 31
0.0
  0
LINE
  5
2FF
330
1F
100
AcDbEntity
  8
0
  6
Continuous
 62
     7
370
    25
100
AcDbLine
 10
85.8861722508
 20
343.2502198935
 30
0.0
 11
85.7611984471
 21
339.9500001192
 31
0.0
  0
LINE
  5
300
330
1F
100
AcDbEntity
  8
0
  6
Continuous
 62
     7
370
    25
100
AcDbLine
 10
83.3866948718
 20
339.9500001192
 30
0.0
 11
85.7611984471
 21
339.9500001192
 31
0.0
  0
LINE
  5
301
330
1F
100
AcDbEntity
  8
0
  6
Continuous
 62
     7
370
    25
100
AcDbLine
 10
79.0121913412
 20
339.9500001192
 30
0.0
 11
78.8872175375
 21
343.2502198935
 31
0.0
  0
LINE
  5
302
330
1F
100
AcDbEntity
  8
0
  6
Continuous
 62
     7
370
    25
100
AcDbLine
 10
78.8872175375
 20
343.2502198935
 30
0.0
 11
78.8872175375
 21
352.9500026226
 31
0.0
  0
LINE
  5
303
330
1F
100
AcDbEntity
  8
0
  6
Continuous
 62
     7
370
    25
100
AcDbLine
 10
79.0121913412
 20
339.9500001192
 30
0.0
 11
81.3866949165
 21
339.9500001192
 31
0.0
  0
ARC
  5
304
330
1F
100
AcDbEntity
  8
0
  6
Continuous
 62
     7
370
    25
100
AcDbCircle
 10
65.3866948941
 20
352.95
 30
0.0
 40
13.5005225923627
100
AcDbArc
 50
0.0
 51
180.0
  0
LINE
  5
305
330
1F
100
AcDbEntity
  8
0
  6
Continuous
 62
     7
370
    25
100
AcDbLine
 10
51.8861726382
 20
352.9500026226
 30
0.0
 11
51.8861726382
 21
343.2502198935
 31
0.0
  0
LINE
  5
306
330
1F
100
AcDbEntity
  8
0
  6
Continuous
 62
     7
370
    25
100
AcDbLine
 10
51.8861726382
 20
343.2502198935
 30
0.0
 11
51.7611995795
 21
339.9500001192
 31
0.0
  0
LINE
  5
307
330
1F
100
AcDbEntity
  8
0
  6
Continuous
 62
     7
370
    25
100
AcDbLine
 10
49.3866935828
 20
339.9500001192
 30
0.0
 11
51.7611995795
 21
339.9500001192
 31
0.0
  0
LINE
  5
308
330
1F
100
AcDbEntity
  8
0
  6
Continuous
 62
     7
370
    25
100
AcDbLine
 10
46.3866934636
 20
393.9499992847
 30
0.0
 11
46.5866938689
 21
397.4500019073
 31
0.0
  0
LINE
  5
309
330
1F
100
AcDbEntity
  8
0
  6
Continuous
 62
     7
370
    25
100
AcDbLine
 10
46.5866938689
 20
397.4500019073
 30
0.0
 11
118.1866959193
 21
397.4500019073
 31
0.0
  0
LINE
  5
30A
330
1F
100
AcDbEntity
  8
0
  6
Continuous
 62
     7
370
    25
100
AcDbLine
 10
118.1866959193
 20
397.4500019073
 30
0.0
 11
118.3866963247
 21
393.9499992847
 31
0.0
  0
ARC
  5
30B
330
1F
100
AcDbEntity
  8
0
  6
Continuous
 62
     7
370
    25
100
AcDbCircle
 10
99.3866948941
 20
352.95
 30
0.0
 40
9.999999999999984
100
AcDbArc
 50
300.6638297424
 51
239.3361702576
  0
LINE
  5
30C
330
1F
100
AcDbEntity
  8
0
  6
Continuous
 62
     7
370
    25
100
AcDbLine
 10
94.2866951683
 20
344.3482566595
 30
0.0
 11
94.2866951683
 21
343.2502198935
 31
0.0
  0
LINE
  5
30D
330
1F
100
AcDbEntity
  8
0
  6
Continuous
 62
     7
370
    25
100
AcDbLine
 10
104.4866949776
 20
343.2502198935
 30
0.0
 11
104.4866949776
 21
344.3482566595
 31
0.0
  0
LINE
  5
30E
330
1F
100
AcDbEntity
  8
0
  6
Continuous
 62
     7
370
    25
100
AcDbLine
 10
85.8861722508
 20
343.2502198935
 30
0.0
 11
94.2866951683
 21
343.2502198935
 31
0.0
  0
LINE
  5
30F
330
1F
100
AcDbEntity
  8
0
  6
Continuous
 62
     7
370
    25
100
AcDbLine
 10
104.4866949776
 20
343.2502198935
 30
0.0
 11
112.88721715
 21
343.2502198935
 31
0.0
  0
ARC
  5
310
330
1F
100
AcDbEntity
  8
0
  6
Continuous
 62
     7
370
    25
100
AcDbCircle
 10
65.3866948941
 20
352.95
 30
0.0
 40
9.999999999999984
100
AcDbArc
 50
300.6638297424
 51
239.3361702576
  0
LINE
  5
311
330
1F
100
AcDbEntity
  8
0
  6
Continuous
 62
     7
370
    25
100
AcDbLine
 10
60.2866948107
 20
344.3482566595
 30
0.0
 11
60.2866948107
 21
343.2502198935
 31
0.0
  0
LINE
  5
312
330
1F
100
AcDbEntity
  8
0
  6
Continuous
 62
     7
370
    25
100
AcDbLine
 10
70.48669462
 20
343.2502198935
 30
0.0
 11
70.48669462
 21
344.3482566595
 31
0.0
  0
LINE
  5
313
330
1F
100
AcDbEntity
  8
0
  6
Continuous
 62
     7
370
    25
100
AcDbLine
 10
51.8861726382
 20
343.2502198935
 30
0.0
 11
60.2866948107
 21
343.2502198935
 31
0.0
  0
LINE
  5
314
330
1F
100
AcDbEntity
  8
0
  6
Continuous
 62
     7
370
    25
100
AcDbLine
 10
70.48669462
 20
343.2502198935
 30
0.0
 11
78.8872175375
 21
343.2502198935
 31
0.0
  0
LINE
  5
315
330
1F
100
AcDbEntity
  8
0
  6
Continuous
 62
     7
370
    25
100
AcDbLine
 10
94.2866951683
 20
343.4499997616
 30
0.0
 11
104.4866949776
 21
343.4499997616
 31
0.0
  0
LINE
  5
316
330
1F
100
AcDbEntity
  8
0
  6
Continuous
 62
     7
370
    25
100
AcDbLine
 10
60.2866948107
 20
343.4499997616
 30
0.0
 11
70.48669462
 21
343.4499997616
 31
0.0
  0
LINE
  5
317
330
1F
100
AcDbEntity
  8
0
  6
Continuous
 62
     7
370
    25
100
AcDbLine
 10
122.3866954902
 20
303.9500001788
 30
0.0
 11
87.3866949687
 21
303.9500001788
 31
0.0
  0
LINE
  5
318
330
1F
100
AcDbEntity
  8
0
  6
Continuous
 62
     7
370
    25
100
AcDbLine
 10
122.3866954902
 20
303.9500001788
 30
0.0
 11
122.3866954902
 21
299.45
 31
0.0
  0
LINE
  5
319
330
1F
100
AcDbEntity
  8
0
  6
Continuous
 62
     7
370
    25
100
AcDbLine
 10
122.3866954902
 20
299.45
 30
0.0
 11
87.3866949687
 21
299.45
 31
0.0
  0
LINE
  5
31A
330
1F
100
AcDbEntity
  8
0
  6
Continuous
 62
     7
370
    25
100
AcDbLine
 10
87.3866949687
 20
299.45
 30
0.0
 11
87.3866949687
 21
303.9500001788
 31
0.0
  0
LINE
  5
31B
330
1F
100
AcDbEntity
  8
0
  6
Continuous
 62
     7
370
    25
100
AcDbLine
 10
42.3866942981
 20
299.45
 30
0.0
 11
42.3866942981
 21
303.9500001788
 31
0.0
  0
LINE
  5
31C
330
1F
100
AcDbEntity
  8
0
  6
Continuous
 62
     7
370
    25
100
AcDbLine
 10
77.3866948196
 20
303.9500001788
 30
0.0
 11
42.3866942981
 21
303.9500001788
 31
0.0
  0
LINE
  5
31D
330
1F
100
AcDbEntity
  8
0
  6
Continuous
 62
     7
370
    25
100
AcDbLine
 10
77.3866948196
 20
299.45
 30
0.0
 11
77.3866948196
 21
303.9500001788
 31
0.0
  0
LINE
  5
31E
330
1F
100
AcDbEntity
  8
0
  6
Continuous
 62
     7
370
    25
100
AcDbLine
 10
77.3866948196
 20
299.45
 30
0.0
 11
42.3866942981
 21
299.45
 31
0.0
  0
LINE
  5
31F
330
1F
100
AcDbEntity
  8
0
  6
Continuous
 62
     7
370
    25
100
AcDbLine
 10
46.5866938689
 20
303.9500001788
 30
0.0
 11
46.5866938689
 21
304.9499999702
 31
0.0
  0
LINE
  5
320
330
1F
100
AcDbEntity
  8
0
  6
Continuous
 62
     7
370
    25
100
AcDbLine
 10
118.1866959193
 20
303.9500001788
 30
0.0
 11
118.1866959193
 21
304.9499999702
 31
0.0
  0
LINE
  5
321
330
1F
100
AcDbEntity
  8
0
  6
Continuous
 62
     7
370
    25
100
AcDbLine
 10
68.8558698157
 20
307.4499998212
 30
0.0
 11
95.9175199726
 21
307.4499998212
 31
0.0
  0
LINE
  5
322
330
1F
100
AcDbEntity
  8
0
  6
Continuous
 62
     7
370
    25
100
AcDbLine
 10
87.3866949687
 20
299.45
 30
0.0
 11
77.3866948196
 21
299.45
 31
0.0
  0
LINE
  5
323
330
1F
100
AcDbEntity
  8
0
  6
PHANTOM
 62
     8
370
    18
100
AcDbLine
 10
115.9866944412
 20
397.4500019073
 30
0.0
 11
115.9866944412
 21
397.749998045
 31
0.0
  0
LINE
  5
324
330
1F
100
AcDbEntity
  8
0
  6
PHANTOM
 62
     8
370
    18
100
AcDbLine
 10
48.7866953471
 20
397.4500019073
 30
0.0
 11
48.7866953471
 21
397.749998045
 31
0.0
  0
LINE
  5
325
330
1F
100
AcDbEntity
  8
0
  6
PHANTOM
 62
     8
370
    18
100
AcDbLine
 10
95.8872169712
 20
317.9500002384
 30
0.0
 11
98.3866945365
 21
317.9500002384
 31
0.0
  0
LINE
  5
326
330
1F
100
AcDbEntity
  8
0
  6
PHANTOM
 62
     8
370
    18
100
AcDbLine
 10
68.8861728171
 20
317.9500002384
 30
0.0
 11
66.3866952518
 21
317.9500002384
 31
0.0
  0
LINE
  5
327
330
1F
100
AcDbEntity
  8
0
  6
PHANTOM
 62
     8
370
    18
100
AcDbLine
 10
112.88721715
 20
352.9500026226
 30
0.0
 11
115.3866962054
 21
352.9500026226
 31
0.0
  0
LINE
  5
328
330
1F
100
AcDbEntity
  8
0
  6
PHANTOM
 62
     8
370
    18
100
AcDbLine
 10
85.8861722508
 20
352.9500026226
 30
0.0
 11
83.3866948718
 21
352.9500026226
 31
0.0
  0
LINE
  5
329
330
1F
100
AcDbEntity
  8
0
  6
PHANTOM
 62
     8
370
    18
100
AcDbLine
 10
78.8872175375
 20
352.9500026226
 30
0.0
 11
81.3866949165
 21
352.9500026226
 31
0.0
  0
LINE
  5
32A
330
1F
100
AcDbEntity
  8
0
  6
PHANTOM
 62
     8
370
    18
100
AcDbLine
 10
51.8861726382
 20
352.9500026226
 30
0.0
 11
49.3866935828
 21
352.9500026226
 31
0.0
  0
LINE
  5
32B
330
1F
100
AcDbEntity
  8
0
  6
Continuous
 62
     7
370
    25
100
AcDbLine
 10
315.6351776572
 20
306.2443838544
 30
0.0
 11
315.6351776572
 21
306.4893429442
 31
0.0
  0
LINE
  5
32C
330
1F
100
AcDbEntity
  8
0
  6
Continuous
 62
     7
370
    25
100
AcDbLine
 10
216.6000303129
 20
306.4893429442
 30
0.0
 11
216.6000303129
 21
306.2443838544
 31
0.0
  0
LINE
  5
32D
330
1F
100
AcDbEntity
  8
0
  6
Continuous
 62
     7
370
    25
100
AcDbLine
 10
252.2254474311
 20
229.4687738756
 30
0.0
 11
252.2961593062
 21
229.5095949722
 31
0.0
  0
LINE
  5
32E
330
1F
100
AcDbEntity
  8
0
  6
Continuous
 62
     7
370
    25
100
AcDbLine
 10
251.7961996915
 20
230.3756441132
 30
0.0
 11
251.7254878164
 21
230.3348230166
 31
0.0
  0
LINE
  5
32F
330
1F
100
AcDbEntity
  8
0
  6
Continuous
 62
     7
370
    25
100
AcDbLine
 10
252.3992715711
 20
229.7596057403
 30
0.0
 11
252.4316150627
 21
229.8292747483
 31
0.0
  0
LINE
  5
330
330
1F
100
AcDbEntity
  8
0
  6
Continuous
 62
     7
370
    25
100
AcDbLine
 10
252.1407765198
 20
230.3330778499
 30
0.0
 11
252.0642694531
 21
230.3399096982
 31
0.0
  0
SPLINE
  5
331
330
1F
100
AcDbEntity
  8
0
  6
Continuous
 62
     7
370
    25
100
AcDbSpline
210
0.0
220
0.0
230
1.0
 70
     8
 71
     3
 72
     9
 73
     5
 74
     0
 42
0.000000001
 43
0.00000001
 40
0.0
 40
0.0
 40
0.0
 40
0.0
 40
0.399550382511509
 40
1.0
 40
1.0
 40
1.0
 40
1.0
 10
252.147681227277
 20
230.3375309118692
 30
0.0
 10
252.1457487406127
 20
230.3362928465977
 30
0.0
 10
252.1409120873422
 20
230.333194200405
 30
0.0
 10
252.1405910303828
 20
230.3334215849327
 30
0.0
 10
252.1403982518544
 20
230.3335581178854
 30
0.0
  0
LINE
  5
332
330
1F
100
AcDbEntity
  8
0
  6
Continuous
 62
     7
370
    25
100
AcDbLine
 10
252.4388032077
 20
229.8338585922
 30
0.0
 11
252.845964945
 21
230.06890806
 31
0.0
  0
LINE
  5
333
330
1F
100
AcDbEntity
  8
0
  6
Continuous
 62
     7
370
    25
100
AcDbLine
 10
252.5548292669
 20
230.5716709467
 30
0.0
 11
252.1483397718
 21
230.337009556
 31
0.0
  0
LINE
  5
334
330
1F
100
AcDbEntity
  8
0
  6
Continuous
 62
     7
370
    25
100
AcDbLine
 10
223.9411768159
 20
245.7969357471
 30
0.0
 11
224.011888691
 21
245.8377568437
 31
0.0
  0
LINE
  5
335
330
1F
100
AcDbEntity
  8
0
  6
Continuous
 62
     7
370
    25
100
AcDbLine
 10
223.5119290762
 20
246.7038059847
 30
0.0
 11
223.4412172011
 21
246.6629848881
 31
0.0
  0
LINE
  5
336
330
1F
100
AcDbEntity
  8
0
  6
Continuous
 62
     7
370
    25
100
AcDbLine
 10
224.1150009558
 20
246.0877676117
 30
0.0
 11
224.1473444474
 21
246.1574366198
 31
0.0
  0
LINE
  5
337
330
1F
100
AcDbEntity
  8
0
  6
Continuous
 62
     7
370
    25
100
AcDbLine
 10
223.8565048509
 20
246.6612403296
 30
0.0
 11
223.7799988378
 21
246.6680715697
 31
0.0
  0
SPLINE
  5
338
330
1F
100
AcDbEntity
  8
0
  6
Continuous
 62
     7
370
    25
100
AcDbSpline
210
0.0
220
0.0
230
1.0
 70
     8
 71
     3
 72
     9
 73
     5
 74
     0
 42
0.000000001
 43
0.00000001
 40
0.0
 40
0.0
 40
0.0
 40
0.0
 40
0.399550382511509
 40
1.0
 40
1.0
 40
1.0
 40
1.0
 10
223.8634095583468
 20
246.665693391632
 30
0.0
 10
223.8614770716825
 20
246.6644553263605
 30
0.0
 10
223.856640418412
 20
246.6613566801679
 30
0.0
 10
223.8563193614526
 20
246.6615840646955
 30
0.0
 10
223.8561265829241
 20
246.6617205976482
 30
0.0
  0
LINE
  5
339
330
1F
100
AcDbEntity
  8
0
  6
Continuous
 62
     7
370
    25
100
AcDbLine
 10
224.1545315387
 20
246.162021072
 30
0.0
 11
224.5616932761
 21
246.3970705398
 31
0.0
  0
LINE
  5
33A
330
1F
100
AcDbEntity
  8
0
  6
Continuous
 62
     7
370
    25
100
AcDbLine
 10
224.270557598
 20
246.8998334264
 30
0.0
 11
223.8640681029
 21
246.6651720358
 31
0.0
  0
LINE
  5
33B
330
1F
100
AcDbEntity
  8
0
  6
Continuous
 62
     7
370
    25
100
AcDbLine
 10
280.5097201537
 20
275.2445686437
 30
0.0
 11
280.4390082786
 21
275.2853897403
 31
0.0
  0
LINE
  5
33C
330
1F
100
AcDbEntity
  8
0
  6
Continuous
 62
     7
370
    25
100
AcDbLine
 10
279.9390486639
 20
274.4193381659
 30
0.0
 11
280.009760539
 21
274.3785170693
 31
0.0
  0
LINE
  5
33D
330
1F
100
AcDbEntity
  8
0
  6
Continuous
 62
     7
370
    25
100
AcDbLine
 10
280.1709385171
 20
275.2496553253
 30
0.0
 11
280.0944314503
 21
275.242823477
 31
0.0
  0
LINE
  5
33E
330
1F
100
AcDbEntity
  8
0
  6
Continuous
 62
     7
370
    25
100
AcDbLine
 10
279.8035929075
 20
274.7390179419
 30
0.0
 11
279.835936399
 21
274.6693489339
 31
0.0
  0
SPLINE
  5
33F
330
1F
100
AcDbEntity
  8
0
  6
Continuous
 62
     7
370
    25
100
AcDbSpline
210
0.0
220
0.0
230
1.0
 70
     8
 71
     3
 72
     9
 73
     5
 74
     0
 42
0.000000001
 43
0.00000001
 40
0.0
 40
0.0
 40
0.0
 40
0.0
 40
0.894353231523287
 40
1.0
 40
1.0
 40
1.0
 40
1.0
 10
280.0971014531444
 20
275.2429771135111
 30
0.0
 10
280.0939894745144
 20
275.2435266723949
 30
0.0
 10
280.0905098889097
 20
275.2441411487163
 30
0.0
 10
280.0876631218638
 20
275.2464574483413
 30
0.0
 10
280.0873623701248
 20
275.2467021579115
 30
0.0
  0
SPLINE
  5
340
330
1F
100
AcDbEntity
  8
0
  6
Continuous
 62
     7
370
    25
100
AcDbSpline
210
0.0
220
0.0
230
1.0
 70
     8
 71
     3
 72
     9
 73
     5
 74
     0
 42
0.000000001
 43
0.00000001
 40
0.0
 40
0.0
 40
0.0
 40
0.0
 40
0.3262989127158643
 40
1.0
 40
1.0
 40
1.0
 40
1.0
 10
279.7964721974011
 20
274.7427744678612
 30
0.0
 10
279.7980691710537
 20
274.7420068075072
 30
0.0
 10
279.8029633756934
 20
274.7396541782945
 30
0.0
 10
279.8032866253978
 20
274.7387588201777
 30
0.0
 10
279.8035043990752
 20
274.738155616441
 30
0.0
  0
LINE
  5
341
330
1F
100
AcDbEntity
  8
0
  6
Continuous
 62
     7
370
    25
100
AcDbLine
 10
280.0868681983
 20
275.2467527496
 30
0.0
 11
279.6803787032
 21
275.4814141403
 31
0.0
  0
LINE
  5
342
330
1F
100
AcDbEntity
  8
0
  6
Continuous
 62
     7
370
    25
100
AcDbLine
 10
279.3892430251
 20
274.9786512537
 30
0.0
 11
279.7964047624
 21
274.7436017858
 31
0.0
  0
LINE
  5
343
330
1F
100
AcDbEntity
  8
0
  6
Continuous
 62
     7
370
    25
100
AcDbLine
 10
308.793990769
 20
291.5727305152
 30
0.0
 11
308.7232788939
 21
291.6135516118
 31
0.0
  0
LINE
  5
344
330
1F
100
AcDbEntity
  8
0
  6
Continuous
 62
     7
370
    25
100
AcDbLine
 10
308.2233192791
 20
290.7475000373
 30
0.0
 11
308.2940311542
 21
290.7066789408
 31
0.0
  0
LINE
  5
345
330
1F
100
AcDbEntity
  8
0
  6
Continuous
 62
     7
370
    25
100
AcDbLine
 10
308.4552091323
 20
291.5778171968
 30
0.0
 11
308.3787031192
 21
291.5709859567
 31
0.0
  0
LINE
  5
346
330
1F
100
AcDbEntity
  8
0
  6
Continuous
 62
     7
370
    25
100
AcDbLine
 10
308.0878635227
 20
291.0671798134
 30
0.0
 11
308.1202070143
 21
290.9975108054
 31
0.0
  0
SPLINE
  5
347
330
1F
100
AcDbEntity
  8
0
  6
Continuous
 62
     7
370
    25
100
AcDbSpline
210
0.0
220
0.0
230
1.0
 70
     8
 71
     3
 72
     9
 73
     5
 74
     0
 42
0.000000001
 43
0.00000001
 40
0.0
 40
0.0
 40
0.0
 40
0.0
 40
0.8943465873074776
 40
1.0
 40
1.0
 40
1.0
 40
1.0
 10
308.3813720684038
 20
291.5711389850024
 30
0.0
 10
308.3782586808649
 20
291.5716878432162
 30
0.0
 10
308.3747774940599
 20
291.5723015406594
 30
0.0
 10
308.371934419577
 20
291.574619714678
 30
0.0
 10
308.3716340390553
 20
291.5748646376742
 30
0.0
  0
SPLINE
  5
348
330
1F
100
AcDbEntity
  8
0
  6
Continuous
 62
     7
370
    25
100
AcDbSpline
210
0.0
220
0.0
230
1.0
 70
     8
 71
     3
 72
     9
 73
     5
 74
     0
 42
0.000000001
 43
0.00000001
 40
0.0
 40
0.0
 40
0.0
 40
0.0
 40
0.326291565412063
 40
1.0
 40
1.0
 40
1.0
 40
1.0
 10
308.0807428126604
 20
291.0709363393524
 30
0.0
 10
308.082340221338
 20
291.0701689298446
 30
0.0
 10
308.0872358694237
 20
291.0678170164358
 30
0.0
 10
308.0875579953685
 20
291.0669210846997
 30
0.0
 10
308.0877750143345
 20
291.0663174879322
 30
0.0
  0
LINE
  5
349
330
1F
100
AcDbEntity
  8
0
  6
Continuous
 62
     7
370
    25
100
AcDbLine
 10
308.3711398673
 20
291.5749152294
 30
0.0
 11
307.9646503721
 21
291.80957662
 31
0.0
  0
LINE
  5
34A
330
1F
100
AcDbEntity
  8
0
  6
Continuous
 62
     7
370
    25
100
AcDbLine
 10
307.673514694
 20
291.3068137334
 30
0.0
 11
308.0806764314
 21
291.0717642656
 31
0.0
  0
LINE
  5
34B
330
1F
100
AcDbEntity
  8
0
  6
Continuous
 62
     7
370
    25
100
AcDbLine
 10
251.1622956141
 20
315.531062744
 30
0.0
 11
251.4631693215
 21
315.3573720498
 31
0.0
  0
LWPOLYLINE
  5
34C
330
1F
100
AcDbEntity
  8
0
  6
Continuous
 62
     7
370
    25
100
AcDbPolyline
 90
       12
 70
   128
 43
0.0
 10
250.4551888487
 20
315.1228586972
 10
250.3699024946
 20
315.1886285983
 10
250.3201687524
 20
315.2656050834
 10
250.310015626
 20
315.3475526573
 10
250.3402672179
 20
315.4278315051
 10
250.4084715696
 20
315.4999385587
 10
250.5091033607
 20
315.5580320552
 10
250.634009975
 20
315.5974055893
 10
250.7730720858
 20
315.6148694616
 10
250.9150248283
 20
315.6090081865
 10
251.0483664593
 20
315.5802975082
 10
251.1622956141
 20
315.531062744
  0
LINE
  5
34D
330
1F
100
AcDbEntity
  8
0
  6
Continuous
 62
     7
370
    25
100
AcDbLine
 10
250.7560625561
 20
314.949168003
 30
0.0
 11
250.4551888487
 21
315.1228586972
 31
0.0
  0
LWPOLYLINE
  5
34E
330
1F
100
AcDbEntity
  8
0
  6
Continuous
 62
     7
370
    25
100
AcDbPolyline
 90
        9
 70
   128
 43
0.0
 10
251.63923923
 20
314.4393209616
 10
251.460480616
 20
314.4394954595
 10
251.2862513724
 20
314.4625802922
 10
251.1252512343
 20
314.5074225382
 10
250.9855188239
 20
314.5717832455
 10
250.874030729
 20
314.6524490489
 10
250.796353264
 20
314.7453924503
 10
250.7563648281
 20
314.8459728517
 10
250.7560625561
 20
314.949168003
  0
LINE
  5
34F
330
1F
100
AcDbEntity
  8
0
  6
Continuous
 62
     7
370
    25
100
AcDbLine
 10
251.9401129374
 20
314.2656302674
 30
0.0
 11
251.63923923
 21
314.4393209616
 31
0.0
  0
LWPOLYLINE
  5
350
330
1F
100
AcDbEntity
  8
0
  6
Continuous
 62
     7
370
    25
100
AcDbPolyline
 90
       12
 70
   128
 43
0.0
 10
252.6472197028
 20
314.6738343142
 10
252.7325060569
 20
314.6080644131
 10
252.7822397991
 20
314.531087928
 10
252.7923929256
 20
314.449140354
 10
252.7621413336
 20
314.3688615063
 10
252.6939369819
 20
314.2967544527
 10
252.5933051908
 20
314.2386609562
 10
252.4683985765
 20
314.1992874221
 10
252.3293364657
 20
314.1818235498
 10
252.1873837232
 20
314.1876848249
 10
252.0540420922
 20
314.2163955032
 10
251.9401129374
 20
314.2656302674
  0
LINE
  5
351
330
1F
100
AcDbEntity
  8
0
  6
Continuous
 62
     7
370
    25
100
AcDbLine
 10
252.3463459954
 20
314.8475250084
 30
0.0
 11
252.6472197028
 21
314.6738343142
 31
0.0
  0
LWPOLYLINE
  5
352
330
1F
100
AcDbEntity
  8
0
  6
Continuous
 62
     7
370
    25
100
AcDbPolyline
 90
        9
 70
   128
 43
0.0
 10
251.4631693215
 20
315.3573720498
 10
251.6419279355
 20
315.3571975519
 10
251.8161571791
 20
315.3341127192
 10
251.9771573173
 20
315.2892704732
 10
252.1168897276
 20
315.2249097659
 10
252.2283778225
 20
315.1442439625
 10
252.3060552875
 20
315.0513005611
 10
252.3460437234
 20
314.9507201597
 10
252.3463459954
 20
314.8475250084
  0
LWPOLYLINE
  5
353
330
1F
100
AcDbEntity
  8
0
  6
Continuous
 62
     7
370
    25
100
AcDbPolyline
 90
       12
 70
   128
 43
0.0
 10
280.2950950327
 20
298.713055621
 10
280.1811658779
 20
298.7622903852
 10
280.0478242469
 20
298.7910010635
 10
279.9058715044
 20
298.7968623386
 10
279.7668093936
 20
298.7793984663
 10
279.6419027793
 20
298.7400249322
 10
279.5412709882
 20
298.6819314357
 10
279.4730666366
 20
298.6098243821
 10
279.4428150446
 20
298.5295455343
 10
279.452968171
 20
298.4475979604
 10
279.5027019132
 20
298.3706214753
 10
279.5879882673
 20
298.3048515742
  0
LINE
  5
354
330
1F
100
AcDbEntity
  8
0
  6
Continuous
 62
     7
370
    25
100
AcDbLine
 10
279.5879882673
 20
298.3048515742
 30
0.0
 11
279.8888619747
 21
298.13116088
 31
0.0
  0
LWPOLYLINE
  5
355
330
1F
100
AcDbEntity
  8
0
  6
Continuous
 62
     7
370
    25
100
AcDbPolyline
 90
        9
 70
   128
 43
0.0
 10
279.8888619747
 20
298.13116088
 10
279.8891642467
 20
298.0279657287
 10
279.9291526826
 20
297.9273853273
 10
280.0068301476
 20
297.8344419259
 10
280.1183182425
 20
297.7537761224
 10
280.2580506529
 20
297.6894154152
 10
280.419050791
 20
297.6445731692
 10
280.5932800346
 20
297.6214883365
 10
280.7720386486
 20
297.6213138386
  0
LINE
  5
356
330
1F
100
AcDbEntity
  8
0
  6
Continuous
 62
     7
370
    25
100
AcDbLine
 10
280.7720386486
 20
297.6213138386
 30
0.0
 11
281.072912356
 21
297.4476231444
 31
0.0
  0
LWPOLYLINE
  5
357
330
1F
100
AcDbEntity
  8
0
  6
Continuous
 62
     7
370
    25
100
AcDbPolyline
 90
       12
 70
   128
 43
0.0
 10
281.072912356
 20
297.4476231444
 10
281.1868415108
 20
297.3983883802
 10
281.3201831418
 20
297.3696777019
 10
281.4621358843
 20
297.3638164268
 10
281.6011979951
 20
297.3812802991
 10
281.7261046094
 20
297.4206538332
 10
281.8267364005
 20
297.4787473297
 10
281.8949407522
 20
297.5508543833
 10
281.9251923442
 20
297.631133231
 10
281.9150392177
 20
297.713080805
 10
281.8653054755
 20
297.7900572901
 10
281.7800191214
 20
297.8558271912
  0
LINE
  5
358
330
1F
100
AcDbEntity
  8
0
  6
Continuous
 62
     7
370
    25
100
AcDbLine
 10
281.7800191214
 20
297.8558271912
 30
0.0
 11
281.479145414
 21
298.0295178854
 31
0.0
  0
LWPOLYLINE
  5
359
330
1F
100
AcDbEntity
  8
0
  6
Continuous
 62
     7
370
    25
100
AcDbPolyline
 90
        9
 70
   128
 43
0.0
 10
281.479145414
 20
298.0295178854
 10
281.478843142
 20
298.1327130366
 10
281.4388547061
 20
298.2332934381
 10
281.3611772411
 20
298.3262368395
 10
281.2496891462
 20
298.4069026429
 10
281.1099567359
 20
298.4712633502
 10
280.9489565977
 20
298.5161055962
 10
280.7747273541
 20
298.5391904289
 10
280.5959687401
 20
298.5393649268
  0
LINE
  5
35A
330
1F
100
AcDbEntity
  8
0
  6
Continuous
 62
     7
370
    25
100
AcDbLine
 10
280.5959687401
 20
298.5393649268
 30
0.0
 11
280.2950950327
 21
298.713055621
 31
0.0
  0
LINE
  5
35B
330
1F
100
AcDbEntity
  8
0
  6
Continuous
 62
     7
370
    25
100
AcDbLine
 10
267.5318183061
 20
334.7370636814
 30
0.0
 11
315.0493933612
 21
307.305751494
 31
0.0
  0
LWPOLYLINE
  5
35C
330
1F
100
AcDbEntity
  8
0
  6
Continuous
 62
     7
370
    25
100
AcDbPolyline
 90
       12
 70
   128
 43
0.0
 10
315.0493933612
 20
307.305751494
 10
315.2362619508
 20
307.1812541445
 10
315.3905383824
 20
307.0426716615
 10
315.5090785012
 20
306.8928264244
 10
315.5894736147
 20
306.7347658732
 10
315.6300842106
 20
306.5717089804
 10
315.6300842106
 20
306.406976908
 10
315.5894736147
 20
306.2439200152
 10
315.5090785012
 20
306.085859464
 10
315.3905383824
 20
305.9360142269
 10
315.2362619508
 20
305.7974317439
 10
315.0493933612
 20
305.6729343944
  0
LINE
  5
35D
330
1F
100
AcDbEntity
  8
0
  6
Continuous
 62
     7
370
    25
100
AcDbLine
 10
315.0493933612
 20
305.6729343944
 30
0.0
 11
267.5318183061
 21
278.241622207
 31
0.0
  0
ARC
  5
35E
330
1F
100
AcDbEntity
  8
0
  6
Continuous
 62
     7
370
    25
100
AcDbCircle
 10
266.1176039851
 20
280.9573127633
 30
0.0
 40
3.061858478703446
100
AcDbArc
 50
242.4914468753
 51
297.5085531247
  0
LINE
  5
35F
330
1F
100
AcDbEntity
  8
0
  6
Continuous
 62
     7
370
    25
100
AcDbLine
 10
264.703389664
 20
278.241622207
 30
0.0
 11
217.1858146089
 21
305.6729343944
 31
0.0
  0
LWPOLYLINE
  5
360
330
1F
100
AcDbEntity
  8
0
  6
Continuous
 62
     7
370
    25
100
AcDbPolyline
 90
       12
 70
   128
 43
0.0
 10
217.1858146089
 20
305.6729343944
 10
216.9989460194
 20
305.7974317439
 10
216.8446695877
 20
305.9360142269
 10
216.7261294689
 20
306.085859464
 10
216.6457343554
 20
306.2439200152
 10
216.6051237595
 20
306.406976908
 10
216.6051237595
 20
306.5717089804
 10
216.6457343554
 20
306.7347658732
 10
216.7261294689
 20
306.8928264244
 10
216.8446695877
 20
307.0426716615
 10
216.9989460194
 20
307.1812541445
 10
217.1858146089
 20
307.305751494
  0
LINE
  5
361
330
1F
100
AcDbEntity
  8
0
  6
Continuous
 62
     7
370
    25
100
AcDbLine
 10
217.1858146089
 20
307.305751494
 30
0.0
 11
264.703389664
 21
334.7370636814
 31
0.0
  0
ARC
  5
362
330
1F
100
AcDbEntity
  8
0
  6
Continuous
 62
     7
370
    25
100
AcDbCircle
 10
266.1176039851
 20
332.021373125
 30
0.0
 40
3.061858478704001
100
AcDbArc
 50
62.4914468753
 51
117.5085531247
  0
ARC
  5
363
330
1F
100
AcDbEntity
  8
0
  6
Continuous
 62
     7
370
    25
100
AcDbCircle
 10
266.1176039851
 20
280.7123536736
 30
0.0
 40
3.061858478703598
100
AcDbArc
 50
242.4914468753
 51
297.5085531247
  0
LINE
  5
364
330
1F
100
AcDbEntity
  8
0
  6
Continuous
 62
     7
370
    25
100
AcDbLine
 10
315.0493933612
 20
305.4279753046
 30
0.0
 11
267.5318183061
 21
277.9966631172
 31
0.0
  0
LINE
  5
365
330
1F
100
AcDbEntity
  8
0
  6
Continuous
 62
     7
370
    25
100
AcDbLine
 10
264.703389664
 20
277.9966631172
 30
0.0
 11
217.1858146089
 21
305.4279753046
 31
0.0
  0
LWPOLYLINE
  5
366
330
1F
100
AcDbEntity
  8
0
  6
Continuous
 62
     7
370
    25
100
AcDbPolyline
 90
        3
 70
   128
 43
0.0
 10
281.8792189734
 20
297.5292471217
 10
281.8653054755
 20
297.5450982003
 10
281.7800191214
 20
297.6108681014
  0
LINE
  5
367
330
1F
100
AcDbEntity
  8
0
  6
Continuous
 62
     7
370
    25
100
AcDbLine
 10
279.8888619747
 20
298.0295192351
 30
0.0
 11
279.8888619747
 21
298.13116088
 31
0.0
  0
LINE
  5
368
330
1F
100
AcDbEntity
  8
0
  6
Continuous
 62
     7
370
    25
100
AcDbLine
 10
281.479145414
 20
297.7845587956
 30
0.0
 11
281.479145414
 21
298.0295178854
 31
0.0
  0
LINE
  5
369
330
1F
100
AcDbEntity
  8
0
  6
Continuous
 62
     7
370
    25
100
AcDbLine
 10
281.7800191214
 20
297.6108681014
 30
0.0
 11
281.479145414
 21
297.7845587956
 31
0.0
  0
LINE
  5
36A
330
1F
100
AcDbEntity
  8
0
  6
Continuous
 62
     7
370
    25
100
AcDbLine
 10
280.5959687401
 20
298.294405837
 30
0.0
 11
280.5959687401
 21
298.5393649268
 31
0.0
  0
LWPOLYLINE
  5
36B
330
1F
100
AcDbEntity
  8
0
  6
Continuous
 62
     7
370
    25
100
AcDbPolyline
 90
        9
 70
   128
 43
0.0
 10
281.4791447883
 20
297.8862018092
 10
281.478843142
 20
297.8877539469
 10
281.4388547061
 20
297.9883343483
 10
281.3611772411
 20
298.0812777497
 10
281.2496891462
 20
298.1619435531
 10
281.1099567359
 20
298.2263042604
 10
280.9489565977
 20
298.2711465064
 10
280.7747273541
 20
298.2942313391
 10
280.5959687401
 20
298.294405837
  0
LWPOLYLINE
  5
36C
330
1F
100
AcDbEntity
  8
0
  6
Continuous
 62
     7
370
    25
100
AcDbPolyline
 90
        8
 70
   128
 43
0.0
 10
280.2950950327
 20
298.4680965312
 10
280.1811658779
 20
298.5173312954
 10
280.0478242469
 20
298.5460419737
 10
279.9058715044
 20
298.5519032488
 10
279.7668093936
 20
298.5344393765
 10
279.6419027793
 20
298.4950658424
 10
279.5412709882
 20
298.4369723459
 10
279.4887887446
 20
298.3864755135
  0
LINE
  5
36D
330
1F
100
AcDbEntity
  8
0
  6
Continuous
 62
     7
370
    25
100
AcDbLine
 10
280.5959687401
 20
298.294405837
 30
0.0
 11
280.2950950327
 21
298.4680965312
 31
0.0
  0
LWPOLYLINE
  5
36E
330
1F
100
AcDbEntity
  8
0
  6
Continuous
 62
     7
370
    25
100
AcDbPolyline
 90
        7
 70
   128
 43
0.0
 10
315.6351776572
 20
306.2443838544
 10
315.6300842106
 20
306.1620178182
 10
315.5894736147
 20
305.9989609254
 10
315.5090785012
 20
305.8409003742
 10
315.3905383824
 20
305.6910551371
 10
315.2362619508
 20
305.5524726541
 10
315.0493933612
 20
305.4279753046
  0
LWPOLYLINE
  5
36F
330
1F
100
AcDbEntity
  8
0
  6
Continuous
 62
     7
370
    25
100
AcDbPolyline
 90
        7
 70
   128
 43
0.0
 10
217.1858146089
 20
305.4279753046
 10
216.9989460194
 20
305.5524726541
 10
216.8446695877
 20
305.6910551371
 10
216.7261294689
 20
305.8409003742
 10
216.6457343554
 20
305.9989609254
 10
216.6051237595
 20
306.1620178182
 10
216.6000303129
 20
306.2443838544
  0
LWPOLYLINE
  5
370
330
1F
100
AcDbEntity
  8
0
  6
Continuous
 62
     7
370
    25
100
AcDbPolyline
 90
        3
 70
   128
 43
0.0
 10
252.6472197028
 20
314.4288752244
 10
252.7325060569
 20
314.3631053233
 10
252.7464195548
 20
314.3472542447
  0
LINE
  5
371
330
1F
100
AcDbEntity
  8
0
  6
Continuous
 62
     7
370
    25
100
AcDbLine
 10
250.7560625561
 20
314.8475263581
 30
0.0
 11
250.7560625561
 21
314.949168003
 31
0.0
  0
LINE
  5
372
330
1F
100
AcDbEntity
  8
0
  6
Continuous
 62
     7
370
    25
100
AcDbLine
 10
252.3463459954
 20
314.6025659186
 30
0.0
 11
252.3463459954
 21
314.8475250084
 31
0.0
  0
LINE
  5
373
330
1F
100
AcDbEntity
  8
0
  6
Continuous
 62
     7
370
    25
100
AcDbLine
 10
252.3463459954
 20
314.6025659186
 30
0.0
 11
252.6472197028
 21
314.4288752244
 31
0.0
  0
LINE
  5
374
330
1F
100
AcDbEntity
  8
0
  6
Continuous
 62
     7
370
    25
100
AcDbLine
 10
251.4631693215
 20
315.11241296
 30
0.0
 11
251.4631693215
 21
315.3573720498
 31
0.0
  0
LWPOLYLINE
  5
375
330
1F
100
AcDbEntity
  8
0
  6
Continuous
 62
     7
370
    25
100
AcDbPolyline
 90
        9
 70
   128
 43
0.0
 10
251.4631693215
 20
315.11241296
 10
251.6419279355
 20
315.1122384621
 10
251.8161571791
 20
315.0891536294
 10
251.9771573173
 20
315.0443113834
 10
252.1168897276
 20
314.9799506762
 10
252.2283778225
 20
314.8992848727
 10
252.3060552875
 20
314.8063414713
 10
252.3460437234
 20
314.7057610699
 10
252.3463453697
 20
314.7042089322
  0
ARC
  5
376
330
1F
100
AcDbEntity
  8
0
  6
Continuous
 62
     7
370
    25
100
AcDbCircle
 10
250.8171808532
 20
314.6719516872
 30
0.0
 40
0.7044762854399765
100
AcDbArc
 50
60.6667532552
 51
130.8937756336
  0
LINE
  5
377
330
1F
100
AcDbEntity
  8
0
  6
Continuous
 62
     7
370
    25
100
AcDbLine
 10
251.1622956141
 20
315.2861036542
 30
0.0
 11
251.4631693215
 21
315.11241296
 31
0.0
  0
LINE
  5
378
330
1F
100
AcDbEntity
  8
0
  6
Continuous
 62
     7
370
    25
100
AcDbLine
 10
283.0881679347
 20
238.8829505195
 30
0.0
 11
302.2689031373
 21
249.9557532607
 31
0.0
  0
LINE
  5
379
330
1F
100
AcDbEntity
  8
0
  6
Continuous
 62
     7
370
    25
100
AcDbLine
 10
217.9454904799
 20
256.8952216759
 30
0.0
 11
237.1262248922
 21
245.8224193909
 31
0.0
  0
LINE
  5
37A
330
1F
100
AcDbEntity
  8
0
  6
Continuous
 62
     7
370
    25
100
AcDbLine
 10
241.9871201078
 20
243.0162843133
 30
0.0
 11
261.1678549152
 21
231.9434818002
 31
0.0
  0
LINE
  5
37B
330
1F
100
AcDbEntity
  8
0
  6
Continuous
 62
     7
370
    25
100
AcDbLine
 10
322.6861473229
 20
258.4767456777
 30
0.0
 11
321.9789253122
 21
258.8850162542
 31
0.0
  0
LINE
  5
37C
330
1F
100
AcDbEntity
  8
0
  6
Continuous
 62
     7
370
    25
100
AcDbLine
 10
266.1176039851
 20
225.8204207182
 30
0.0
 11
322.6861473229
 21
258.4767456777
 31
0.0
  0
LINE
  5
37D
330
1F
100
AcDbEntity
  8
0
  6
Continuous
 62
     7
370
    25
100
AcDbLine
 10
209.5490606472
 20
258.4767456777
 30
0.0
 11
266.1176039851
 21
225.8204207182
 31
0.0
  0
LINE
  5
37E
330
1F
100
AcDbEntity
  8
0
  6
Continuous
 62
     7
370
    25
100
AcDbLine
 10
210.2562826579
 20
258.8850162542
 30
0.0
 11
209.5490606472
 21
258.4767456777
 31
0.0
  0
LWPOLYLINE
  5
37F
330
1F
100
AcDbEntity
  8
0
  6
Continuous
 62
     7
370
    25
100
AcDbPolyline
 90
       68
 70
   128
 43
0.0
 10
226.51962407
 20
231.5324902156
 10
226.532058444
 20
232.1376817437
 10
226.5693362778
 20
232.7271857325
 10
226.6313743315
 20
233.2997057372
 10
226.7180377351
 20
233.8539836353
 10
226.8291336667
 20
234.3888032763
 10
226.9644197821
 20
234.902985616
 10
227.1235989459
 20
235.395401491
 10
227.3063192319
 20
235.8649691861
 10
227.5121802451
 20
236.310654434
 10
227.7407299605
 20
236.7314807581
 10
227.9914647233
 20
237.1265221713
 10
228.2638345172
 20
237.4949086527
 10
228.5572408567
 20
237.8358297967
 10
228.871036788
 20
238.1485396807
 10
229.2045347903
 20
238.4323474356
 10
229.5569999282
 20
238.6866333674
 10
229.927658807
 20
238.9108340525
 10
230.315695885
 20
239.1044566345
 10
230.7202582155
 20
239.2670809536
 10
231.1404565
 20
239.3983419042
 10
231.5753677224
 20
239.4979571159
 10
232.0240351494
 20
239.5657050521
 10
232.4854725446
 20
239.6014371779
 10
232.9586657495
 20
239.6050746141
 10
233.4425742639
 20
239.5766096586
 10
233.9361346699
 20
239.5161062425
 10
234.4382622132
 20
239.4236941511
 10
234.9478526463
 20
239.2995801266
 10
235.46378618
 20
239.1440334201
 10
235.9849284057
 20
238.957397426
 10
236.5101338511
 20
238.7400851964
 10
237.0382480216
 20
238.4925685283
 10
237.5681098705
 20
238.2153984391
 10
238.0985547618
 20
237.9091791215
 10
238.6284166107
 20
237.5745837417
 10
239.1565307812
 20
237.2123527674
 10
239.6817362265
 20
236.8232756971
 10
240.2028784522
 20
236.4082136849
 10
240.718811986
 20
235.9680762129
 10
241.228402419
 20
235.5038296469
 10
241.7305299623
 20
235.0164976171
 10
242.2240903684
 20
234.507148318
 10
242.7079988827
 20
233.9769043953
 10
243.1811920877
 20
233.4269297137
 10
243.6426294829
 20
232.8584333116
 10
244.0912969099
 20
232.2726649906
 10
244.5262081323
 20
231.6709119698
 10
244.9464064168
 20
231.0545004067
 10
245.3509687473
 20
230.4247783632
 10
245.7390058253
 20
229.7831377073
 10
246.109664704
 20
229.1309833901
 10
246.4621298419
 20
228.4697498722
 10
246.7956278443
 20
227.8008935197
 10
247.1094237755
 20
227.1258825653
 10
247.4028301151
 20
226.4462016723
 10
247.6751999089
 20
225.7633437208
 10
247.9259346717
 20
225.0788101124
 10
248.1544843871
 20
224.3941059037
 10
248.3603454003
 20
223.7107385891
 10
248.5430656864
 20
223.0302065423
 10
248.7022448501
 20
222.3540063167
 10
248.8375309655
 20
221.683625953
 10
248.9486268972
 20
221.0205376796
 10
249.0352903007
 20
220.3662003456
 10
249.0973283544
 20
219.7220527288
 10
249.1346061882
 20
219.0895086691
 10
249.1470405622
 20
218.4699607184
  0
LINE
  5
380
330
1F
100
AcDbEntity
  8
0
  6
Continuous
 62
     7
370
    25
100
AcDbLine
 10
226.51962407
 20
220.917459442
 30
0.0
 11
226.51962407
 21
231.5324902156
 31
0.0
  0
LINE
  5
381
330
1F
100
AcDbEntity
  8
0
  6
Continuous
 62
     7
370
    25
100
AcDbLine
 10
209.5490606472
 20
230.7143571732
 30
0.0
 11
226.51962407
 21
220.917459442
 31
0.0
  0
LINE
  5
382
330
1F
100
AcDbEntity
  8
0
  6
Continuous
 62
     7
370
    25
100
AcDbLine
 10
209.5490606472
 20
258.4767456777
 30
0.0
 11
209.5490606472
 21
230.7143571732
 31
0.0
  0
LINE
  5
383
330
1F
100
AcDbEntity
  8
0
  6
Continuous
 62
     7
370
    25
100
AcDbLine
 10
266.1176039851
 20
225.8204207182
 30
0.0
 11
266.1176039851
 21
198.0580322137
 31
0.0
  0
LINE
  5
384
330
1F
100
AcDbEntity
  8
0
  6
Continuous
 62
     7
370
    25
100
AcDbLine
 10
249.1470405622
 20
207.8549299449
 30
0.0
 11
266.1176039851
 21
198.0580322137
 31
0.0
  0
LINE
  5
385
330
1F
100
AcDbEntity
  8
0
  6
Continuous
 62
     7
370
    25
100
AcDbLine
 10
249.1470405622
 20
218.4699607184
 30
0.0
 11
249.1470405622
 21
207.8549299449
 31
0.0
  0
LWPOLYLINE
  5
386
330
1F
100
AcDbEntity
  8
0
  6
Continuous
 62
     7
370
    25
100
AcDbPolyline
 90
       48
 70
   128
 43
0.0
 10
222.2769832143
 20
247.0463673465
 10
222.2896019808
 20
247.2567502852
 10
222.3272317408
 20
247.4488132821
 10
222.3892013058
 20
247.6191232405
 10
222.4744053748
 20
247.7646436804
 10
222.5813224464
 20
247.8827779346
 10
222.7080464295
 20
247.9714166043
 10
222.8523140383
 20
248.0289801479
 10
223.011551154
 20
248.0544407863
 10
223.182917079
 20
248.047343192
 10
223.3633530058
 20
248.0078130107
 10
223.5496399689
 20
247.9365574749
 10
223.7384525819
 20
247.8348489834
 10
223.9264222579
 20
247.7045007719
 10
224.1101941078
 20
247.5478365003
 10
224.2864880531
 20
247.367657406
 10
224.4521599389
 20
247.1671753893
 10
224.6042521101
 20
246.9499692153
 10
224.7400513633
 20
246.7199145565
 10
224.8571332011
 20
246.4811170767
 10
224.9534092472
 20
246.237836389
 10
225.0271609637
 20
245.9944154876
 10
225.0770723154
 20
245.7551961881
 10
225.1022518964
 20
245.5244528167
 10
225.1022518964
 20
245.3062960894
 10
225.0770723154
 20
245.1046244433
 10
225.0271609637
 20
244.9230315638
 10
224.9534092472
 20
244.7647625819
 10
224.8571332011
 20
244.6326398509
 10
224.7400513633
 20
244.5290221837
 10
224.6042521101
 20
244.4557580053
 10
224.4521599389
 20
244.4141537143
 10
224.2864880531
 20
244.4049523854
 10
224.1101941078
 20
244.4283179478
 10
223.9264222579
 20
244.4838321378
 10
223.7384525819
 20
244.5705090947
 10
223.5496399689
 20
244.6867990059
 10
223.3633530058
 20
244.8306258195
 10
223.182917079
 20
244.9994225249
 10
223.011551154
 20
245.1901798163
 10
222.8523140383
 20
245.3994917151
 10
222.7080464295
 20
245.6236230943
 10
222.5813224464
 20
245.8585741605
 10
222.4744053748
 20
246.100152238
 10
222.3892013058
 20
246.344047202
 10
222.3272317408
 20
246.5859081307
 10
222.2896019808
 20
246.8214150902
 10
222.2769832143
 20
247.0463673465
  0
LWPOLYLINE
  5
387
330
1F
100
AcDbEntity
  8
0
  6
Continuous
 62
     7
370
    25
100
AcDbPolyline
 90
       48
 70
   128
 43
0.0
 10
250.5612548832
 20
230.7182048668
 10
250.573872596
 20
230.9285884138
 10
250.611502356
 20
231.1206514106
 10
250.6734719211
 20
231.290961369
 10
250.75867599
 20
231.4364818089
 10
250.8655941153
 20
231.5546154548
 10
250.9923170447
 20
231.6432547328
 10
251.1365846535
 20
231.7008182764
 10
251.2958228229
 20
231.7262783065
 10
251.4671887479
 20
231.7191807122
 10
251.6476246748
 20
231.6796505309
 10
251.8339116378
 20
231.6083949952
 10
252.0227242508
 20
231.5066865036
 10
252.2106928731
 20
231.3763389004
 10
252.394464723
 20
231.2196746288
 10
252.570759722
 20
231.0394949263
 10
252.7364316078
 20
230.8390129096
 10
252.888523779
 20
230.6218067355
 10
253.0243219786
 20
230.391752685
 10
253.1414048701
 20
230.152954597
 10
253.2376798625
 20
229.9096745175
 10
253.311431579
 20
229.6662536161
 10
253.3613429307
 20
229.4270343166
 10
253.3865235653
 20
229.1962903369
 10
253.3865235653
 20
228.9781336096
 10
253.3613429307
 20
228.7764625718
 10
253.311431579
 20
228.5948696923
 10
253.2376798625
 20
228.4366007104
 10
253.1414048701
 20
228.3044773711
 10
253.0243219786
 20
228.2008603122
 10
252.888523779
 20
228.1275955255
 10
252.7364316078
 20
228.0859912345
 10
252.570759722
 20
228.0767899057
 10
252.394464723
 20
228.1001560764
 10
252.2106928731
 20
228.1556702663
 10
252.0227242508
 20
228.2423466149
 10
251.8339116378
 20
228.3586365261
 10
251.6476246748
 20
228.5024633398
 10
251.4671887479
 20
228.6712600452
 10
251.2958228229
 20
228.8620173365
 10
251.1365846535
 20
229.0713298436
 10
250.9923170447
 20
229.2954612228
 10
250.8655941153
 20
229.5304116808
 10
250.75867599
 20
229.7719903665
 10
250.6734719211
 20
230.0158853305
 10
250.611502356
 20
230.2577462592
 10
250.573872596
 20
230.4932532187
 10
250.5612548832
 20
230.7182048668
  0
LINE
  5
388
330
1F
100
AcDbEntity
  8
0
  6
Continuous
 62
     7
370
    25
100
AcDbLine
 10
295.1089824194
 20
225.4094295138
 30
0.0
 11
295.1089824194
 21
214.7943987402
 31
0.0
  0
LINE
  5
389
330
1F
100
AcDbEntity
  8
0
  6
Continuous
 62
     7
370
    25
100
AcDbLine
 10
293.6947688886
 20
213.9779906467
 30
0.0
 11
295.1089824194
 21
214.7943987402
 31
0.0
  0
LINE
  5
38A
330
1F
100
AcDbEntity
  8
0
  6
Continuous
 62
     7
370
    25
100
AcDbLine
 10
293.6947688886
 20
213.9779906467
 30
0.0
 11
293.6947688886
 21
224.5930214202
 31
0.0
  0
LWPOLYLINE
  5
38B
330
1F
100
AcDbEntity
  8
0
  6
Continuous
 62
     7
370
    25
100
AcDbPolyline
 90
       68
 70
   128
 43
0.0
 10
293.6947688886
 20
224.5930214202
 10
293.6823338561
 20
225.1982125681
 10
293.6450562198
 20
225.787716671
 10
293.5830179027
 20
226.3602365236
 10
293.4963552235
 20
226.9145148399
 10
293.3852586992
 20
227.4493341388
 10
293.249972518
 20
227.9635164404
 10
293.0907941444
 20
228.4559327717
 10
292.9080734633
 20
228.9255002386
 10
292.7022121867
 20
229.3711853345
 10
292.4736627347
 20
229.7920118106
 10
292.222927445
 20
230.1870529198
 10
291.9505577829
 20
230.5554394771
 10
291.6571522336
 20
230.8963610774
 10
291.3433557755
 20
231.2090706572
 10
291.0098580366
 20
231.4928785642
 10
290.6573926353
 20
231.7471643439
 10
290.28673402
 20
231.9713651811
 10
289.8986966785
 20
232.164987611
 10
289.494134348
 20
232.3276119301
 10
289.0739360635
 20
232.4588728807
 10
288.6390248411
 20
232.5584880924
 10
288.190357941
 20
232.6262363327
 10
287.7289205458
 20
232.6619684585
 10
287.2557273408
 20
232.6656058948
 10
286.7718182996
 20
232.6371406351
 10
286.278258157
 20
232.5766373711
 10
285.7761306137
 20
232.4842252797
 10
285.2665399172
 20
232.3601111031
 10
284.7506066469
 20
232.2045645486
 10
284.2294640261
 20
232.0179283265
 10
283.704258449
 20
231.8006160209
 10
283.1761447395
 20
231.5530996189
 10
282.6462829894
 20
231.2759295867
 10
282.1158375054
 20
230.9697099269
 10
281.5859757553
 20
230.6351146042
 10
281.0578620457
 20
230.2728838959
 10
280.5326564687
 20
229.8838067497
 10
280.0115138479
 20
229.4687445093
 10
279.4955805775
 20
229.0286071894
 10
278.9859904079
 20
228.5643607755
 10
278.4838623378
 20
228.0770284415
 10
277.9903027219
 20
227.5676795986
 10
277.5063936808
 20
227.0374353718
 10
277.0332004758
 20
226.4874606902
 10
276.5717630806
 20
225.9189642881
 10
276.1230951268
 20
225.333195663
 10
275.6881839044
 20
224.7314426422
 10
275.2679861467
 20
224.1150313832
 10
274.8634248699
 20
223.485309948
 10
274.475387265
 20
222.843668988
 10
274.1047289132
 20
222.1915149749
 10
273.7522632484
 20
221.5302811529
 10
273.4187657729
 20
220.8614251045
 10
273.1049677343
 20
220.1864129336
 10
272.8115624484
 20
219.5067326489
 10
272.5391926546
 20
218.8238746973
 10
272.2884589455
 20
218.1393416971
 10
272.05990923
 20
217.4546374885
 10
271.8540471632
 20
216.7712695656
 10
271.6713258235
 20
216.0907369106
 10
271.5121477134
 20
215.4145372932
 10
271.3768626517
 20
214.7441575378
 10
271.2657656663
 20
214.0810686561
 10
271.1791033164
 20
213.4267319304
 10
271.1170652628
 20
212.7825843136
 10
271.0797863753
 20
212.1500396456
 10
271.0673509476
 20
211.5304910866
  0
LINE
  5
38C
330
1F
100
AcDbEntity
  8
0
  6
Continuous
 62
     7
370
    25
100
AcDbLine
 10
271.0673509476
 20
211.5304910866
 30
0.0
 11
271.0673509476
 21
200.9154603131
 31
0.0
  0
LINE
  5
38D
330
1F
100
AcDbEntity
  8
0
  6
Continuous
 62
     7
370
    25
100
AcDbLine
 10
266.1176039851
 20
198.0580322137
 30
0.0
 11
271.0673509476
 21
200.9154603131
 31
0.0
  0
LINE
  5
38E
330
1F
100
AcDbEntity
  8
0
  6
Continuous
 62
     7
370
    25
100
AcDbLine
 10
322.6861473229
 20
258.4767456777
 30
0.0
 11
322.6861473229
 21
230.7143571732
 31
0.0
  0
LINE
  5
38F
330
1F
100
AcDbEntity
  8
0
  6
Continuous
 62
     7
370
    25
100
AcDbLine
 10
317.7364003604
 20
227.8569290738
 30
0.0
 11
322.6861473229
 21
230.7143571732
 31
0.0
  0
LINE
  5
390
330
1F
100
AcDbEntity
  8
0
  6
Continuous
 62
     7
370
    25
100
AcDbLine
 10
317.7364003604
 20
227.8569290738
 30
0.0
 11
317.7364003604
 21
238.4719598473
 31
0.0
  0
LWPOLYLINE
  5
391
330
1F
100
AcDbEntity
  8
0
  6
Continuous
 62
     7
370
    25
100
AcDbPolyline
 90
       68
 70
   128
 43
0.0
 10
317.7364003604
 20
238.4719598473
 10
317.7239649327
 20
239.0771507672
 10
317.6866860452
 20
239.6666541477
 10
317.6246479915
 20
240.2391741524
 10
317.5379856416
 20
240.7934526587
 10
317.4268886563
 20
241.3282716915
 10
317.2916035946
 20
241.8424546394
 10
317.1324254845
 20
242.3348711228
 10
316.9497041448
 20
242.8044382096
 10
316.7438420779
 20
243.2501228492
 10
316.5152923625
 20
243.6709491733
 10
316.2645586534
 20
244.0659911948
 10
315.9921888596
 20
244.4343776762
 10
315.6987835737
 20
244.7752994285
 10
315.3849855351
 20
245.0880080959
 10
315.0514880595
 20
245.371816155
 10
314.6990223948
 20
245.6261017826
 10
314.3283640429
 20
245.8503027719
 10
313.9403264381
 20
246.0439250497
 10
313.5357651612
 20
246.2065499771
 10
313.1155674036
 20
246.3378112318
 10
312.6806561812
 20
246.4374264435
 10
312.2319882274
 20
246.5051740756
 10
311.7705508321
 20
246.5409062013
 10
311.2973576272
 20
246.5445436376
 10
310.813448586
 20
246.5160783779
 10
310.3198889702
 20
246.455575418
 10
309.8177609001
 20
246.3631630225
 10
309.3081707304
 20
246.2390491501
 10
308.7922374601
 20
246.0835025956
 10
308.2710948393
 20
245.8968663734
 10
307.7458892623
 20
245.6795540678
 10
307.2177755527
 20
245.4320376658
 10
306.6879138026
 20
245.1548676337
 10
306.1574683186
 20
244.8486479739
 10
305.6276065685
 20
244.5140526511
 10
305.0994928589
 20
244.1518219429
 10
304.5742872819
 20
243.7627447966
 10
304.0531446611
 20
243.3476825563
 10
303.5372113907
 20
242.9075452364
 10
303.0276206943
 20
242.4432985183
 10
302.525493151
 20
241.9559664885
 10
302.0319330083
 20
241.4466173415
 10
301.5480239672
 20
240.9163731146
 10
301.0748307622
 20
240.3663984331
 10
300.613393367
 20
239.797902031
 10
300.1647264669
 20
239.2121340141
 10
299.7298152444
 20
238.6103809933
 10
299.30961696
 20
237.9939694302
 10
298.9050546295
 20
237.3642473867
 10
298.517017288
 20
236.7226065787
 10
298.1463586727
 20
236.0704524136
 10
297.7938932714
 20
235.4092187436
 10
297.4603955324
 20
234.7403625432
 10
297.1465990744
 20
234.0653512847
 10
296.853193525
 20
233.3856708479
 10
296.5808238629
 20
232.7028129723
 10
296.3300885733
 20
232.0182790598
 10
296.1015391213
 20
231.3335750032
 10
295.8956778447
 20
230.6502075366
 10
295.7129571635
 20
229.9696752617
 10
295.55377879
 20
229.2934754923
 10
295.4184926088
 20
228.6230950906
 10
295.3073960844
 20
227.9600064749
 10
295.2207334053
 20
227.3056695591
 10
295.1586950882
 20
226.6615217903
 10
295.1214174519
 20
226.0289778446
 10
295.1089824194
 20
225.4094295138
  0
LINE
  5
392
330
1F
100
AcDbEntity
  8
0
  6
Continuous
 62
     7
370
    25
100
AcDbLine
 10
283.0881674079
 20
241.9041247182
 30
0.0
 11
301.1591671329
 21
252.3362908046
 31
0.0
  0
LINE
  5
393
330
1F
100
AcDbEntity
  8
0
  6
Continuous
 62
     7
370
    25
100
AcDbLine
 10
219.0552254306
 20
259.2757598281
 30
0.0
 11
237.1262251556
 21
248.8435937417
 31
0.0
  0
LINE
  5
394
330
1F
100
AcDbEntity
  8
0
  6
Continuous
 62
     7
370
    25
100
AcDbLine
 10
243.0968562438
 20
245.3968217811
 30
0.0
 11
261.1678549152
 21
234.964656303
 31
0.0
  0
LWPOLYLINE
  5
395
330
1F
100
AcDbEntity
  8
0
  6
Continuous
 62
     7
370
    25
100
AcDbPolyline
 90
       22
 70
   128
 43
0.0
 10
289.0989449498
 20
225.2055404994
 10
289.0862874609
 20
225.7657213146
 10
289.048348185
 20
226.3098021565
 10
288.9852282744
 20
226.8363411782
 10
288.8970947361
 20
227.3439406331
 10
288.7841812216
 20
227.8312558488
 10
288.6467875003
 20
228.2969949229
 10
288.4852776158
 20
228.7399200917
 10
288.3000801488
 20
229.1588600501
 10
288.0916858466
 20
229.552702499
 10
287.8606473598
 20
229.9204012939
 10
287.607577925
 20
230.2609842014
 10
287.3331479405
 20
230.5735472725
 10
287.0380852298
 20
230.8572622947
 10
286.7231729339
 20
231.111374359
 10
286.3892455605
 20
231.335209313
 10
286.0371881934
 20
231.528178171
 10
285.6679354389
 20
231.6897667725
 10
285.2824661576
 20
231.8195449078
 10
284.8818018838
 20
231.9171678392
 10
284.4670062984
 20
231.982380864
 10
284.2003595198
 20
232.0066479204
  0
SPLINE
  5
396
330
1F
100
AcDbEntity
  8
0
  6
Continuous
 62
     7
370
    25
100
AcDbSpline
210
0.0
220
0.0
230
1.0
 70
     8
 71
     3
 72
    27
 73
    23
 74
     0
 42
0.000000001
 43
0.00000001
 40
0.0
 40
0.0
 40
0.0
 40
0.0
 40
0.0176663699895474
 40
0.0721288671999105
 40
0.1250561634366267
 40
0.1795187908130214
 40
0.2324463745095632
 40
0.2869087740988217
 40
0.3398364515235426
 40
0.3942987654043293
 40
0.4472263261193967
 40
0.5016888504374428
 40
0.5546165453528241
 40
0.6090790775162621
 40
0.6620063447229154
 40
0.7164691682592778
 40
0.7693964754041008
 40
0.8238590859872337
 40
0.876786615119535
 40
0.9312490854618547
 40
0.9841768640478007
 40
1.0
 40
1.0
 40
1.0
 40
1.0
 10
253.00763393391
 20
228.1954071879678
 30
0.0
 10
252.9900023639945
 20
228.1832788549027
 30
0.0
 10
252.9180155797424
 20
228.1337608766464
 30
0.0
 10
252.764714094531
 20
228.098387537007
 30
0.0
 10
252.5524084358821
 20
228.0919965260522
 30
0.0
 10
252.3248529348773
 20
228.1407556422219
 30
0.0
 10
252.0868251710654
 20
228.2398642024149
 30
0.0
 10
251.8485746812635
 20
228.3858072603745
 30
0.0
 10
251.6127696025822
 20
228.5767975772479
 30
0.0
 10
251.3903886635403
 20
228.8041331673398
 30
0.0
 10
251.1837570093666
 20
229.0654620222119
 30
0.0
 10
251.002336615214
 20
229.3486319048916
 30
0.0
 10
250.8479406915398
 20
229.6506888916123
 30
0.0
 10
250.7277739854854
 20
229.9576754687475
 30
0.0
 10
250.6431575700574
 20
230.2664878924237
 30
0.0
 10
250.5980126484704
 20
230.562791813856
 30
0.0
 10
250.5926607717695
 20
230.8435769189703
 30
0.0
 10
250.6275394847078
 20
231.0954938702814
 30
0.0
 10
250.7016432739362
 20
231.3172679518122
 30
0.0
 10
250.8142456554758
 20
231.4938937848074
 30
0.0
 10
250.9207631397728
 20
231.6061197992004
 30
0.0
 10
250.9964426440883
 20
231.6410183529354
 30
0.0
 10
251.0138604063628
 20
231.6490503124227
 30
0.0
  0
LWPOLYLINE
  5
397
330
1F
100
AcDbEntity
  8
0
  6
Continuous
 62
     7
370
    25
100
AcDbPolyline
 90
       89
 70
   128
 43
0.0
 10
283.1588782293
 20
214.7527375571
 10
283.5126399096
 20
215.2158171378
 10
283.8525099887
 20
215.6946079685
 10
284.1772962375
 20
216.1874301465
 10
284.4858596374
 20
216.6925553987
 10
284.7771175414
 20
217.2082113398
 10
285.0500484152
 20
217.7325896847
 10
285.3036944715
 20
218.2638508117
 10
285.5371658852
 20
218.8001298449
 10
285.7496439536
 20
219.3395463886
 10
285.9403837312
 20
219.8802090893
 10
286.10871561
 20
220.4202201988
 10
286.2540484804
 20
220.9576859156
 10
286.375873946
 20
221.4907212522
 10
286.4737631627
 20
222.0174555099
 10
286.5473742141
 20
222.5360414044
 10
286.5964473703
 20
223.044658412
 10
286.6208119366
 20
223.5415252403
 10
286.6203815119
 20
224.0248958748
 10
286.5951576768
 20
224.493076308
 10
286.5452289395
 20
224.9444239319
 10
286.4707707364
 20
225.3773548379
 10
286.372044378
 20
225.7903517259
 10
286.2493954683
 20
226.1819654253
 10
286.1032549589
 20
226.5508203706
 10
285.9341354609
 20
226.8956246391
 10
285.7426296643
 20
227.2151678226
 10
285.5294098114
 20
227.5083292399
 10
285.2952240086
 20
227.7740806749
 10
285.0408935928
 20
228.0114897231
 10
284.7673099698
 20
228.2197228335
 10
284.4754340876
 20
228.3980510882
 10
284.166289588
 20
228.5458474657
 10
283.8409601717
 20
228.6625938369
 10
283.5005874915
 20
228.7478833992
 10
283.1463658836
 20
228.8014103344
 10
282.7795376266
 20
228.8229938398
 10
282.4013897798
 20
228.8125544026
 10
282.0132489151
 20
228.7701302254
 10
281.6164753222
 20
228.6958690147
 10
281.2124630081
 20
228.5900328473
 10
280.8026270532
 20
228.452990871
 10
280.3884067723
 20
228.2852235636
 10
279.9712541245
 20
228.0873233413
 10
279.5526337127
 20
227.8599799587
 10
279.1340133009
 20
227.6039945017
 10
278.716860653
 20
227.3202605287
 10
278.3026403722
 20
227.0097792798
 10
277.892805471
 20
226.6736353427
 10
277.4887921032
 20
226.313008213
 10
277.0920195639
 20
225.9291649926
 10
276.7038776456
 20
225.5234506581
 10
276.3257297987
 20
225.0972898847
 10
275.9589015417
 20
224.6521754887
 10
275.6046804608
 20
224.1896732946
 10
275.2643077805
 20
223.7113978007
 10
274.9389783642
 20
223.2190340807
 10
274.6298333377
 20
222.7143067572
 10
274.3379569288
 20
222.1989854779
 10
274.0643743594
 20
221.6748800482
 10
273.8100444704
 20
221.1438276564
 10
273.575857614
 20
220.6076904406
 10
273.3626388147
 20
220.0683512294
 10
273.1711319644
 20
219.5276995513
 10
273.0020135201
 20
218.9876346749
 10
272.8558714302
 20
218.4500485767
 10
272.7332241011
 20
217.9168283727
 10
272.6344972158
 20
217.3898441534
 10
272.5600384859
 20
216.8709453319
 10
272.5101092218
 20
216.3619509108
 10
272.4848864403
 20
215.8646482657
 10
272.4844565424
 20
215.3807809776
 10
272.5088195282
 20
214.9120439663
 10
272.5578932113
 20
214.460085923
 10
272.6315047895
 20
214.0264898435
 10
272.7293929525
 20
213.6127754614
 10
272.8512184182
 20
213.2203968136
 10
272.9965512885
 20
212.8507288572
 10
273.1648836942
 20
212.5050699022
 10
273.3556234718
 20
212.1846306611
 10
273.5681025939
 20
211.8905366816
 10
273.8015729538
 20
211.6238173966
 10
274.0552190102
 20
211.3854097728
 10
274.3281504108
 20
211.1761510112
 10
274.6194083148
 20
210.9967742882
 10
274.9279717147
 20
210.8479087544
 10
275.2527574367
 20
210.7300764932
 10
275.5926275157
 20
210.6436913032
 10
275.9463891961
 20
210.5890562647
  0
LINE
  5
398
330
1F
100
AcDbEntity
  8
0
  6
Continuous
 62
     7
370
    25
100
AcDbLine
 10
275.9463891961
 20
210.5890562647
 30
0.0
 11
275.9463891961
 21
209.6924644323
 31
0.0
  0
LINE
  5
399
330
1F
100
AcDbEntity
  8
0
  6
Continuous
 62
     7
370
    25
100
AcDbLine
 10
271.0673530549
 20
206.8758568212
 30
0.0
 11
275.9463891961
 21
209.6924644323
 31
0.0
  0
LINE
  5
39A
330
1F
100
AcDbEntity
  8
0
  6
Continuous
 62
     7
370
    25
100
AcDbLine
 10
289.0989449498
 20
217.2852732514
 30
0.0
 11
289.0989449498
 21
225.2055404994
 31
0.0
  0
LINE
  5
39B
330
1F
100
AcDbEntity
  8
0
  6
Continuous
 62
     7
370
    25
100
AcDbLine
 10
283.1588782293
 20
213.8561457247
 30
0.0
 11
289.0989449498
 21
217.2852732514
 31
0.0
  0
LINE
  5
39C
330
1F
100
AcDbEntity
  8
0
  6
Continuous
 62
     7
370
    25
100
AcDbLine
 10
283.1588782293
 20
213.8561457247
 30
0.0
 11
283.1588782293
 21
214.7527375571
 31
0.0
  0
LINE
  5
39D
330
1F
100
AcDbEntity
  8
0
  6
Continuous
 62
     7
370
    25
100
AcDbLine
 10
282.4517700151
 20
215.1609424403
 30
0.0
 11
283.1588782293
 21
214.7527375571
 31
0.0
  0
LWPOLYLINE
  5
39E
330
1F
100
AcDbEntity
  8
0
  6
Continuous
 62
     7
370
    25
100
AcDbPolyline
 90
       31
 70
   128
 43
0.0
 10
282.4517700151
 20
215.1609424403
 10
282.8055316954
 20
215.6240220209
 10
283.1454017745
 20
216.1028128516
 10
283.4701880233
 20
216.5956350297
 10
283.7787514233
 20
217.1007602819
 10
284.0700093272
 20
217.6164162229
 10
284.342940201
 20
218.1407945679
 10
284.5965862573
 20
218.6720556948
 10
284.830057671
 20
219.2083347281
 10
285.0425357394
 20
219.7477512718
 10
285.233275517
 20
220.2884139725
 10
285.4016073958
 20
220.828425082
 10
285.5469402662
 20
221.3658907988
 10
285.6687657318
 20
221.8989261353
 10
285.7666549485
 20
222.425660393
 10
285.8402659999
 20
222.9442462876
 10
285.8893391561
 20
223.4528632951
 10
285.9137037224
 20
223.9497301235
 10
285.9132732977
 20
224.4331007579
 10
285.8880494626
 20
224.9012811912
 10
285.8381207253
 20
225.3526288151
 10
285.7636625222
 20
225.7855597211
 10
285.6649361638
 20
226.198556609
 10
285.5422872541
 20
226.5901703085
 10
285.3961467447
 20
226.9590252537
 10
285.2270272467
 20
227.3038295223
 10
285.0355214502
 20
227.6233727058
 10
284.8223015972
 20
227.9165341231
 10
284.5881157945
 20
228.1822855581
 10
284.3337853786
 20
228.4196946063
 10
284.1861602465
 20
228.5374892552
  0
ARC
  5
39F
330
1F
100
AcDbEntity
  8
0
  6
Continuous
 62
     7
370
    25
100
AcDbCircle
 10
275.6021214967
 20
214.5573283502
 30
0.0
 40
3.578509707225438
100
AcDbArc
 50
247.1410171283
 51
264.1805334277
  0
LINE
  5
3A0
330
1F
100
AcDbEntity
  8
0
  6
Continuous
 62
     7
370
    25
100
AcDbLine
 10
275.2392809819
 20
210.9972611478
 30
0.0
 11
275.9463891961
 21
210.5890562647
 31
0.0
  0
LINE
  5
3A1
330
1F
100
AcDbEntity
  8
0
  6
Continuous
 62
     7
370
    25
100
AcDbLine
 10
282.4517700151
 20
214.4274802403
 30
0.0
 11
282.4517700151
 21
215.1609424403
 31
0.0
  0
LINE
  5
3A2
330
1F
100
AcDbEntity
  8
0
  6
Continuous
 62
     7
370
    25
100
AcDbLine
 10
275.8745467318
 20
210.6305300592
 30
0.0
 11
282.4517700151
 21
214.4274802403
 31
0.0
  0
LWPOLYLINE
  5
3A3
330
1F
100
AcDbEntity
  8
0
  6
Continuous
 62
     7
370
    25
100
AcDbPolyline
 90
       22
 70
   128
 43
0.0
 10
231.1154481406
 20
232.1450092188
 10
231.1281048392
 20
232.7051904901
 10
231.1660443785
 20
233.24927118
 10
231.2291645525
 20
233.7758100496
 10
231.3172978274
 20
234.2834096566
 10
231.4302113419
 20
234.7707248723
 10
231.5676047997
 20
235.2364640984
 10
231.7291146842
 20
235.6793892672
 10
231.9143126781
 20
236.0983289215
 10
232.1227067169
 20
236.4921715225
 10
232.3537452037
 20
236.8598703174
 10
232.6068149019
 20
237.2004530729
 10
232.881244623
 20
237.513016296
 10
233.1763073337
 20
237.7967313181
 10
233.4912196296
 20
238.0508433825
 10
233.8251475298
 20
238.2746780323
 10
234.1772043701
 20
238.4676471945
 10
234.5464571246
 20
238.629235796
 10
234.9319264059
 20
238.7590139313
 10
235.3325906797
 20
238.8566368627
 10
235.7473867919
 20
238.9218495834
 10
236.0140330437
 20
238.9461169439
  0
LINE
  5
3A4
330
1F
100
AcDbEntity
  8
0
  6
Continuous
 62
     7
370
    25
100
AcDbLine
 10
237.0555143342
 20
220.7956147482
 30
0.0
 11
237.0555143342
 21
221.6922065806
 31
0.0
  0
LINE
  5
3A5
330
1F
100
AcDbEntity
  8
0
  6
Continuous
 62
     7
370
    25
100
AcDbLine
 10
231.1154481406
 20
224.2247419707
 30
0.0
 11
237.0555143342
 21
220.7956147482
 31
0.0
  0
LINE
  5
3A6
330
1F
100
AcDbEntity
  8
0
  6
Continuous
 62
     7
370
    25
100
AcDbLine
 10
231.1154481406
 20
224.2247419707
 30
0.0
 11
231.1154481406
 21
232.1450092188
 31
0.0
  0
LINE
  5
3A7
330
1F
100
AcDbEntity
  8
0
  6
Continuous
 62
     7
370
    25
100
AcDbLine
 10
244.2680033674
 20
216.6319334557
 30
0.0
 11
249.1470400354
 21
213.8153255405
 31
0.0
  0
LINE
  5
3A8
330
1F
100
AcDbEntity
  8
0
  6
Continuous
 62
     7
370
    25
100
AcDbLine
 10
244.2680033674
 20
217.5285252882
 30
0.0
 11
244.2680033674
 21
216.6319334557
 31
0.0
  0
LWPOLYLINE
  5
3A9
330
1F
100
AcDbEntity
  8
0
  6
Continuous
 62
     7
370
    25
100
AcDbPolyline
 90
       89
 70
   128
 43
0.0
 10
237.0555143342
 20
221.6922065806
 10
236.7017526539
 20
222.1552861612
 10
236.3618825748
 20
222.634076992
 10
236.037096326
 20
223.12689917
 10
235.7285329261
 20
223.6320244222
 10
235.4372750221
 20
224.1476803632
 10
235.1643446752
 20
224.6720584041
 10
234.9106986188
 20
225.203319531
 10
234.6772266783
 20
225.7395988684
 10
234.4647486099
 20
226.2790154121
 10
234.2740088323
 20
226.8196781128
 10
234.1056774803
 20
227.3596889182
 10
233.9603440831
 20
227.8971549391
 10
233.8385186175
 20
228.4301902756
 10
233.7406294008
 20
228.9569245334
 10
233.6670183494
 20
229.4755104279
 10
233.6179451932
 20
229.9841274355
 10
233.5935806269
 20
230.4809942638
 10
233.5940115784
 20
230.9643645941
 10
233.6192348867
 20
231.4325453315
 10
233.669163624
 20
231.8838929554
 10
233.7436218271
 20
232.3168238614
 10
233.8423481855
 20
232.7298207494
 10
233.9649970952
 20
233.1214344488
 10
234.1111376046
 20
233.4902893941
 10
234.2802571026
 20
233.8350936626
 10
234.4717628992
 20
234.1546368461
 10
234.6849827521
 20
234.4477982634
 10
234.9191685549
 20
234.7135496984
 10
235.1734994975
 20
234.9509584425
 10
235.4470825937
 20
235.159191857
 10
235.7389584759
 20
235.3375201117
 10
236.0481029755
 20
235.4853164892
 10
236.3734323918
 20
235.6020628604
 10
236.713805072
 20
235.6873524227
 10
237.0680266799
 20
235.7408793578
 10
237.4348549369
 20
235.7624628633
 10
237.8130030472
 20
235.752023274
 10
238.2011441752
 20
235.7095989448
 10
238.597917373
 20
235.6353379622
 10
239.001930214
 20
235.5295014906
 10
239.411765642
 20
235.3924598185
 10
239.8259859887
 20
235.224692473
 10
240.2431381756
 20
235.0267925168
 10
240.6617588508
 20
234.7994489822
 10
241.0803795261
 20
234.5434633731
 10
241.4975317129
 20
234.2597296663
 10
241.9117520596
 20
233.9492483793
 10
242.3215874877
 20
233.6131041381
 10
242.7256003286
 20
233.2524773125
 10
243.1223735264
 20
232.868633712
 10
243.5105146545
 20
232.4629198336
 10
243.8886627648
 20
232.0367589081
 10
244.2554910218
 20
231.5916445122
 10
244.6097126296
 20
231.129142014
 10
244.9500853098
 20
230.6508665201
 10
245.2754147261
 20
230.1585028
 10
245.5845592258
 20
229.6537757807
 10
245.8764351079
 20
229.1384548055
 10
246.1500182041
 20
228.6143490716
 10
246.4043491468
 20
228.0832960716
 10
246.6385349495
 20
227.5471594641
 10
246.8517548025
 20
227.0078196446
 10
247.0432605991
 20
226.4671685748
 10
247.2123800971
 20
225.9271030901
 10
247.3585206064
 20
225.3895179043
 10
247.4811695161
 20
224.8562967879
 10
247.5798958746
 20
224.3293128727
 10
247.6543540776
 20
223.8104143553
 10
247.7042828149
 20
223.3014202385
 10
247.7295061232
 20
222.8041172892
 10
247.7299370747
 20
222.3202493928
 10
247.7055725085
 20
221.8515132939
 10
247.6564993522
 20
221.3995549465
 10
247.5828883008
 20
220.9659585629
 10
247.4849990841
 20
220.5522447891
 10
247.3631736185
 20
220.1598661412
 10
247.2178402213
 20
219.7901984889
 10
247.0495088693
 20
219.4445389257
 10
246.8587690917
 20
219.1240996846
 10
246.6462910233
 20
218.8300050969
 10
246.4128190828
 20
218.5632867242
 10
246.1591730265
 20
218.3248791004
 10
245.8862426796
 20
218.1156197306
 10
245.5949847756
 20
217.9362430076
 10
245.2864213756
 20
217.7873774738
 10
244.9616351268
 20
217.6695455167
 10
244.6217650478
 20
217.5831603267
 10
244.2680033674
 20
217.5285252882
  0
LINE
  5
3AA
330
1F
100
AcDbEntity
  8
0
  6
Continuous
 62
     7
370
    25
100
AcDbLine
 10
244.9751115816
 20
217.9367301713
 30
0.0
 11
244.2680033674
 21
217.5285252882
 31
0.0
  0
LWPOLYLINE
  5
3AB
330
1F
100
AcDbEntity
  8
0
  6
Continuous
 62
     7
370
    25
100
AcDbPolyline
 90
       31
 70
   128
 43
0.0
 10
237.7626225484
 20
222.1004114638
 10
237.4088608681
 20
222.5634910444
 10
237.068990789
 20
223.0422818751
 10
236.7442045402
 20
223.5351040532
 10
236.4356411402
 20
224.0402293054
 10
236.1443832363
 20
224.5558852464
 10
235.8714528894
 20
225.0802632872
 10
235.617806833
 20
225.6115244142
 10
235.3843348925
 20
226.1478037515
 10
235.1718568241
 20
226.6872202952
 10
234.9811170465
 20
227.227882996
 10
234.8127856945
 20
227.7678938013
 10
234.6674522973
 20
228.3053598223
 10
234.5456268317
 20
228.8383951588
 10
234.447737615
 20
229.3651294165
 10
234.3741265636
 20
229.8837153111
 10
234.3250534074
 20
230.3923323186
 10
234.3006888411
 20
230.889199147
 10
234.3011197926
 20
231.3725694773
 10
234.3263431009
 20
231.8407502147
 10
234.3762718382
 20
232.2920978386
 10
234.4507300413
 20
232.7250287445
 10
234.5494563997
 20
233.1380256325
 10
234.6721053094
 20
233.529639332
 10
234.8182458187
 20
233.8984942772
 10
234.9873653168
 20
234.2432985458
 10
235.1788711133
 20
234.5628417293
 10
235.3920909663
 20
234.8560031466
 10
235.626276769
 20
235.1217545816
 10
235.8806077117
 20
235.3591633256
 10
236.0282328438
 20
235.4769579745
  0
ARC
  5
3AC
330
1F
100
AcDbEntity
  8
0
  6
Continuous
 62
     7
370
    25
100
AcDbCircle
 10
244.6123692697
 20
221.4964132075
 30
0.0
 40
3.578117564153933
100
AcDbArc
 50
275.8185259067
 51
292.8599235373
  0
LINE
  5
3AD
330
1F
100
AcDbEntity
  8
0
  6
Continuous
 62
     7
370
    25
100
AcDbLine
 10
237.7626225484
 20
222.1004114638
 30
0.0
 11
237.0555143342
 21
221.6922065806
 31
0.0
  0
LINE
  5
3AE
330
1F
100
AcDbEntity
  8
0
  6
Continuous
 62
     7
370
    25
100
AcDbLine
 10
237.7626225484
 20
221.3669492638
 30
0.0
 11
237.7626225484
 21
222.1004114638
 31
0.0
  0
LINE
  5
3AF
330
1F
100
AcDbEntity
  8
0
  6
Continuous
 62
     7
370
    25
100
AcDbLine
 10
237.7626225484
 20
221.3669492638
 30
0.0
 11
244.3398455683
 21
217.5699992347
 31
0.0
  0
LWPOLYLINE
  5
3B0
330
1F
100
AcDbEntity
  8
0
  6
Continuous
 62
     7
370
    25
100
AcDbPolyline
 90
       22
 70
   128
 43
0.0
 10
313.1405752362
 20
239.0844782423
 10
313.1279185376
 20
239.6446595136
 10
313.0899779445
 20
240.1887395952
 10
313.0268588242
 20
240.7152790731
 10
312.9387255493
 20
241.2228786801
 10
312.8258120348
 20
241.7101938958
 10
312.6884175233
 20
242.1759325136
 10
312.5269086925
 20
242.6188582907
 10
312.3417112254
 20
243.0377982491
 10
312.133316133
 20
243.4316402419
 10
311.9022776462
 20
243.7993390368
 10
311.6492090016
 20
244.1399224005
 10
311.3747782269
 20
244.4524850153
 10
311.0797165699
 20
244.7362006458
 10
310.7648037471
 20
244.990312406
 10
310.4308763737
 20
245.21414736
 10
310.0788195334
 20
245.4071165221
 10
309.709566779
 20
245.5687051236
 10
309.3240959172
 20
245.6984823465
 10
308.9234321701
 20
245.7961055821
 10
308.5086365848
 20
245.8613186069
 10
308.241990333
 20
245.8855859674
  0
LWPOLYLINE
  5
3B1
330
1F
100
AcDbEntity
  8
0
  6
Continuous
 62
     7
370
    25
100
AcDbPolyline
 90
       89
 70
   128
 43
0.0
 10
307.2005090425
 20
228.6316756041
 10
307.5542707228
 20
229.0947551847
 10
307.8941408019
 20
229.5735460154
 10
308.2189265239
 20
230.0663678893
 10
308.5274899238
 20
230.5714931416
 10
308.8187478278
 20
231.0871490826
 10
309.0916792284
 20
231.6115277317
 10
309.3453252848
 20
232.1427888586
 10
309.5787956447
 20
232.6790672836
 10
309.7912747668
 20
233.2184844356
 10
309.9820145444
 20
233.7591471363
 10
310.15034695
 20
234.2991585499
 10
310.2956798204
 20
234.8366242667
 10
310.417505286
 20
235.3696596033
 10
310.5153934491
 20
235.8963932527
 10
310.5890050273
 20
236.4149794514
 10
310.6380787104
 20
236.9235967631
 10
310.6624416962
 20
237.420462679
 10
310.6620117983
 20
237.9038336176
 10
310.6367890168
 20
238.3720146591
 10
310.5868597527
 20
238.8233619789
 10
310.5124010228
 20
239.2562925807
 10
310.4136741375
 20
239.6692891646
 10
310.2910268084
 20
240.0609037765
 10
310.1448847185
 20
240.4297578093
 10
309.9757662741
 20
240.7745626861
 10
309.7842594239
 20
241.0941052613
 10
309.5710406246
 20
241.3872672869
 10
309.3368537682
 20
241.6530181136
 10
309.0825238792
 20
241.8904274659
 10
308.8089413098
 20
242.0986611846
 10
308.5170649009
 20
242.2769891352
 10
308.2079198744
 20
242.4247852086
 10
307.8825904581
 20
242.5415315798
 10
307.5422177778
 20
242.626821142
 10
307.1879966969
 20
242.6803483813
 10
306.8211684398
 20
242.7019318868
 10
306.443020593
 20
242.6914924496
 10
306.0548786747
 20
242.6490676641
 10
305.6581061354
 20
242.5748070617
 10
305.2540927676
 20
242.468970286
 10
304.8442578664
 20
242.331928918
 10
304.4300375855
 20
242.1641616105
 10
304.0128849377
 20
241.9662613882
 10
303.5942645259
 20
241.7389180056
 10
303.1756441141
 20
241.4829325487
 10
302.7584914663
 20
241.1991985757
 10
302.3442711854
 20
240.8887173267
 10
301.9344352305
 20
240.5525727814
 10
301.5304229164
 20
240.19194626
 10
301.1336493235
 20
239.8081024313
 10
300.7455084588
 20
239.4023887051
 10
300.367360612
 20
238.9762279316
 10
300.0005323549
 20
238.5311135357
 10
299.6463107471
 20
238.0686110374
 10
299.3059380669
 20
237.5903355435
 10
298.9806086506
 20
237.0979718235
 10
298.671464151
 20
236.5932448042
 10
298.3795882688
 20
236.077923829
 10
298.1060046458
 20
235.553817791
 10
297.8516742299
 20
235.0227650951
 10
297.6174884272
 20
234.4866284876
 10
297.4042685743
 20
233.9472886681
 10
297.2127627777
 20
233.4066375983
 10
297.0436432797
 20
232.8665721136
 10
296.8975027703
 20
232.3289869278
 10
296.7748538606
 20
231.7957658114
 10
296.6761275022
 20
231.2687818962
 10
296.6016692991
 20
230.7498833788
 10
296.5517405618
 20
230.2408892619
 10
296.5265167267
 20
229.7435860085
 10
296.526086302
 20
229.2597184163
 10
296.5504508683
 20
228.7909823174
 10
296.5995240245
 20
228.33902397
 10
296.6731350759
 20
227.9054275864
 10
296.7710242926
 20
227.4917138125
 10
296.8928497582
 20
227.0993351647
 10
297.0381826286
 20
226.7296672083
 10
297.2065145074
 20
226.3840079492
 10
297.397254285
 20
226.0635687081
 10
297.6097323534
 20
225.7694741203
 10
297.8432037671
 20
225.5027554436
 10
298.0968498234
 20
225.2643478197
 10
298.3697806972
 20
225.0550887541
 10
298.6610386011
 20
224.8757120311
 10
298.9696020011
 20
224.7268464973
 10
299.2943882499
 20
224.6090145402
 10
299.634258329
 20
224.5226293502
 10
299.9880200093
 20
224.4679943117
  0
LINE
  5
3B2
330
1F
100
AcDbEntity
  8
0
  6
Continuous
 62
     7
370
    25
100
AcDbLine
 10
299.9880200093
 20
224.4679943117
 30
0.0
 11
299.9880200093
 21
223.5714024792
 31
0.0
  0
LINE
  5
3B3
330
1F
100
AcDbEntity
  8
0
  6
Continuous
 62
     7
370
    25
100
AcDbLine
 10
295.1089830779
 20
220.7547944119
 30
0.0
 11
299.9880200093
 21
223.5714024792
 31
0.0
  0
LINE
  5
3B4
330
1F
100
AcDbEntity
  8
0
  6
Continuous
 62
     7
370
    25
100
AcDbLine
 10
313.1405752362
 20
231.1642109942
 30
0.0
 11
313.1405752362
 21
239.0844782423
 31
0.0
  0
LINE
  5
3B5
330
1F
100
AcDbEntity
  8
0
  6
Continuous
 62
     7
370
    25
100
AcDbLine
 10
307.2005090425
 20
227.7350837717
 30
0.0
 11
313.1405752362
 21
231.1642109942
 31
0.0
  0
LINE
  5
3B6
330
1F
100
AcDbEntity
  8
0
  6
Continuous
 62
     7
370
    25
100
AcDbLine
 10
307.2005090425
 20
227.7350837717
 30
0.0
 11
307.2005090425
 21
228.6316756041
 31
0.0
  0
LINE
  5
3B7
330
1F
100
AcDbEntity
  8
0
  6
Continuous
 62
     7
370
    25
100
AcDbLine
 10
289.3287343094
 20
214.5598847794
 30
0.0
 11
289.0989449498
 21
217.2852732514
 31
0.0
  0
LINE
  5
3B8
330
1F
100
AcDbEntity
  8
0
  6
Continuous
 62
     7
370
    25
100
AcDbLine
 10
289.3287343094
 20
214.5598847794
 30
0.0
 11
293.6947688886
 21
213.9779906467
 31
0.0
  0
SPLINE
  5
3B9
330
1F
100
AcDbEntity
  8
0
  6
Continuous
 62
     7
370
    25
100
AcDbSpline
210
0.0
220
0.0
230
1.0
 70
     8
 71
     3
 72
    27
 73
    23
 74
     0
 42
0.000000001
 43
0.00000001
 40
0.0
 40
0.0
 40
0.0
 40
0.0
 40
0.017666527740728
 40
0.072128818253765
 40
0.1250563092179919
 40
0.179518919748431
 40
0.2324462518914741
 40
0.2869088719702159
 40
0.339836300272707
 40
0.3942988188677146
 40
0.4472263632116413
 40
0.5016888706837638
 40
0.5546165492279629
 40
0.6090790645454748
 40
0.6620063153810781
 40
0.7164691220714243
 40
0.7693964075887366
 40
0.8238589666539664
 40
0.8767864794151369
 40
0.9312489329115495
 40
0.9841766951262876
 40
1.0
 40
1.0
 40
1.0
 40
1.0
 10
224.7233633186509
 20
244.5235690594592
 30
0.0
 10
224.7057313701815
 20
244.5114409784892
 30
0.0
 10
224.6337437320176
 20
244.4619245052529
 30
0.0
 10
224.4804434006687
 20
244.4265484619987
 30
0.0
 10
224.2681368817089
 20
244.4201593735308
 30
0.0
 10
224.0405816421173
 20
244.4689179597235
 30
0.0
 10
223.8025538617837
 20
244.5680264453453
 30
0.0
 10
223.5643036731502
 20
244.7139691347519
 30
0.0
 10
223.3284984058311
 20
244.904960228484
 30
0.0
 10
223.1061172331247
 20
245.1322951718064
 30
0.0
 10
222.899485353185
 20
245.3936245337643
 30
0.0
 10
222.71806494056
 20
245.676794377711
 30
0.0
 10
222.5636690328138
 20
245.9788513681887
 30
0.0
 10
222.4435022807513
 20
246.2858379688476
 30
0.0
 10
222.3588860312617
 20
246.5946502957793
 30
0.0
 10
222.3137404854003
 20
246.8909545756205
 30
0.0
 10
222.3083909156666
 20
247.1717382539465
 30
0.0
 10
222.3432673714399
 20
247.423656707004
 30
0.0
 10
222.4173716858649
 20
247.6454304292985
 30
0.0
 10
222.5299741379334
 20
247.8220559493445
 30
0.0
 10
222.6364911483516
 20
247.9342833011088
 30
0.0
 10
222.7121716516199
 20
247.9691804742513
 30
0.0
 10
222.7295897911037
 20
247.9772121839141
 30
0.0
  0
LINE
  5
3BA
330
1F
100
AcDbEntity
  8
0
  6
Continuous
 62
     7
370
    25
100
AcDbLine
 10
283.1588782293
 20
213.8561457247
 30
0.0
 11
283.150316097
 21
214.0242181709
 31
0.0
  0
LINE
  5
3BB
330
1F
100
AcDbEntity
  8
0
  6
Continuous
 62
     7
370
    25
100
AcDbLine
 10
283.150316097
 20
214.0242181709
 30
0.0
 11
282.4517700151
 21
214.4274802403
 31
0.0
  0
LINE
  5
3BC
330
1F
100
AcDbEntity
  8
0
  6
Continuous
 62
     7
370
    25
100
AcDbLine
 10
306.4934008283
 20
229.0398804873
 30
0.0
 11
307.2005090425
 21
228.6316756041
 31
0.0
  0
LWPOLYLINE
  5
3BD
330
1F
100
AcDbEntity
  8
0
  6
Continuous
 62
     7
370
    25
100
AcDbPolyline
 90
       31
 70
   128
 43
0.0
 10
306.4934008283
 20
229.0398804873
 10
306.8471625087
 20
229.5029600679
 10
307.1870325877
 20
229.9817508986
 10
307.5118183097
 20
230.4745727725
 10
307.8203817097
 20
230.9796980247
 10
308.1116396136
 20
231.4953539657
 10
308.3845710142
 20
232.0197326149
 10
308.6382170706
 20
232.5509937418
 10
308.8716874306
 20
233.0872721668
 10
309.0841665526
 20
233.6266893187
 10
309.2749063303
 20
234.1673520195
 10
309.4432387359
 20
234.7073634331
 10
309.5885716062
 20
235.2448291499
 10
309.7103970719
 20
235.7778644864
 10
309.8082852349
 20
236.3045981359
 10
309.8818968131
 20
236.8231843345
 10
309.9309704962
 20
237.3318016462
 10
309.955333482
 20
237.8286675622
 10
309.9549035841
 20
238.3120385008
 10
309.9296808026
 20
238.7802195423
 10
309.8797515386
 20
239.2315668621
 10
309.8052928086
 20
239.6644974639
 10
309.7065659233
 20
240.0774940477
 10
309.5839185942
 20
240.4691086596
 10
309.4377765043
 20
240.8379626924
 10
309.26865806
 20
241.1827675693
 10
309.0771512097
 20
241.5023101445
 10
308.8639324104
 20
241.79547217
 10
308.629745554
 20
242.0612229968
 10
308.375415665
 20
242.2986323491
 10
308.2277910598
 20
242.4164273021
  0
ARC
  5
3BE
330
1F
100
AcDbEntity
  8
0
  6
Continuous
 62
     7
370
    25
100
AcDbCircle
 10
299.643654107
 20
228.435882231
 30
0.0
 40
3.578117564134114
100
AcDbArc
 50
247.1400764626
 51
264.1814740934
  0
LINE
  5
3BF
330
1F
100
AcDbEntity
  8
0
  6
Continuous
 62
     7
370
    25
100
AcDbLine
 10
299.2809117951
 20
224.8761991948
 30
0.0
 11
299.9880200093
 21
224.4679943117
 31
0.0
  0
LINE
  5
3C0
330
1F
100
AcDbEntity
  8
0
  6
Continuous
 62
     7
370
    25
100
AcDbLine
 10
306.4934008283
 20
228.3064182873
 30
0.0
 11
306.4934008283
 21
229.0398804873
 31
0.0
  0
LINE
  5
3C1
330
1F
100
AcDbEntity
  8
0
  6
Continuous
 62
     7
370
    25
100
AcDbLine
 10
299.916177545
 20
224.5094681062
 30
0.0
 11
306.4934008283
 21
228.3064182873
 31
0.0
  0
LINE
  5
3C2
330
1F
100
AcDbEntity
  8
0
  6
Continuous
 62
     7
370
    25
100
AcDbLine
 10
230.8856582541
 20
221.4993538029
 30
0.0
 11
226.51962407
 21
220.917459442
 31
0.0
  0
LINE
  5
3C3
330
1F
100
AcDbEntity
  8
0
  6
Continuous
 62
     7
370
    25
100
AcDbLine
 10
230.8856582541
 20
221.4993538029
 30
0.0
 11
231.1154481406
 21
224.2247419707
 31
0.0
  0
LINE
  5
3C4
330
1F
100
AcDbEntity
  8
0
  6
Continuous
 62
     7
370
    25
100
AcDbLine
 10
237.0555143342
 20
220.7956147482
 30
0.0
 11
237.0640764665
 21
220.9636871944
 31
0.0
  0
LINE
  5
3C5
330
1F
100
AcDbEntity
  8
0
  6
Continuous
 62
     7
370
    25
100
AcDbLine
 10
237.0640764665
 20
220.9636871944
 30
0.0
 11
237.7626225484
 21
221.3669492638
 31
0.0
  0
LINE
  5
3C6
330
1F
100
AcDbEntity
  8
0
  6
Continuous
 62
     7
370
    25
100
AcDbLine
 10
313.3703640689
 20
228.4388222181
 30
0.0
 11
313.1405752362
 21
231.1642109942
 31
0.0
  0
LINE
  5
3C7
330
1F
100
AcDbEntity
  8
0
  6
Continuous
 62
     7
370
    25
100
AcDbLine
 10
313.3703640689
 20
228.4388222181
 30
0.0
 11
317.7364003604
 21
227.8569290738
 31
0.0
  0
LINE
  5
3C8
330
1F
100
AcDbEntity
  8
0
  6
Continuous
 62
     7
370
    25
100
AcDbLine
 10
307.2005090425
 20
227.7350837717
 30
0.0
 11
307.1919469102
 21
227.9031562179
 31
0.0
  0
LINE
  5
3C9
330
1F
100
AcDbEntity
  8
0
  6
Continuous
 62
     7
370
    25
100
AcDbLine
 10
307.1919469102
 20
227.9031562179
 30
0.0
 11
306.4934008283
 21
228.3064182873
 31
0.0
  0
LWPOLYLINE
  5
3CA
330
1F
100
AcDbEntity
  8
0
  6
Continuous
 62
     7
370
    25
100
AcDbPolyline
 90
       24
 70
   128
 43
0.0
 10
251.6219140435
 20
230.1058993668
 10
251.6350248744
 20
230.2084797406
 10
251.6733848286
 20
230.2883173428
 10
251.7341489937
 20
230.3394863794
 10
251.8128108181
 20
230.3581932388
 10
251.9035350706
 20
230.3430539393
 10
251.999595114
 20
230.2951872512
 10
252.0938660238
 20
230.2181441716
 10
252.1793556376
 20
230.1176402921
 10
252.2497229622
 20
230.001127554
 10
252.2997512714
 20
229.8772485847
 10
252.3257284815
 20
229.7551888194
 10
252.3257284815
 20
229.644003061
 10
252.2997512714
 20
229.551935944
 10
252.2497229622
 20
229.4858184311
 10
252.1793556376
 20
229.4505500766
 10
252.0938660238
 20
229.4487504042
 10
251.999595114
 20
229.4805502003
 10
251.9035350706
 20
229.5435920776
 10
251.8128108181
 20
229.6332007703
 10
251.7341489937
 20
229.742728639
 10
251.6733848286
 20
229.8640544874
 10
251.6350248744
 20
229.9881815499
 10
251.6219140435
 20
230.1058993668
  0
LWPOLYLINE
  5
3CB
330
1F
100
AcDbEntity
  8
0
  6
Continuous
 62
     7
370
    25
100
AcDbPolyline
 90
       14
 70
   128
 43
0.0
 10
251.7961996915
 20
230.3756441132
 10
251.8048608688
 20
230.380307476
 10
251.8835226932
 20
230.3990143354
 10
251.9742469457
 20
230.3838750359
 10
252.0703069891
 20
230.3360083477
 10
252.1645778988
 20
230.2589652682
 10
252.2500675127
 20
230.1584613887
 10
252.3204348373
 20
230.0419486506
 10
252.3704631465
 20
229.9180696813
 10
252.3964403566
 20
229.796009916
 10
252.3964403566
 20
229.6848241576
 10
252.3704631465
 20
229.5927570406
 10
252.3204348373
 20
229.5266395277
 10
252.2961593062
 20
229.5095949722
  0
LWPOLYLINE
  5
3CC
330
1F
100
AcDbEntity
  8
0
  6
Continuous
 62
     7
370
    25
100
AcDbPolyline
 90
       24
 70
   128
 43
0.0
 10
223.3376434282
 20
246.4340612383
 10
223.3507542591
 20
246.5366416121
 10
223.3891142133
 20
246.6164792143
 10
223.4498773248
 20
246.6676488592
 10
223.5285391492
 20
246.6863557186
 10
223.6192644553
 20
246.6712158108
 10
223.7153244988
 20
246.6233491226
 10
223.8095943548
 20
246.5463066514
 10
223.8950839687
 20
246.4458027719
 10
223.9654523469
 20
246.3292894255
 10
224.0154796025
 20
246.2054110645
 10
224.0414568125
 20
246.0833512992
 10
224.0414568125
 20
245.9721655408
 10
224.0154796025
 20
245.8800984238
 10
223.9654523469
 20
245.8139803026
 10
223.8950839687
 20
245.7787125563
 10
223.8095943548
 20
245.776912884
 10
223.7153244988
 20
245.8087120718
 10
223.6192644553
 20
245.8717539491
 10
223.5285391492
 20
245.9613632501
 10
223.4498773248
 20
246.0708911187
 10
223.3891142133
 20
246.1922163589
 10
223.3507542591
 20
246.3163434214
 10
223.3376434282
 20
246.4340612383
  0
LWPOLYLINE
  5
3CD
330
1F
100
AcDbEntity
  8
0
  6
Continuous
 62
     7
370
    25
100
AcDbPolyline
 90
       14
 70
   128
 43
0.0
 10
223.5119290762
 20
246.7038059847
 10
223.5205891999
 20
246.7084699558
 10
223.5992510243
 20
246.7271768152
 10
223.6899763304
 20
246.7120369074
 10
223.7860363739
 20
246.6641702192
 10
223.8803062299
 20
246.587127748
 10
223.9657958438
 20
246.4866238685
 10
224.036164222
 20
246.3701105221
 10
224.0861914775
 20
246.2462321611
 10
224.1121686876
 20
246.1241723958
 10
224.1121686876
 20
246.0129866374
 10
224.0861914775
 20
245.9209195204
 10
224.036164222
 20
245.8548013991
 10
224.011888691
 20
245.8377568437
  0
LINE
  5
3CE
330
1F
100
AcDbEntity
  8
0
  6
Continuous
 62
     7
370
    25
100
AcDbLine
 10
283.0881674079
 20
247.0488910812
 30
0.0
 11
283.0881674079
 21
236.4338584825
 31
0.0
  0
LINE
  5
3CF
330
1F
100
AcDbEntity
  8
0
  6
Continuous
 62
     7
370
    25
100
AcDbLine
 10
266.1176039851
 20
226.6369607514
 30
0.0
 11
283.0881674079
 21
236.4338584825
 31
0.0
  0
LINE
  5
3D0
330
1F
100
AcDbEntity
  8
0
  6
Continuous
 62
     7
370
    25
100
AcDbLine
 10
266.1176039851
 20
270.7301639118
 30
0.0
 11
266.1176039851
 21
226.6369607514
 31
0.0
  0
LINE
  5
3D1
330
1F
100
AcDbEntity
  8
0
  6
Continuous
 62
     7
370
    25
100
AcDbLine
 10
266.1176039851
 20
270.7301639118
 30
0.0
 11
322.6861473229
 21
303.3864888713
 31
0.0
  0
LINE
  5
3D2
330
1F
100
AcDbEntity
  8
0
  6
Continuous
 62
     7
370
    25
100
AcDbLine
 10
322.6861473229
 20
303.3864888713
 30
0.0
 11
322.6861473229
 21
259.2932857109
 31
0.0
  0
LINE
  5
3D3
330
1F
100
AcDbEntity
  8
0
  6
Continuous
 62
     7
370
    25
100
AcDbLine
 10
305.7155839001
 20
249.4963879797
 30
0.0
 11
322.6861473229
 21
259.2932857109
 31
0.0
  0
LINE
  5
3D4
330
1F
100
AcDbEntity
  8
0
  6
Continuous
 62
     7
370
    25
100
AcDbLine
 10
305.7155839001
 20
249.4963879797
 30
0.0
 11
305.7155839001
 21
260.1114205784
 31
0.0
  0
LWPOLYLINE
  5
3D5
330
1F
100
AcDbEntity
  8
0
  6
Continuous
 62
     7
370
    25
100
AcDbPolyline
 90
       68
 70
   128
 43
0.0
 10
305.7155839001
 20
260.1114205784
 10
305.7031495261
 20
260.7166084562
 10
305.6658716923
 20
261.3061160953
 10
305.6038336386
 20
261.8786336665
 10
305.517170235
 20
262.4329103478
 10
305.4060743034
 20
262.9677336391
 10
305.270788188
 20
263.481914762
 10
305.1116090242
 20
263.9743306371
 10
304.9288887382
 20
264.4438946819
 10
304.723027725
 20
264.8895823633
 10
304.4944780096
 20
265.3104086874
 10
304.2437432468
 20
265.7054525341
 10
303.971373453
 20
266.0738390155
 10
303.6779671134
 20
266.4147601595
 10
303.3641711822
 20
266.7274700435
 10
303.0306731798
 20
267.0112753649
 10
302.6782080419
 20
267.2655588632
 10
302.3075491632
 20
267.4897595483
 10
301.9195120851
 20
267.6833845638
 10
301.5149497546
 20
267.8460064494
 10
301.0947514702
 20
267.977272267
 10
300.6598402477
 20
268.0768874787
 10
300.2111728208
 20
268.1446354149
 10
299.7497354255
 20
268.1803651072
 10
299.2765422206
 20
268.1840049769
 10
298.7926337063
 20
268.1555375879
 10
298.2990733002
 20
268.0950366053
 10
297.7969457569
 20
268.0026220804
 10
297.2873553238
 20
267.8785080559
 10
296.7714217901
 20
267.7229613494
 10
296.2502795644
 20
267.5363253553
 10
295.7250741191
 20
267.3190131257
 10
295.1969599485
 20
267.0714964576
 10
294.6670980996
 20
266.7943239349
 10
294.1366532084
 20
266.4881046173
 10
293.6067913595
 20
266.153511671
 10
293.0786771889
 20
265.7912806967
 10
292.5534717436
 20
265.4022036264
 10
292.0323295179
 20
264.9871416142
 10
291.5163959841
 20
264.5470041422
 10
291.0068055511
 20
264.0827575762
 10
290.5046780078
 20
263.5954279798
 10
290.0111176017
 20
263.0860762473
 10
289.5272090874
 20
262.5558347581
 10
289.0540158824
 20
262.005857643
 10
288.5925784872
 20
261.4373636744
 10
288.1439110603
 20
260.8515953534
 10
287.7089998378
 20
260.2498423326
 10
287.2888015533
 20
259.6334259025
 10
286.8842392228
 20
259.0037062926
 10
286.4962021448
 20
258.3620632031
 10
286.1255432661
 20
257.7099088859
 10
285.7730781282
 20
257.0486778015
 10
285.4395801258
 20
256.3798238825
 10
285.1257841946
 20
255.7048129281
 10
284.832377855
 20
255.0251320351
 10
284.5600080612
 20
254.3422740835
 10
284.3092732984
 20
253.6577380417
 10
284.080723583
 20
252.973033833
 10
283.8748625698
 20
252.2896640849
 10
283.6921422838
 20
251.6091356884
 10
283.53296312
 20
250.9329354628
 10
283.3976770046
 20
250.2625563158
 10
283.2865810729
 20
249.5994643921
 10
283.1999176694
 20
248.9451282749
 10
283.1378796157
 20
248.3009830916
 10
283.1006017819
 20
247.6684353817
 10
283.0881674079
 20
247.0488910812
  0
LWPOLYLINE
  5
3D6
330
1F
100
AcDbEntity
  8
0
  6
Continuous
 62
     7
370
    25
100
AcDbPolyline
 90
       48
 70
   128
 43
0.0
 10
281.6739530869
 20
275.6279480604
 10
281.6613353741
 20
275.8383340409
 10
281.6237056141
 20
276.0303970377
 10
281.561736049
 20
276.2007045626
 10
281.4765319801
 20
276.3462250025
 10
281.3696138548
 20
276.4643610819
 10
281.2428909254
 20
276.5530027934
 10
281.0986233166
 20
276.6105639035
 10
280.9393851472
 20
276.6360239336
 10
280.7680192222
 20
276.6289263394
 10
280.5875832953
 20
276.589396158
 10
280.4012963323
 20
276.5181381888
 10
280.2124837193
 20
276.4164296973
 10
280.024515097
 20
276.2860845275
 10
279.8407432471
 20
276.1294226894
 10
279.6644482481
 20
275.9492429869
 10
279.4987763623
 20
275.7487585367
 10
279.3466841911
 20
275.5315499291
 10
279.2108859915
 20
275.3014958786
 10
279.0938031
 20
275.0627002241
 10
278.9975281077
 20
274.8194177111
 10
278.9237763911
 20
274.5759968098
 10
278.8738650394
 20
274.3367799438
 10
278.8486844048
 20
274.1060335305
 10
278.8486844048
 20
273.8878768033
 10
278.8738650394
 20
273.6862081989
 10
278.9237763911
 20
273.504612886
 10
278.9975281077
 20
273.346343904
 10
279.0938031
 20
273.2142229982
 10
279.2108859915
 20
273.1106035058
 10
279.3466841911
 20
273.0373387192
 10
279.4987763623
 20
272.9957368617
 10
279.6644482481
 20
272.9865330993
 10
279.8407432471
 20
273.00989927
 10
280.024515097
 20
273.0654158934
 10
280.2124837193
 20
273.1520898085
 10
280.4012963323
 20
273.2683797197
 10
280.5875832953
 20
273.4122089669
 10
280.7680192222
 20
273.5810056723
 10
280.9393851472
 20
273.7717629636
 10
281.0986233166
 20
273.9810754707
 10
281.2428909254
 20
274.2052044164
 10
281.3696138548
 20
274.4401573079
 10
281.4765319801
 20
274.6817335602
 10
281.561736049
 20
274.9256285241
 10
281.6237056141
 20
275.1674894528
 10
281.6613353741
 20
275.4029988458
 10
281.6739530869
 20
275.6279480604
  0
LWPOLYLINE
  5
3D7
330
1F
100
AcDbEntity
  8
0
  6
Continuous
 62
     7
370
    25
100
AcDbPolyline
 90
       48
 70
   128
 43
0.0
 10
309.9582247558
 20
291.9561105402
 10
309.9456059894
 20
292.1664959124
 10
309.9079762293
 20
292.3585589092
 10
309.8460066643
 20
292.5288664341
 10
309.7608025953
 20
292.674386874
 10
309.6538855237
 20
292.7925235617
 10
309.5271615406
 20
292.8811646649
 10
309.3828939318
 20
292.938725775
 10
309.2236568161
 20
292.9641864134
 10
309.0522908911
 20
292.9570888191
 10
308.8718549643
 20
292.9175586378
 10
308.6855680012
 20
292.8463006685
 10
308.4967553882
 20
292.744592177
 10
308.3087857122
 20
292.614246399
 10
308.1250138623
 20
292.4575845609
 10
307.948719917
 20
292.2774054666
 10
307.7830480312
 20
292.0769210165
 10
307.63095586
 20
291.8597124089
 10
307.4951566068
 20
291.6296577501
 10
307.378074769
 20
291.3908627038
 10
307.2817987229
 20
291.1475795826
 10
307.2080470064
 20
290.9041586813
 10
307.1581356547
 20
290.6649418152
 10
307.1329560737
 20
290.4341960103
 10
307.1329560737
 20
290.216039283
 10
307.1581356547
 20
290.0143700704
 10
307.2080470064
 20
289.8327747575
 10
307.2817987229
 20
289.6745057755
 10
307.378074769
 20
289.542385478
 10
307.4951566068
 20
289.4387653773
 10
307.63095586
 20
289.3655011989
 10
307.7830480312
 20
289.3238993414
 10
307.948719917
 20
289.3146955791
 10
308.1250138623
 20
289.3380611415
 10
308.3087857122
 20
289.3935777649
 10
308.4967553882
 20
289.4802522883
 10
308.6855680012
 20
289.5965421995
 10
308.8718549643
 20
289.7403714466
 10
309.0522908911
 20
289.9091681521
 10
309.2236568161
 20
290.0999254434
 10
309.3828939318
 20
290.3092373422
 10
309.5271615406
 20
290.5333662879
 10
309.6538855237
 20
290.7683197876
 10
309.7608025953
 20
291.0098954317
 10
309.8460066643
 20
291.2537903956
 10
309.9079762293
 20
291.4956513243
 10
309.9456059894
 20
291.7311607173
 10
309.9582247558
 20
291.9561105402
  0
LINE
  5
3D8
330
1F
100
AcDbEntity
  8
0
  6
Continuous
 62
     7
370
    25
100
AcDbLine
 10
238.5404390815
 20
253.171951783
 30
0.0
 11
238.5404390815
 21
242.5569191843
 31
0.0
  0
LINE
  5
3D9
330
1F
100
AcDbEntity
  8
0
  6
Continuous
 62
     7
370
    25
100
AcDbLine
 10
237.1262255507
 20
243.3733272779
 30
0.0
 11
238.5404390815
 21
242.5569191843
 31
0.0
  0
LINE
  5
3DA
330
1F
100
AcDbEntity
  8
0
  6
Continuous
 62
     7
370
    25
100
AcDbLine
 10
237.1262255507
 20
243.3733272779
 30
0.0
 11
237.1262255507
 21
253.9883598766
 31
0.0
  0
LWPOLYLINE
  5
3DB
330
1F
100
AcDbEntity
  8
0
  6
Continuous
 62
     7
370
    25
100
AcDbPolyline
 90
       68
 70
   128
 43
0.0
 10
237.1262255507
 20
253.9883598766
 10
237.1137905182
 20
254.6079045572
 10
237.0765128819
 20
255.2404521531
 10
237.0144745649
 20
255.8845974885
 10
236.9278118857
 20
256.5389331875
 10
236.8167153613
 20
257.2020254534
 10
236.6814291801
 20
257.8724046383
 10
236.5222508066
 20
258.5486044077
 10
236.3395301254
 20
259.2291330324
 10
236.1336688488
 20
259.9125029325
 10
235.9051193968
 20
260.5972069891
 10
235.6543841072
 20
261.2817433351
 10
235.3820144451
 20
261.9646012107
 10
235.0886088957
 20
262.6442816475
 10
234.7748124377
 20
263.319292906
 10
234.4413146987
 20
263.9881466729
 10
234.0888492974
 20
264.6493779094
 10
233.7181906821
 20
265.3015320745
 10
233.3301533406
 20
265.943175316
 10
232.9255910101
 20
266.572894926
 10
232.5053927257
 20
267.1893113561
 10
232.0704815032
 20
267.7910643769
 10
231.6218146031
 20
268.3768323937
 10
231.1603772079
 20
268.9453263624
 10
230.687184003
 20
269.4953034774
 10
230.2032749618
 20
270.0255452708
 10
229.7097148191
 20
270.5348968513
 10
229.2075872758
 20
271.0222264476
 10
228.6979965794
 20
271.4864731657
 10
228.182063309
 20
271.9266104856
 10
227.6609206882
 20
272.3416727259
 10
227.1357151112
 20
272.7307498722
 10
226.6076014016
 20
273.0929805804
 10
226.0777396515
 20
273.4275734697
 10
225.5472941675
 20
273.7337931295
 10
225.0174324174
 20
274.0109655951
 10
224.4893187079
 20
274.2584819972
 10
223.9641131308
 20
274.4757943027
 10
223.44297051
 20
274.6624305249
 10
222.9270372397
 20
274.8179770794
 10
222.41744707
 20
274.9420909518
 10
221.9153189999
 20
275.0345057808
 10
221.4217593841
 20
275.0950063072
 10
220.9378503429
 20
275.1234740004
 10
220.464657138
 20
275.1198341306
 10
220.0032197427
 20
275.0841044383
 10
219.5545517889
 20
275.0163568063
 10
219.1196405665
 20
274.9167415946
 10
218.6994428089
 20
274.7854754729
 10
218.294881532
 20
274.622852979
 10
217.9068439272
 20
274.4292282677
 10
217.5361855753
 20
274.2050272784
 10
217.1837199106
 20
273.9507440843
 10
216.850222435
 20
273.6669384587
 10
216.5364243964
 20
273.3542297913
 10
216.2430191105
 20
273.013308039
 10
215.9706493167
 20
272.6449215576
 10
215.7199156076
 20
272.2498771026
 10
215.4913658922
 20
271.8290507785
 10
215.2855038253
 20
271.3833637054
 10
215.1027824856
 20
270.9138002688
 10
214.9436043755
 20
270.4213837855
 10
214.8083193138
 20
269.9072020543
 10
214.6972223285
 20
269.3723793713
 10
214.6105599786
 20
268.8181020817
 10
214.5485219249
 20
268.2455845105
 10
214.5112430374
 20
267.6560774797
 10
214.4988076097
 20
267.0508902101
  0
LINE
  5
3DC
330
1F
100
AcDbEntity
  8
0
  6
Continuous
 62
     7
370
    25
100
AcDbLine
 10
214.4988076097
 20
267.0508902101
 30
0.0
 11
214.4988076097
 21
256.4358576115
 31
0.0
  0
LINE
  5
3DD
330
1F
100
AcDbEntity
  8
0
  6
Continuous
 62
     7
370
    25
100
AcDbLine
 10
209.5490606472
 20
259.2932857109
 30
0.0
 11
214.4988076097
 21
256.4358576115
 31
0.0
  0
LINE
  5
3DE
330
1F
100
AcDbEntity
  8
0
  6
Continuous
 62
     7
370
    25
100
AcDbLine
 10
209.5490606472
 20
303.3864888713
 30
0.0
 11
209.5490606472
 21
259.2932857109
 31
0.0
  0
LINE
  5
3DF
330
1F
100
AcDbEntity
  8
0
  6
Continuous
 62
     7
370
    25
100
AcDbLine
 10
209.5490606472
 20
303.3864888713
 30
0.0
 11
266.1176039851
 21
270.7301639118
 31
0.0
  0
LINE
  5
3E0
330
1F
100
AcDbEntity
  8
0
  6
Continuous
 62
     7
370
    25
100
AcDbLine
 10
261.1678570225
 20
229.4943888508
 30
0.0
 11
266.1176039851
 21
226.6369607514
 31
0.0
  0
LINE
  5
3E1
330
1F
100
AcDbEntity
  8
0
  6
Continuous
 62
     7
370
    25
100
AcDbLine
 10
261.1678570225
 20
229.4943888508
 30
0.0
 11
261.1678570225
 21
240.1094214494
 31
0.0
  0
LWPOLYLINE
  5
3E2
330
1F
100
AcDbEntity
  8
0
  6
Continuous
 62
     7
370
    25
100
AcDbPolyline
 90
       68
 70
   128
 43
0.0
 10
261.1678570225
 20
240.1094214494
 10
261.1554215949
 20
240.7289663582
 10
261.1181427074
 20
241.3615146763
 10
261.0561046537
 20
242.0056598597
 10
260.9694423038
 20
242.6599953686
 10
260.8583453184
 20
243.3230879006
 10
260.7230602568
 20
243.9934664393
 10
260.5638821466
 20
244.6696660566
 10
260.3811608069
 20
245.3501950615
 10
260.1752987401
 20
246.0335654178
 10
259.9467490247
 20
246.7182696264
 10
259.6960153155
 20
247.4028050601
 10
259.4236455217
 20
248.0856630116
 10
259.1302402358
 20
248.7653432964
 10
258.8164421972
 20
249.4403554673
 10
258.4829447217
 20
250.1092090822
 10
258.130479057
 20
250.7704404707
 10
257.7598207051
 20
251.4225944838
 10
257.3717831002
 20
252.0642378773
 10
256.9672218234
 20
252.693956879
 10
256.5470240657
 20
253.310373005
 10
256.1121128433
 20
253.9121260258
 10
255.6634448895
 20
254.4978946509
 10
255.2020074943
 20
255.0663886195
 10
254.7288142893
 20
255.6163657346
 10
254.2449052482
 20
256.1466075279
 10
253.7513456323
 20
256.6559588043
 10
253.2492175622
 20
257.1432887048
 10
252.7396273926
 20
257.6075351187
 10
252.2236941222
 20
258.0476724386
 10
251.7025515014
 20
258.462734679
 10
251.1773459244
 20
258.8518118252
 10
250.6492322148
 20
259.2140425335
 10
250.1193704647
 20
259.5486354227
 10
249.5889249808
 20
259.8548550825
 10
249.0590632306
 20
260.1320275482
 10
248.5309495211
 20
260.3795439502
 10
248.0057439441
 20
260.5968562558
 10
247.4846013232
 20
260.7834924779
 10
246.9686680529
 20
260.9390390325
 10
246.4590773564
 20
261.063153209
 10
245.9569498131
 20
261.1555677339
 10
245.4633896705
 20
261.2160685644
 10
244.9794806293
 20
261.2445362575
 10
244.5062874244
 20
261.2408963878
 10
244.0448500291
 20
261.2051666955
 10
243.596183129
 20
261.1374184552
 10
243.1612719066
 20
261.0378032435
 10
242.7410736221
 20
260.9065374259
 10
242.3365112916
 20
260.7439155403
 10
241.9484739501
 20
260.5502906769
 10
241.5778153348
 20
260.3260898397
 10
241.2253499335
 20
260.0718064935
 10
240.8918521946
 20
259.78800102
 10
240.5780557365
 20
259.4752914402
 10
240.2846501872
 20
259.1343698399
 10
240.0122805251
 20
258.7659832825
 10
239.7615452354
 20
258.3709397399
 10
239.5329957834
 20
257.9501132638
 10
239.3271345068
 20
257.5044257345
 10
239.1444138257
 20
257.0348619177
 10
238.9852354521
 20
256.5424455864
 10
238.8499492709
 20
256.0282645016
 10
238.7388527466
 20
255.4934415524
 10
238.6521900674
 20
254.9391644529
 10
238.5901517503
 20
254.3666470338
 10
238.552874114
 20
253.7771392807
 10
238.5404390815
 20
253.171951783
  0
LINE
  5
3E3
330
1F
100
AcDbEntity
  8
0
  6
Continuous
 62
     7
370
    25
100
AcDbLine
 10
215.2059137166
 20
303.3864888713
 30
0.0
 11
266.1176039851
 21
273.9957956778
 31
0.0
  0
LINE
  5
3E4
330
1F
100
AcDbEntity
  8
0
  6
Continuous
 62
     7
370
    25
100
AcDbLine
 10
266.1176039851
 20
273.9957956778
 30
0.0
 11
317.0292942535
 21
303.3864888713
 31
0.0
  0
LINE
  5
3E5
330
1F
100
AcDbEntity
  8
0
  6
Continuous
 62
     7
370
    25
100
AcDbLine
 10
266.1176039851
 20
336.0428138309
 30
0.0
 11
209.5490606472
 21
303.3864888713
 31
0.0
  0
LINE
  5
3E6
330
1F
100
AcDbEntity
  8
0
  6
Continuous
 62
     7
370
    25
100
AcDbLine
 10
322.6861473229
 20
303.3864888713
 30
0.0
 11
266.1176039851
 21
336.0428138309
 31
0.0
  0
LINE
  5
3E7
330
1F
100
AcDbEntity
  8
0
  6
Continuous
 62
     7
370
    25
100
AcDbLine
 10
215.2059137166
 20
303.3864888713
 30
0.0
 11
215.4887570022
 21
306.2443838544
 31
0.0
  0
LINE
  5
3E8
330
1F
100
AcDbEntity
  8
0
  6
Continuous
 62
     7
370
    25
100
AcDbLine
 10
215.4887570022
 20
306.2443838544
 30
0.0
 11
266.1176039851
 21
277.0169726142
 31
0.0
  0
LINE
  5
3E9
330
1F
100
AcDbEntity
  8
0
  6
Continuous
 62
     7
370
    25
100
AcDbLine
 10
266.1176039851
 20
277.0169726142
 30
0.0
 11
266.1176039851
 21
273.9957956778
 31
0.0
  0
LINE
  5
3EA
330
1F
100
AcDbEntity
  8
0
  6
Continuous
 62
     7
370
    25
100
AcDbLine
 10
316.7464509679
 20
306.2443838544
 30
0.0
 11
317.0292942535
 21
303.3864888713
 31
0.0
  0
LINE
  5
3EB
330
1F
100
AcDbEntity
  8
0
  6
Continuous
 62
     7
370
    25
100
AcDbLine
 10
316.7464509679
 20
306.2443838544
 30
0.0
 11
266.1176039851
 21
277.0169726142
 31
0.0
  0
LINE
  5
3EC
330
1F
100
AcDbEntity
  8
0
  6
Continuous
 62
     7
370
    25
100
AcDbLine
 10
266.1176039851
 20
335.4717950946
 30
0.0
 11
265.215827907
 21
334.9512108457
 31
0.0
  0
LINE
  5
3ED
330
1F
100
AcDbEntity
  8
0
  6
Continuous
 62
     7
370
    25
100
AcDbLine
 10
216.8148654438
 20
307.0099299626
 30
0.0
 11
215.4887570022
 21
306.2443838544
 31
0.0
  0
LINE
  5
3EE
330
1F
100
AcDbEntity
  8
0
  6
Continuous
 62
     7
370
    25
100
AcDbLine
 10
266.1176039851
 20
335.4717950946
 30
0.0
 11
267.0193800631
 21
334.9512108457
 31
0.0
  0
LINE
  5
3EF
330
1F
100
AcDbEntity
  8
0
  6
Continuous
 62
     7
370
    25
100
AcDbLine
 10
315.4203425263
 20
307.0099299626
 30
0.0
 11
316.7464509679
 21
306.2443838544
 31
0.0
  0
SPLINE
  5
3F0
330
1F
100
AcDbEntity
  8
0
  6
Continuous
 62
     7
370
    25
100
AcDbSpline
210
0.0
220
0.0
230
1.0
 70
     8
 71
     3
 72
    27
 73
    23
 74
     0
 42
0.000000001
 43
0.00000001
 40
0.0
 40
0.0
 40
0.0
 40
0.0
 40
0.0176660274018022
 40
0.0721291022103088
 40
0.1250564054081579
 40
0.1795187530431695
 40
0.2324464745376706
 40
0.2869088957726825
 40
0.3398364861939118
 40
0.3942989780220341
 40
0.4472263029487477
 40
0.5016888344298437
 40
0.5546169004777476
 40
0.6090790296310652
 40
0.6620063037988475
 40
0.7164696007700585
 40
0.769396914876016
 40
0.8238590628207316
 40
0.8767865989141966
 40
0.9312490764195591
 40
0.9841768619667015
 40
1.0
 40
1.0
 40
1.0
 40
1.0
 10
279.227574036201
 20
273.1051528150765
 30
0.0
 10
279.2452057038143
 20
273.0930254686471
 30
0.0
 10
279.3171945175127
 20
273.043510397134
 30
0.0
 10
279.4704921380094
 20
273.0081292156966
 30
0.0
 10
279.6827989738063
 20
273.0017378934634
 30
0.0
 10
279.9103561830512
 20
273.0505077935777
 30
0.0
 10
280.1483824024536
 20
273.1496038206947
 30
0.0
 10
280.3866329440212
 20
273.295555235739
 30
0.0
 10
280.6224392145558
 20
273.4865391894778
 30
0.0
 10
280.8448181510704
 20
273.7138795594376
 30
0.0
 10
281.0514515573079
 20
273.975204940039
 30
0.0
 10
281.2328721003448
 20
274.2583757871951
 30
0.0
 10
281.3872659402042
 20
274.5604331917735
 30
0.0
 10
281.5074346228583
 20
274.8674193722534
 30
0.0
 10
281.5920506341125
 20
275.1762320389381
 30
0.0
 10
281.6371951240915
 20
275.4725365344563
 30
0.0
 10
281.6425473662819
 20
275.7533218558618
 30
0.0
 10
281.6076681871651
 20
276.0052376498292
 30
0.0
 10
281.5335647189679
 20
276.2270111612888
 30
0.0
 10
281.4209623084495
 20
276.4036369741336
 30
0.0
 10
281.3144448307124
 20
276.515862993088
 30
0.0
 10
281.2387653260928
 20
276.5507615466115
 30
0.0
 10
281.2213475637483
 20
276.5587935060501
 30
0.0
  0
LWPOLYLINE
  5
3F1
330
1F
100
AcDbEntity
  8
0
  6
Continuous
 62
     7
370
    25
100
AcDbPolyline
 90
       22
 70
   128
 43
0.0
 10
248.0348484503
 20
260.5855758497
 10
247.7682016717
 20
260.5613087933
 10
247.3534060864
 20
260.496098202
 10
246.9527418125
 20
260.3984728371
 10
246.5672725312
 20
260.2686947018
 10
246.1980197767
 20
260.1071085338
 10
245.8459624096
 20
259.9141372423
 10
245.5120350362
 20
259.6903022883
 10
245.1971227403
 20
259.4361877905
 10
244.9020600296
 20
259.1524752018
 10
244.6276300451
 20
258.8399145642
 10
244.3745606103
 20
258.4993316567
 10
244.1435221235
 20
258.1316292116
 10
243.9351278213
 20
257.7377867627
 10
243.7499303543
 20
257.318848021
 10
243.5884204698
 20
256.8759216354
 10
243.4510267486
 20
256.4101862116
 10
243.3381132341
 20
255.9228673457
 10
243.2499796957
 20
255.415271541
 10
243.1868597851
 20
254.8887288691
 10
243.1489205092
 20
254.3446516774
 10
243.1362630203
 20
253.7844708622
  0
LWPOLYLINE
  5
3F2
330
1F
100
AcDbEntity
  8
0
  6
Continuous
 62
     7
370
    25
100
AcDbPolyline
 90
       89
 70
   128
 43
0.0
 10
256.288818774
 20
239.1679854107
 10
256.6425804544
 20
239.2226198409
 10
256.9824505334
 20
239.3090050309
 10
257.3072362554
 20
239.4268366838
 10
257.6157996554
 20
239.5757034343
 10
257.9070575593
 20
239.7550795489
 10
258.1799889599
 20
239.9643377021
 10
258.4336350163
 20
240.2027441092
 10
258.6671053763
 20
240.4694646109
 10
258.8795844983
 20
240.7635585904
 10
259.070324276
 20
241.0839978315
 10
259.2386566816
 20
241.4296567865
 10
259.3839895519
 20
241.7993247429
 10
259.5058150176
 20
242.1917033907
 10
259.6037031806
 20
242.6054202063
 10
259.6773147588
 20
243.0390162858
 10
259.7263884419
 20
243.4909731123
 10
259.7507514277
 20
243.9597113404
 10
259.7503215298
 20
244.4435749782
 10
259.7250987483
 20
244.9408800569
 10
259.6751694843
 20
245.4498732612
 10
259.6007107543
 20
245.9687732994
 10
259.501983869
 20
246.4957550853
 10
259.3793365399
 20
247.0289777227
 10
259.23319445
 20
247.5665650377
 10
259.0640760057
 20
248.1066262639
 10
258.8725691554
 20
248.6472791587
 10
258.6593503561
 20
249.1866195866
 10
258.4251634997
 20
249.7227580192
 10
258.1708336107
 20
250.2538067607
 10
257.8972510414
 20
250.7779134072
 10
257.6053746324
 20
251.2932346865
 10
257.2962296059
 20
251.79796201
 10
256.9709001896
 20
252.29032573
 10
256.6305275094
 20
252.7686012239
 10
256.2763064284
 20
253.2311058515
 10
255.9094781714
 20
253.676217814
 10
255.5313303245
 20
254.1023810209
 10
255.1431884062
 20
254.5080953554
 10
254.746415867
 20
254.8919361423
 10
254.3424024992
 20
255.2525657055
 10
253.9325675979
 20
255.5887072091
 10
253.5183473171
 20
255.8991908915
 10
253.1011946692
 20
256.1829199976
 10
252.6825742574
 20
256.438907888
 10
252.2639538456
 20
256.6662488371
 10
251.8468011978
 20
256.8641539264
 10
251.4325809169
 20
257.0319188003
 10
251.022744962
 20
257.16896321
 10
250.6187326479
 20
257.274796944
 10
250.221959055
 20
257.3490605882
 10
249.8338181904
 20
257.3914847654
 10
249.4556703435
 20
257.4019217691
 10
249.0888420865
 20
257.3803406971
 10
248.7346204787
 20
257.3268113285
 10
248.3942477984
 20
257.2415217662
 10
248.0689183821
 20
257.124775395
 10
247.7597738825
 20
256.9769790175
 10
247.4678980003
 20
256.7986507628
 10
247.1943143773
 20
256.5904164357
 10
246.9399839615
 20
256.3530110377
 10
246.7057981587
 20
256.087258386
 10
246.4925783058
 20
255.7940957519
 10
246.3010725092
 20
255.4745513517
 10
246.1319530112
 20
255.1297507334
 10
245.9858125018
 20
254.7608945714
 10
245.8631635921
 20
254.3692784384
 10
245.7644372337
 20
253.9562839839
 10
245.6899790306
 20
253.5233518612
 10
245.6400502933
 20
253.0720054541
 10
245.6148264582
 20
252.6038225873
 10
245.6143960335
 20
252.1204556031
 10
245.6387605998
 20
251.623587558
 10
245.687833756
 20
251.1149717672
 10
245.7614448074
 20
250.5963858727
 10
245.8593340241
 20
250.0696491815
 10
245.9811594897
 20
249.5366138449
 10
246.1264923601
 20
248.9991481281
 10
246.2948242389
 20
248.4591370187
 10
246.4855640165
 20
247.9184743179
 10
246.6980420849
 20
247.3790577742
 10
246.9315134986
 20
246.8427775242
 10
247.1851595549
 20
246.311517614
 10
247.4580904287
 20
245.7871398774
 10
247.7493483327
 20
245.2714845448
 10
248.0579117326
 20
244.7663580758
 10
248.3826979814
 20
244.2735365061
 10
248.7225680605
 20
243.7947456754
 10
249.0763297408
 20
243.3316667032
  0
LINE
  5
3F3
330
1F
100
AcDbEntity
  8
0
  6
Continuous
 62
     7
370
    25
100
AcDbLine
 10
249.0763297408
 20
243.3316667032
 30
0.0
 11
249.0763297408
 21
242.4350748707
 31
0.0
  0
LINE
  5
3F4
330
1F
100
AcDbEntity
  8
0
  6
Continuous
 62
     7
370
    25
100
AcDbLine
 10
243.1362630203
 20
245.8642023974
 30
0.0
 11
249.0763297408
 21
242.4350748707
 31
0.0
  0
LINE
  5
3F5
330
1F
100
AcDbEntity
  8
0
  6
Continuous
 62
     7
370
    25
100
AcDbLine
 10
243.1362630203
 20
253.7844708622
 30
0.0
 11
243.1362630203
 21
245.8642023974
 31
0.0
  0
LINE
  5
3F6
330
1F
100
AcDbEntity
  8
0
  6
Continuous
 62
     7
370
    25
100
AcDbLine
 10
256.288818774
 20
238.2713935783
 30
0.0
 11
261.1678549152
 21
235.4547859672
 31
0.0
  0
LINE
  5
3F7
330
1F
100
AcDbEntity
  8
0
  6
Continuous
 62
     7
370
    25
100
AcDbLine
 10
256.288818774
 20
238.2713935783
 30
0.0
 11
256.288818774
 21
239.1679854107
 31
0.0
  0
LINE
  5
3F8
330
1F
100
AcDbEntity
  8
0
  6
Continuous
 62
     7
370
    25
100
AcDbLine
 10
256.9959269882
 20
239.5761902939
 30
0.0
 11
256.288818774
 21
239.1679854107
 31
0.0
  0
ARC
  5
3F9
330
1F
100
AcDbEntity
  8
0
  6
Continuous
 62
     7
370
    25
100
AcDbCircle
 10
256.6329774937
 20
243.1367067423
 30
0.0
 40
3.578967688418372
100
AcDbArc
 50
275.8204730135
 51
292.85778533
  0
LWPOLYLINE
  5
3FA
330
1F
100
AcDbEntity
  8
0
  6
Continuous
 62
     7
370
    25
100
AcDbPolyline
 90
       31
 70
   128
 43
0.0
 10
248.0490477236
 20
257.116419618
 10
247.9014225915
 20
256.9986213188
 10
247.6470921756
 20
256.7612159209
 10
247.4129063729
 20
256.4954632691
 10
247.19968652
 20
256.2023006351
 10
247.0081807234
 20
255.8827562349
 10
246.8390612254
 20
255.5379556165
 10
246.692920716
 20
255.1690994546
 10
246.5702718063
 20
254.7774833216
 10
246.4715454479
 20
254.3644888671
 10
246.3970872448
 20
253.9315567444
 10
246.3471585075
 20
253.4802103372
 10
246.3219346724
 20
253.0120274705
 10
246.3215042477
 20
252.5286604863
 10
246.345868814
 20
252.0317924412
 10
246.3949419702
 20
251.5231766504
 10
246.4685530216
 20
251.0045907558
 10
246.5664422383
 20
250.4778540646
 10
246.6882677039
 20
249.9448187281
 10
246.8336005743
 20
249.4073530113
 10
247.0019324531
 20
248.8673419018
 10
247.1926722307
 20
248.3266792011
 10
247.4051502991
 20
247.7872626574
 10
247.6386217128
 20
247.2509824074
 10
247.8922677691
 20
246.7197224972
 10
248.1651986429
 20
246.1953447606
 10
248.4564565468
 20
245.6796894279
 10
248.7650199468
 20
245.174562959
 10
249.0898061956
 20
244.6817413893
 10
249.4296762747
 20
244.2029505586
 10
249.783437955
 20
243.7398715863
  0
LINE
  5
3FB
330
1F
100
AcDbEntity
  8
0
  6
Continuous
 62
     7
370
    25
100
AcDbLine
 10
249.783437955
 20
243.7398715863
 30
0.0
 11
249.0763297408
 21
243.3316667032
 31
0.0
  0
LINE
  5
3FC
330
1F
100
AcDbEntity
  8
0
  6
Continuous
 62
     7
370
    25
100
AcDbLine
 10
249.783437955
 20
243.7398715863
 30
0.0
 11
249.783437955
 21
243.0064081696
 31
0.0
  0
LINE
  5
3FD
330
1F
100
AcDbEntity
  8
0
  6
Continuous
 62
     7
370
    25
100
AcDbLine
 10
249.783437955
 20
243.0064081696
 30
0.0
 11
256.3606612383
 21
239.2094579885
 31
0.0
  0
LWPOLYLINE
  5
3FE
330
1F
100
AcDbEntity
  8
0
  6
Continuous
 62
     7
370
    25
100
AcDbPolyline
 90
       22
 70
   128
 43
0.0
 10
301.1197598296
 20
260.7239395816
 10
301.107103131
 20
261.2841208529
 10
301.0691635916
 20
261.8281978926
 10
301.0060434176
 20
262.3547404124
 10
300.9179101427
 20
262.8623363692
 10
300.8049966282
 20
263.3496552351
 10
300.6676031704
 20
263.815390811
 10
300.5060932859
 20
264.2583171965
 10
300.320895292
 20
264.6772556341
 10
300.1125012532
 20
265.0710982351
 10
299.8814627664
 20
265.4388006802
 10
299.6283930682
 20
265.7793834356
 10
299.3539633471
 20
266.0919442253
 10
299.0589006364
 20
266.375656814
 10
298.7439883405
 20
266.6297713118
 10
298.4100604403
 20
266.8536059616
 10
298.0580036
 20
267.0465775573
 10
297.6887508455
 20
267.2081637253
 10
297.3032815642
 20
267.3379418606
 10
296.9026172904
 20
267.4355672255
 10
296.4878211782
 20
267.5007775127
 10
296.2211749264
 20
267.5250448732
  0
LWPOLYLINE
  5
3FF
330
1F
100
AcDbEntity
  8
0
  6
Continuous
 62
     7
370
    25
100
AcDbPolyline
 90
       89
 70
   128
 43
0.0
 10
295.1796936359
 20
250.2711357267
 10
295.5334553162
 20
250.7342146989
 10
295.8733253953
 20
251.2130055296
 10
296.1981116441
 20
251.7058270993
 10
296.5066750441
 20
252.2109535682
 10
296.797932948
 20
252.7266089009
 10
297.0708632949
 20
253.2509863334
 10
297.3245093513
 20
253.7822462436
 10
297.5579812918
 20
254.3185267977
 10
297.7704593602
 20
254.8579433414
 10
297.9611991378
 20
255.3986060421
 10
298.1295304898
 20
255.9386168475
 10
298.274863887
 20
256.4760828684
 10
298.3966893526
 20
257.0091182049
 10
298.4945785693
 20
257.5358548961
 10
298.5681896207
 20
258.0544407907
 10
298.6172627769
 20
258.5630565815
 10
298.6416273432
 20
259.0599246266
 10
298.6411963917
 20
259.5432913067
 10
298.6159730834
 20
260.0114744776
 10
298.5660443461
 20
260.4628208847
 10
298.491586143
 20
260.8957530074
 10
298.3928597846
 20
261.3087474619
 10
298.2702108749
 20
261.7003635949
 10
298.1240703655
 20
262.0692197569
 10
297.9549508675
 20
262.4140203752
 10
297.7634450709
 20
262.7335647754
 10
297.550225218
 20
263.0267274094
 10
297.3160394153
 20
263.2924800612
 10
297.0617084726
 20
263.529885155
 10
296.7881253764
 20
263.7381197863
 10
296.4962494942
 20
263.916448041
 10
296.1871049946
 20
264.0642444185
 10
295.8617755783
 20
264.1809907897
 10
295.5214028981
 20
264.266280352
 10
295.1671812903
 20
264.3198097206
 10
294.8003530332
 20
264.3413907926
 10
294.4222049229
 20
264.3309536368
 10
294.0340637949
 20
264.2885293076
 10
293.6372905971
 20
264.2142658915
 10
293.2332777561
 20
264.1084318534
 10
292.8234423281
 20
263.9713877478
 10
292.4092219814
 20
263.8036228358
 10
291.9920697945
 20
263.6057180127
 10
291.5734491193
 20
263.3783769115
 10
291.1548284441
 20
263.122388869
 10
290.7376762572
 20
262.838660029
 10
290.3234559105
 20
262.5281763086
 10
289.9136204824
 20
262.1920345009
 10
289.5096076415
 20
261.8314052418
 10
289.1128344437
 20
261.4475640748
 10
288.7246933156
 20
261.0418501964
 10
288.3465452054
 20
260.6156868374
 10
287.9797169483
 20
260.170574875
 10
287.6254953405
 20
259.7080699433
 10
287.2851226603
 20
259.2297944494
 10
286.959793244
 20
258.7374307293
 10
286.6506487443
 20
258.23270371
 10
286.3587728622
 20
257.7173827348
 10
286.085189766
 20
257.1932757842
 10
285.8308588233
 20
256.6622264344
 10
285.5966730206
 20
256.1260886101
 10
285.3834531676
 20
255.5867475739
 10
285.1919473711
 20
255.0460952874
 10
285.0228278731
 20
254.5060334529
 10
284.8766873637
 20
253.9684470503
 10
284.754038454
 20
253.4352235005
 10
284.6553120956
 20
252.9082420188
 10
284.5808538925
 20
252.3893422846
 10
284.5309251552
 20
251.8803493845
 10
284.5057018469
 20
251.3830440017
 10
284.5052708954
 20
250.8991797556
 10
284.5296354617
 20
250.43044244
 10
284.5787086179
 20
249.9784853093
 10
284.6523196693
 20
249.5448889257
 10
284.750208886
 20
249.1311727184
 10
284.8720343516
 20
248.7387940705
 10
285.0173677488
 20
248.3691264182
 10
285.1856991008
 20
248.023466855
 10
285.3764388784
 20
247.7030276139
 10
285.5889169468
 20
247.4089330262
 10
285.8223888873
 20
247.1422134368
 10
286.0760349437
 20
246.9038070297
 10
286.3489652906
 20
246.6945482683
 10
286.6402231945
 20
246.5151721536
 10
286.9487865945
 20
246.3663054031
 10
287.2735728433
 20
246.2484740544
 10
287.6134429224
 20
246.1620888644
 10
287.9672046027
 20
246.1074544342
  0
LINE
  5
400
330
1F
100
AcDbEntity
  8
0
  6
Continuous
 62
     7
370
    25
100
AcDbLine
 10
287.9672046027
 20
246.1074544342
 30
0.0
 11
287.9672046027
 21
245.2108626018
 31
0.0
  0
LINE
  5
401
330
1F
100
AcDbEntity
  8
0
  6
Continuous
 62
     7
370
    25
100
AcDbLine
 10
283.0881679347
 20
242.3942546866
 30
0.0
 11
287.9672046027
 21
245.2108626018
 31
0.0
  0
LINE
  5
402
330
1F
100
AcDbEntity
  8
0
  6
Continuous
 62
     7
370
    25
100
AcDbLine
 10
301.1197598296
 20
252.8036711168
 30
0.0
 11
301.1197598296
 21
260.7239395816
 31
0.0
  0
LINE
  5
403
330
1F
100
AcDbEntity
  8
0
  6
Continuous
 62
     7
370
    25
100
AcDbLine
 10
295.1796936359
 20
249.3745438942
 30
0.0
 11
301.1197598296
 21
252.8036711168
 31
0.0
  0
LINE
  5
404
330
1F
100
AcDbEntity
  8
0
  6
Continuous
 62
     7
370
    25
100
AcDbLine
 10
295.1796936359
 20
249.3745438942
 30
0.0
 11
295.1796936359
 21
250.2711357267
 31
0.0
  0
SPLINE
  5
405
330
1F
100
AcDbEntity
  8
0
  6
Continuous
 62
     7
370
    25
100
AcDbSpline
210
0.0
220
0.0
230
1.0
 70
     8
 71
     3
 72
    27
 73
    23
 74
     0
 42
0.000000001
 43
0.00000001
 40
0.0
 40
0.0
 40
0.0
 40
0.0
 40
0.0176661851562203
 40
0.07212905326895
 40
0.1250565511941064
 40
0.1795188819830133
 40
0.2324463519242944
 40
0.2869089936485154
 40
0.3398363349468689
 40
0.3942990314882558
 40
0.4472263400436727
 40
0.5016888546786074
 40
0.5546169043549851
 40
0.6090790166622657
 40
0.662006274458767
 40
0.7164695545835797
 40
0.7693968470617943
 40
0.8238589434882109
 40
0.8767864632103137
 40
0.9312489238695314
 40
0.9841766930452346
 40
1.0
 40
1.0
 40
1.0
 40
1.0
 10
307.5118446514604
 20
289.4333146865678
 30
0.0
 10
307.5294766976277
 20
289.4211875922342
 30
0.0
 10
307.6014663652326
 20
289.371674025754
 30
0.0
 10
307.7547628318623
 20
289.3362901406708
 30
0.0
 10
307.9670705279764
 20
289.3299007409268
 30
0.0
 10
308.1946274758121
 20
289.3786701110749
 30
0.0
 10
308.4326537117313
 20
289.4777660636129
 30
0.0
 10
308.6709039521332
 20
289.6237171101157
 30
0.0
 10
308.9067104113051
 20
289.8147018407113
 30
0.0
 10
309.1290895814869
 20
290.0420415639086
 30
0.0
 10
309.3357232134892
 20
290.3033674515916
 30
0.0
 10
309.5171437749994
 20
290.5865382600142
 30
0.0
 10
309.6715375989304
 20
290.8885956683498
 30
0.0
 10
309.7917063275925
 20
291.1955818723533
 30
0.0
 10
309.8763221729076
 20
291.5043944422928
 30
0.0
 10
309.9214672871682
 20
291.8006992962245
 30
0.0
 10
309.9268172223865
 20
292.0814831908371
 30
0.0
 10
309.8919403004356
 20
292.3334004865547
 30
0.0
 10
309.8178363070383
 20
292.5551736387739
 30
0.0
 10
309.7052338259926
 20
292.7317991386707
 30
0.0
 10
309.5987168221338
 20
292.8440264949962
 30
0.0
 10
309.5230363185615
 20
292.8789236679272
 30
0.0
 10
309.5056181790076
 20
292.8869553775413
 30
0.0
  0
LINE
  5
406
330
1F
100
AcDbEntity
  8
0
  6
Continuous
 62
     7
370
    25
100
AcDbLine
 10
294.4725854217
 20
250.6793406098
 30
0.0
 11
295.1796936359
 21
250.2711357267
 31
0.0
  0
LWPOLYLINE
  5
407
330
1F
100
AcDbEntity
  8
0
  6
Continuous
 62
     7
370
    25
100
AcDbPolyline
 90
       31
 70
   128
 43
0.0
 10
294.4725854217
 20
250.6793406098
 10
294.8263471021
 20
251.1424195821
 10
295.1662171811
 20
251.6212104128
 10
295.4910034299
 20
252.1140319825
 10
295.7995668299
 20
252.6191584514
 10
296.0908247339
 20
253.1348137841
 10
296.3637550808
 20
253.6591912165
 10
296.6174011371
 20
254.1904511267
 10
296.8508730776
 20
254.7267316808
 10
297.063351146
 20
255.2661482245
 10
297.2540909236
 20
255.8068109253
 10
297.4224222756
 20
256.3468217306
 10
297.5677556728
 20
256.8842877516
 10
297.6895811384
 20
257.4173230881
 10
297.7874703551
 20
257.9440597793
 10
297.8610814065
 20
258.4626456738
 10
297.9101545628
 20
258.9712614647
 10
297.934519129
 20
259.4681295098
 10
297.9340881775
 20
259.9514961899
 10
297.9088648692
 20
260.4196793607
 10
297.8589361319
 20
260.8710257679
 10
297.7844779289
 20
261.3039578906
 10
297.6857515704
 20
261.7169523451
 10
297.5631026607
 20
262.108568478
 10
297.4169621514
 20
262.47742464
 10
297.2478426534
 20
262.8222252583
 10
297.0563368568
 20
263.1417696586
 10
296.8431170038
 20
263.4349322926
 10
296.6089312011
 20
263.7006849444
 10
296.3546002584
 20
263.9380900382
 10
296.2069751263
 20
264.0558883373
  0
ARC
  5
408
330
1F
100
AcDbEntity
  8
0
  6
Continuous
 62
     7
370
    25
100
AcDbCircle
 10
287.622947609
 20
250.0757913187
 30
0.0
 40
3.578575257659765
100
AcDbArc
 50
247.1412735582
 51
264.1804680982
  0
LINE
  5
409
330
1F
100
AcDbEntity
  8
0
  6
Continuous
 62
     7
370
    25
100
AcDbLine
 10
287.2600963885
 20
246.5156593174
 30
0.0
 11
287.9672046027
 21
246.1074544342
 31
0.0
  0
LINE
  5
40A
330
1F
100
AcDbEntity
  8
0
  6
Continuous
 62
     7
370
    25
100
AcDbLine
 10
294.4725854217
 20
249.9458771931
 30
0.0
 11
294.4725854217
 21
250.6793406098
 31
0.0
  0
LINE
  5
40B
330
1F
100
AcDbEntity
  8
0
  6
Continuous
 62
     7
370
    25
100
AcDbLine
 10
287.8953624018
 20
246.148927164
 30
0.0
 11
294.4725854217
 21
249.9458771931
 31
0.0
  0
LWPOLYLINE
  5
40C
330
1F
100
AcDbEntity
  8
0
  6
Continuous
 62
     7
370
    25
100
AcDbPolyline
 90
       22
 70
   128
 43
0.0
 10
223.9932176371
 20
274.4645138967
 10
223.7265713853
 20
274.4402465362
 10
223.3117758
 20
274.3750359448
 10
222.911112053
 20
274.2774102758
 10
222.5256411912
 20
274.1476330529
 10
222.1563884367
 20
273.9860468849
 10
221.8043315964
 20
273.7930752893
 10
221.470404223
 20
273.5692403353
 10
221.1554914003
 20
273.3151261416
 10
220.8604297432
 20
273.0314129446
 10
220.5859989685
 20
272.7188527633
 10
220.332930324
 20
272.3782693996
 10
220.1018918371
 20
272.0105669544
 10
219.8934967447
 20
271.6167249617
 10
219.7082992776
 20
271.19778622
 10
219.5467904468
 20
270.7548592262
 10
219.4093959353
 20
270.2891242586
 10
219.2964824208
 20
269.8018053926
 10
219.2083491459
 20
269.2942094359
 10
219.1452300256
 20
268.7676663078
 10
219.1072894325
 20
268.2235898764
 10
219.0946327339
 20
267.6634086051
  0
LWPOLYLINE
  5
40D
330
1F
100
AcDbEntity
  8
0
  6
Continuous
 62
     7
370
    25
100
AcDbPolyline
 90
       89
 70
   128
 43
0.0
 10
232.2471879608
 20
253.0469234577
 10
232.6009496411
 20
253.1015578879
 10
232.9408197202
 20
253.1879430779
 10
233.265605969
 20
253.3057744266
 10
233.574169369
 20
253.4546411771
 10
233.8654272729
 20
253.6340172918
 10
234.1383581467
 20
253.843275749
 10
234.392004203
 20
254.0816821561
 10
234.6254756167
 20
254.3484020496
 10
234.8379536851
 20
254.6424966374
 10
235.0286934627
 20
254.9629358785
 10
235.1970253415
 20
255.3085951376
 10
235.3423582119
 20
255.678263094
 10
235.4641836775
 20
256.0706417418
 10
235.5620728942
 20
256.4843579492
 10
235.6356839456
 20
256.9179543328
 10
235.6847571018
 20
257.3699114634
 10
235.7091216681
 20
257.8386487791
 10
235.7086912434
 20
258.3225127211
 10
235.6834674083
 20
258.819818408
 10
235.633538671
 20
259.3288113081
 10
235.5590804679
 20
259.8477110423
 10
235.4603541095
 20
260.374692524
 10
235.3377051998
 20
260.9079160738
 10
235.1915646904
 20
261.4455024764
 10
235.0224451924
 20
261.9855643108
 10
234.8309393959
 20
262.5262165974
 10
234.6177195429
 20
263.0655576336
 10
234.3835337402
 20
263.6016954579
 10
234.1292033243
 20
264.1327445036
 10
233.8556197013
 20
264.6568517583
 10
233.5637438192
 20
265.1721727335
 10
233.2545993195
 20
265.6768997528
 10
232.9292699032
 20
266.1692634729
 10
232.588897223
 20
266.6475389667
 10
232.2346756152
 20
267.1100438985
 10
231.8678473581
 20
267.5551558609
 10
231.4896995113
 20
267.9813190678
 10
231.1015586466
 20
268.3870327941
 10
230.7047850537
 20
268.7708741893
 10
230.3007727396
 20
269.1315031442
 10
229.8909367847
 20
269.467645256
 10
229.4767165038
 20
269.7781289385
 10
229.059563856
 20
270.0618580445
 10
228.6409434442
 20
270.3178459349
 10
228.2223230324
 20
270.5451868841
 10
227.8051703846
 20
270.7430919733
 10
227.3909501037
 20
270.9108568473
 10
226.9811152025
 20
271.0479006487
 10
226.5771018347
 20
271.153734991
 10
226.1803292955
 20
271.2279980269
 10
225.7921873771
 20
271.2704228123
 10
225.4140395303
 20
271.2808598161
 10
225.0472112732
 20
271.2592787441
 10
224.6929901923
 20
271.2057490713
 10
224.3526175121
 20
271.1204595091
 10
224.0272880957
 20
271.0037131379
 10
223.7181430693
 20
270.8559170645
 10
223.4262666603
 20
270.6775891139
 10
223.1526840909
 20
270.4693541785
 10
222.8983542019
 20
270.2319484764
 10
222.6641673455
 20
269.9661964329
 10
222.4509485462
 20
269.6730331906
 10
222.259441696
 20
269.3534893987
 10
222.0903232516
 20
269.0086881721
 10
221.9441811618
 20
268.6398329225
 10
221.8215338326
 20
268.2482158771
 10
221.7228069473
 20
267.8352217268
 10
221.6483482174
 20
267.4022899082
 10
221.5984189533
 20
266.9509438052
 10
221.5731961718
 20
266.4827603302
 10
221.5727662739
 20
265.9993930418
 10
221.5971292597
 20
265.5025259091
 10
221.6462029428
 20
264.9939098142
 10
221.7198145211
 20
264.4753236155
 10
221.8177026841
 20
263.9485875326
 10
221.9395281497
 20
263.4155521961
 10
222.0848610201
 20
262.8780864792
 10
222.2531934257
 20
262.3380750656
 10
222.4439332033
 20
261.7974123649
 10
222.6564123254
 20
261.2579952129
 10
222.8898826854
 20
260.7217155712
 10
223.1435287417
 20
260.190455661
 10
223.4164601423
 20
259.6660776203
 10
223.7077180463
 20
259.1504222876
 10
224.0162814463
 20
258.6452958187
 10
224.3410671682
 20
258.1524745531
 10
224.6809372473
 20
257.6736837224
 10
225.0346989276
 20
257.2106047501
  0
LINE
  5
40E
330
1F
100
AcDbEntity
  8
0
  6
Continuous
 62
     7
370
    25
100
AcDbLine
 10
225.0346989276
 20
257.2106047501
 30
0.0
 11
225.0346989276
 21
256.3140129177
 31
0.0
  0
LINE
  5
40F
330
1F
100
AcDbEntity
  8
0
  6
Continuous
 62
     7
370
    25
100
AcDbLine
 10
219.0946327339
 20
259.7431401403
 30
0.0
 11
225.0346989276
 21
256.3140129177
 31
0.0
  0
LINE
  5
410
330
1F
100
AcDbEntity
  8
0
  6
Continuous
 62
     7
370
    25
100
AcDbLine
 10
219.0946327339
 20
267.6634086051
 30
0.0
 11
219.0946327339
 21
259.7431401403
 31
0.0
  0
LINE
  5
411
330
1F
100
AcDbEntity
  8
0
  6
Continuous
 62
     7
370
    25
100
AcDbLine
 10
232.2471879608
 20
252.1503316253
 30
0.0
 11
237.1262248922
 21
249.333723558
 31
0.0
  0
LINE
  5
412
330
1F
100
AcDbEntity
  8
0
  6
Continuous
 62
     7
370
    25
100
AcDbLine
 10
232.2471879608
 20
252.1503316253
 30
0.0
 11
232.2471879608
 21
253.0469234577
 31
0.0
  0
LINE
  5
413
330
1F
100
AcDbEntity
  8
0
  6
Continuous
 62
     7
370
    25
100
AcDbLine
 10
243.1362630203
 20
245.8642023974
 30
0.0
 11
242.9064736607
 21
243.1388133171
 31
0.0
  0
LINE
  5
414
330
1F
100
AcDbEntity
  8
0
  6
Continuous
 62
     7
370
    25
100
AcDbLine
 10
238.5404390815
 20
242.5569191843
 30
0.0
 11
242.9064736607
 21
243.1388133171
 31
0.0
  0
LINE
  5
415
330
1F
100
AcDbEntity
  8
0
  6
Continuous
 62
     7
370
    25
100
AcDbLine
 10
249.0848918731
 20
242.6031461002
 30
0.0
 11
249.0763297408
 21
242.4350748707
 31
0.0
  0
LINE
  5
416
330
1F
100
AcDbEntity
  8
0
  6
Continuous
 62
     7
370
    25
100
AcDbLine
 10
249.783437955
 20
243.0064081696
 30
0.0
 11
249.0848918731
 21
242.6031461002
 31
0.0
  0
LINE
  5
417
330
1F
100
AcDbEntity
  8
0
  6
Continuous
 62
     7
370
    25
100
AcDbLine
 10
232.954296175
 20
253.4551283409
 30
0.0
 11
232.2471879608
 21
253.0469234577
 31
0.0
  0
ARC
  5
418
330
1F
100
AcDbEntity
  8
0
  6
Continuous
 62
     7
370
    25
100
AcDbCircle
 10
232.5914449545
 20
257.0152603421
 30
0.0
 40
3.578575257637544
100
AcDbArc
 50
275.8195319017
 51
292.8587264418
  0
LWPOLYLINE
  5
419
330
1F
100
AcDbEntity
  8
0
  6
Continuous
 62
     7
370
    25
100
AcDbPolyline
 90
       31
 70
   128
 43
0.0
 10
224.0074169103
 20
270.9953576649
 10
223.8597923051
 20
270.8775590617
 10
223.6054624161
 20
270.6401533596
 10
223.3712755597
 20
270.3744013161
 10
223.1580567604
 20
270.0812380738
 10
222.9665499101
 20
269.7616942818
 10
222.7974314658
 20
269.4168930552
 10
222.6512893759
 20
269.0480378057
 10
222.5286420468
 20
268.6564207603
 10
222.4299151615
 20
268.2434266099
 10
222.3554564316
 20
267.8104947914
 10
222.3055271675
 20
267.3591486883
 10
222.280304386
 20
266.8909652133
 10
222.2798744881
 20
266.407597925
 10
222.3042374739
 20
265.9107307923
 10
222.353311157
 20
265.4021146973
 10
222.4269227352
 20
264.8835284986
 10
222.5248108982
 20
264.3567924157
 10
222.6466363639
 20
263.8237570792
 10
222.7919692342
 20
263.2862913624
 10
222.9603016399
 20
262.7462799488
 10
223.1510414175
 20
262.205617248
 10
223.3635205396
 20
261.6662000961
 10
223.5969908995
 20
261.1299204544
 10
223.8506369559
 20
260.5986605442
 10
224.1235683565
 20
260.0742825034
 10
224.4148262605
 20
259.5586271708
 10
224.7233896604
 20
259.0535007018
 10
225.0481753824
 20
258.5606794363
 10
225.3880454614
 20
258.0818886056
 10
225.7418071418
 20
257.6188096333
  0
LINE
  5
41A
330
1F
100
AcDbEntity
  8
0
  6
Continuous
 62
     7
370
    25
100
AcDbLine
 10
225.7418071418
 20
257.6188096333
 30
0.0
 11
225.0346989276
 21
257.2106047501
 31
0.0
  0
LINE
  5
41B
330
1F
100
AcDbEntity
  8
0
  6
Continuous
 62
     7
370
    25
100
AcDbLine
 10
225.7418071418
 20
257.6188096333
 30
0.0
 11
225.7418071418
 21
256.8853462166
 31
0.0
  0
LINE
  5
41C
330
1F
100
AcDbEntity
  8
0
  6
Continuous
 62
     7
370
    25
100
AcDbLine
 10
225.7418071418
 20
256.8853462166
 30
0.0
 11
232.3190304251
 21
253.0883960355
 31
0.0
  0
LINE
  5
41D
330
1F
100
AcDbEntity
  8
0
  6
Continuous
 62
     7
370
    25
100
AcDbLine
 10
301.349549716
 20
250.0782823406
 30
0.0
 11
301.1197598296
 21
252.8036711168
 31
0.0
  0
LINE
  5
41E
330
1F
100
AcDbEntity
  8
0
  6
Continuous
 62
     7
370
    25
100
AcDbLine
 10
301.349549716
 20
250.0782823406
 30
0.0
 11
305.7155839001
 21
249.4963879797
 31
0.0
  0
LINE
  5
41F
330
1F
100
AcDbEntity
  8
0
  6
Continuous
 62
     7
370
    25
100
AcDbLine
 10
295.1796936359
 20
249.3745438942
 30
0.0
 11
295.1711315036
 21
249.5426151237
 31
0.0
  0
LINE
  5
420
330
1F
100
AcDbEntity
  8
0
  6
Continuous
 62
     7
370
    25
100
AcDbLine
 10
295.1711315036
 20
249.5426151237
 30
0.0
 11
294.4725854217
 21
249.9458771931
 31
0.0
  0
LINE
  5
421
330
1F
100
AcDbEntity
  8
0
  6
Continuous
 62
     7
370
    25
100
AcDbLine
 10
219.0946327339
 20
259.7431401403
 30
0.0
 11
218.8648439012
 21
257.0177507558
 31
0.0
  0
LINE
  5
422
330
1F
100
AcDbEntity
  8
0
  6
Continuous
 62
     7
370
    25
100
AcDbLine
 10
214.4988076097
 20
256.4358576115
 30
0.0
 11
218.8648439012
 21
257.0177507558
 31
0.0
  0
LINE
  5
423
330
1F
100
AcDbEntity
  8
0
  6
Continuous
 62
     7
370
    25
100
AcDbLine
 10
225.0432610599
 20
256.4820841472
 30
0.0
 11
225.0346989276
 21
256.3140129177
 31
0.0
  0
LINE
  5
424
330
1F
100
AcDbEntity
  8
0
  6
Continuous
 62
     7
370
    25
100
AcDbLine
 10
225.7418071418
 20
256.8853462166
 30
0.0
 11
225.0432610599
 21
256.4820841472
 31
0.0
  0
LWPOLYLINE
  5
425
330
1F
100
AcDbEntity
  8
0
  6
Continuous
 62
     7
370
    25
100
AcDbPolyline
 90
       24
 70
   128
 43
0.0
 10
280.6132939266
 20
275.0156425605
 10
280.6001830957
 20
274.8979247435
 10
280.5618231415
 20
274.773797681
 10
280.5010589764
 20
274.6524718326
 10
280.422397152
 20
274.542943964
 10
280.3316728995
 20
274.4533377047
 10
280.2356128561
 20
274.3902958274
 10
280.1413419464
 20
274.3584960313
 10
280.0558523325
 20
274.3602957037
 10
279.9854850079
 20
274.3955640582
 10
279.9354566987
 20
274.4616815711
 10
279.9094794886
 20
274.5537486881
 10
279.9094794886
 20
274.6649344465
 10
279.9354566987
 20
274.7869942118
 10
279.9854850079
 20
274.9108731811
 10
280.0558523325
 20
275.0273859192
 10
280.1413419464
 20
275.1278897987
 10
280.2356128561
 20
275.2049328783
 10
280.3316728995
 20
275.2527995664
 10
280.422397152
 20
275.2679412994
 10
280.5010589764
 20
275.249229573
 10
280.5618231415
 20
275.1980605364
 10
280.6001830957
 20
275.1182278012
 10
280.6132939266
 20
275.0156425605
  0
LWPOLYLINE
  5
426
330
1F
100
AcDbEntity
  8
0
  6
Continuous
 62
     7
370
    25
100
AcDbPolyline
 90
       14
 70
   128
 43
0.0
 10
279.9390486639
 20
274.4193381659
 10
279.9147731328
 20
274.4363851548
 10
279.8647448236
 20
274.5025026677
 10
279.8387676136
 20
274.5945697847
 10
279.8387676136
 20
274.7057555431
 10
279.8647448236
 20
274.8278153084
 10
279.9147731328
 20
274.9516942777
 10
279.9851404574
 20
275.0682070158
 10
280.0706300713
 20
275.1687108953
 10
280.164900981
 20
275.2457539748
 10
280.2609610245
 20
275.293620663
 10
280.3516852769
 20
275.308762396
 10
280.4303471013
 20
275.2900506696
 10
280.4390082786
 20
275.2853897403
  0
LWPOLYLINE
  5
427
330
1F
100
AcDbEntity
  8
0
  6
Continuous
 62
     7
370
    25
100
AcDbPolyline
 90
       24
 70
   128
 43
0.0
 10
308.8975645419
 20
291.343804432
 10
308.884453711
 20
291.226086615
 10
308.8460937568
 20
291.1019595525
 10
308.7853306453
 20
290.9806343124
 10
308.7066688209
 20
290.8711064437
 10
308.6159435148
 20
290.7814995762
 10
308.5198834713
 20
290.7184576989
 10
308.4256136153
 20
290.6866585111
 10
308.3401240014
 20
290.6884581834
 10
308.2697556232
 20
290.7237259297
 10
308.2197283677
 20
290.7898440509
 10
308.1937511576
 20
290.8819111679
 10
308.1937511576
 20
290.9930969263
 10
308.2197283677
 20
291.1151566916
 10
308.2697556232
 20
291.2390350526
 10
308.3401240014
 20
291.355548399
 10
308.4256136153
 20
291.4560522785
 10
308.5198834713
 20
291.5330947498
 10
308.6159435148
 20
291.5809614379
 10
308.7066688209
 20
291.5961037792
 10
308.7853306453
 20
291.5773920528
 10
308.8460937568
 20
291.5262224079
 10
308.884453711
 20
291.4463896727
 10
308.8975645419
 20
291.343804432
  0
LWPOLYLINE
  5
428
330
1F
100
AcDbEntity
  8
0
  6
Continuous
 62
     7
370
    25
100
AcDbPolyline
 90
       14
 70
   128
 43
0.0
 10
308.2233192791
 20
290.7475000373
 10
308.1990437481
 20
290.7645470262
 10
308.1490164926
 20
290.8306651475
 10
308.1230392825
 20
290.9227322645
 10
308.1230392825
 20
291.0339180229
 10
308.1490164926
 20
291.1559777882
 10
308.1990437481
 20
291.2798561492
 10
308.2694121263
 20
291.3963694956
 10
308.3549017402
 20
291.4968733751
 10
308.4491715963
 20
291.5739158463
 10
308.5452316397
 20
291.6217825345
 10
308.6359569458
 20
291.6369248757
 10
308.7146187702
 20
291.6182131494
 10
308.7232788939
 20
291.6135516118
  0
LINE
  5
429
330
1F
100
AcDbEntity
  8
0
  6
Continuous
 62
     7
370
    25
100
AcDbLine
 10
244.3387144523
 20
213.2430906016
 30
0.0
 11
249.1470405622
 21
210.4673030226
 31
0.0
  0
LINE
  5
42A
330
1F
100
AcDbEntity
  8
0
  6
Continuous
 62
     7
370
    25
100
AcDbLine
 10
271.0673530549
 20
203.5278346074
 30
0.0
 11
275.1685712141
 21
205.8954174553
 31
0.0
  0
LINE
  5
42B
330
1F
100
AcDbEntity
  8
0
  6
Continuous
 62
     7
370
    25
100
AcDbLine
 10
275.1685712141
 20
205.8954174553
 30
0.0
 11
278.1384193917
 21
204.1809605956
 31
0.0
  0
LINE
  5
42C
330
1F
100
AcDbEntity
  8
0
  6
Continuous
 62
     7
370
    25
100
AcDbLine
 10
278.1384193917
 20
204.1809605956
 30
0.0
 11
266.1176039851
 21
197.2414915721
 31
0.0
  0
LINE
  5
42D
330
1F
100
AcDbEntity
  8
0
  6
Continuous
 62
     7
370
    25
100
AcDbLine
 10
266.1176039851
 20
197.2414915721
 30
0.0
 11
241.3688662747
 21
211.5286337419
 31
0.0
  0
LINE
  5
42E
330
1F
100
AcDbEntity
  8
0
  6
Continuous
 62
     7
370
    25
100
AcDbLine
 10
241.3688662747
 20
211.5286337419
 30
0.0
 11
244.3387144523
 21
213.2430906016
 31
0.0
  0
LINE
  5
42F
330
1F
100
AcDbEntity
  8
0
  6
Continuous
 62
     7
370
    25
100
AcDbLine
 10
266.1176039851
 20
193.5670577727
 30
0.0
 11
278.1384193917
 21
200.5065267961
 31
0.0
  0
LINE
  5
430
330
1F
100
AcDbEntity
  8
0
  6
Continuous
 62
     7
370
    25
100
AcDbLine
 10
266.1176039851
 20
197.2414915721
 30
0.0
 11
266.1176039851
 21
193.5670577727
 31
0.0
  0
LINE
  5
431
330
1F
100
AcDbEntity
  8
0
  6
Continuous
 62
     7
370
    25
100
AcDbLine
 10
278.1384193917
 20
200.5065267961
 30
0.0
 11
278.1384193917
 21
204.1809605956
 31
0.0
  0
LINE
  5
432
330
1F
100
AcDbEntity
  8
0
  6
Continuous
 62
     7
370
    25
100
AcDbLine
 10
266.1176039851
 20
193.5670577727
 30
0.0
 11
241.3688662747
 21
207.8541999424
 31
0.0
  0
LINE
  5
433
330
1F
100
AcDbEntity
  8
0
  6
Continuous
 62
     7
370
    25
100
AcDbLine
 10
241.3688662747
 20
207.8541999424
 30
0.0
 11
241.3688662747
 21
211.5286337419
 31
0.0
  0
LINE
  5
434
330
1F
100
AcDbEntity
  8
0
  6
Continuous
 62
     7
370
    25
100
AcDbLine
 10
271.0673530549
 20
206.385727157
 30
0.0
 11
289.1383517263
 21
216.8178926351
 31
0.0
  0
LINE
  5
435
330
1F
100
AcDbEntity
  8
0
  6
Continuous
 62
     7
370
    25
100
AcDbLine
 10
295.1089828145
 20
220.2646645957
 30
0.0
 11
313.1799825395
 21
230.696830682
 31
0.0
  0
LINE
  5
436
330
1F
100
AcDbEntity
  8
0
  6
Continuous
 62
     7
370
    25
100
AcDbLine
 10
231.0760408372
 20
223.7573616586
 30
0.0
 11
249.1470405622
 21
213.3251955722
 31
0.0
  0
LINE
  5
437
330
1F
100
AcDbEntity
  8
0
  6
Continuous
 62
     7
370
    25
100
AcDbLine
 10
307.6954837388
 20
224.6728043678
 30
0.0
 11
314.0599265501
 21
228.3469189971
 31
0.0
  0
LINE
  5
438
330
1F
100
AcDbEntity
  8
0
  6
Continuous
 62
     7
370
    25
100
AcDbLine
 10
307.6954837388
 20
220.9983705683
 30
0.0
 11
307.6954837388
 21
224.6728043678
 31
0.0
  0
LINE
  5
439
330
1F
100
AcDbEntity
  8
0
  6
Continuous
 62
     7
370
    25
100
AcDbLine
 10
307.6954837388
 20
220.9983705683
 30
0.0
 11
278.1384204453
 21
203.9354411237
 31
0.0
  0
LINE
  5
43A
330
1F
100
AcDbEntity
  8
0
  6
Continuous
 62
     7
370
    25
100
AcDbLine
 10
237.267646535
 20
213.650697422
 30
0.0
 11
237.267646535
 21
217.3251312215
 31
0.0
  0
LINE
  5
43B
330
1F
100
AcDbEntity
  8
0
  6
Continuous
 62
     7
370
    25
100
AcDbLine
 10
230.1960968266
 20
221.4074499736
 30
0.0
 11
237.267646535
 21
217.3251312215
 31
0.0
  0
LINE
  5
43C
330
1F
100
AcDbEntity
  8
0
  6
Continuous
 62
     7
370
    25
100
AcDbLine
 10
241.3688659455
 20
211.2831138518
 30
0.0
 11
237.267646535
 21
213.650697422
 31
0.0
  0
LINE
  5
43D
330
1F
100
AcDbEntity
  8
0
  6
Continuous
 62
     7
370
    25
100
AcDbLine
 10
234.2977983575
 20
215.6106743619
 30
0.0
 11
209.5490606472
 21
229.8978165317
 31
0.0
  0
LINE
  5
43E
330
1F
100
AcDbEntity
  8
0
  6
Continuous
 62
     7
370
    25
100
AcDbLine
 10
209.5490606472
 20
229.8978165317
 30
0.0
 11
210.2562826579
 21
230.3060871082
 31
0.0
  0
LINE
  5
43F
330
1F
100
AcDbEntity
  8
0
  6
Continuous
 62
     7
370
    25
100
AcDbLine
 10
237.267646535
 20
217.3251312215
 30
0.0
 11
234.2977983575
 21
215.6106743619
 31
0.0
  0
LINE
  5
440
330
1F
100
AcDbEntity
  8
0
  6
Continuous
 62
     7
370
    25
100
AcDbLine
 10
234.2977983575
 20
211.9362405624
 30
0.0
 11
234.2977983575
 21
215.6106743619
 31
0.0
  0
LINE
  5
441
330
1F
100
AcDbEntity
  8
0
  6
Continuous
 62
     7
370
    25
100
AcDbLine
 10
237.267646535
 20
213.650697422
 30
0.0
 11
234.2977983575
 21
211.9362405624
 31
0.0
  0
LINE
  5
442
330
1F
100
AcDbEntity
  8
0
  6
Continuous
 62
     7
370
    25
100
AcDbLine
 10
209.5490606472
 20
226.2233827322
 30
0.0
 11
209.5490606472
 21
229.8978165317
 31
0.0
  0
LINE
  5
443
330
1F
100
AcDbEntity
  8
0
  6
Continuous
 62
     7
370
    25
100
AcDbLine
 10
234.2977983575
 20
211.9362405624
 30
0.0
 11
209.5490606472
 21
226.2233827322
 31
0.0
  0
LINE
  5
444
330
1F
100
AcDbEntity
  8
0
  6
Continuous
 62
     7
370
    25
100
AcDbLine
 10
310.6653319163
 20
219.2839137087
 30
0.0
 11
310.6653319163
 21
222.9583475082
 31
0.0
  0
LINE
  5
445
330
1F
100
AcDbEntity
  8
0
  6
Continuous
 62
     7
370
    25
100
AcDbLine
 10
310.6653319163
 20
222.9583475082
 30
0.0
 11
307.6954837388
 21
224.6728043678
 31
0.0
  0
LINE
  5
446
330
1F
100
AcDbEntity
  8
0
  6
Continuous
 62
     7
370
    25
100
AcDbLine
 10
310.6653319163
 20
219.2839137087
 30
0.0
 11
307.6954837388
 21
220.9983705683
 31
0.0
  0
LINE
  5
447
330
1F
100
AcDbEntity
  8
0
  6
Continuous
 62
     7
370
    25
100
AcDbLine
 10
322.6861473229
 20
229.8978165317
 30
0.0
 11
321.9789253122
 21
230.3060871081
 31
0.0
  0
LINE
  5
448
330
1F
100
AcDbEntity
  8
0
  6
Continuous
 62
     7
370
    25
100
AcDbLine
 10
322.6861473229
 20
229.8978165317
 30
0.0
 11
310.6653319163
 21
222.9583475082
 31
0.0
  0
LINE
  5
449
330
1F
100
AcDbEntity
  8
0
  6
Continuous
 62
     7
370
    25
100
AcDbLine
 10
322.6861473229
 20
229.8978165317
 30
0.0
 11
322.6861473229
 21
226.2233827322
 31
0.0
  0
LINE
  5
44A
330
1F
100
AcDbEntity
  8
0
  6
Continuous
 62
     7
370
    25
100
AcDbLine
 10
310.6653319163
 20
219.2839137087
 30
0.0
 11
322.6861473229
 21
226.2233827322
 31
0.0
  0
LINE
  5
44B
330
1F
100
AcDbEntity
  8
0
  6
PHANTOM
 62
     8
370
    18
100
AcDbLine
 10
267.5318183061
 20
277.9966631172
 30
0.0
 11
267.5318183061
 21
278.241622207
 31
0.0
  0
LINE
  5
44C
330
1F
100
AcDbEntity
  8
0
  6
PHANTOM
 62
     8
370
    18
100
AcDbLine
 10
264.703389664
 20
277.9966631172
 30
0.0
 11
264.703389664
 21
278.241622207
 31
0.0
  0
LINE
  5
44D
330
1F
100
AcDbEntity
  8
0
  6
PHANTOM
 62
     8
370
    18
100
AcDbLine
 10
315.0493933612
 20
305.4279753046
 30
0.0
 11
315.0493933612
 21
305.6729343944
 31
0.0
  0
LINE
  5
44E
330
1F
100
AcDbEntity
  8
0
  6
PHANTOM
 62
     8
370
    18
100
AcDbLine
 10
217.1858146089
 20
305.4279753046
 30
0.0
 11
217.1858146089
 21
305.6729343944
 31
0.0
  0
LINE
  5
44F
330
1F
100
AcDbEntity
  8
0
  6
PHANTOM
 62
     8
370
    18
100
AcDbLine
 10
281.7800191214
 20
297.6108681014
 30
0.0
 11
281.7800191214
 21
297.8558271912
 31
0.0
  0
LINE
  5
450
330
1F
100
AcDbEntity
  8
0
  6
PHANTOM
 62
     8
370
    18
100
AcDbLine
 10
280.2950950327
 20
298.4680965312
 30
0.0
 11
280.2950950327
 21
298.713055621
 31
0.0
  0
LINE
  5
451
330
1F
100
AcDbEntity
  8
0
  6
PHANTOM
 62
     8
370
    18
100
AcDbLine
 10
252.6472197028
 20
314.4288752244
 30
0.0
 11
252.6472197028
 21
314.6738343142
 31
0.0
  0
LINE
  5
452
330
1F
100
AcDbEntity
  8
0
  6
PHANTOM
 62
     8
370
    18
100
AcDbLine
 10
251.1622956141
 20
315.2861036542
 30
0.0
 11
251.1622956141
 21
315.531062744
 31
0.0
  0
LINE
  5
453
330
1F
100
AcDbEntity
  8
0
  6
PHANTOM
 62
     8
370
    18
100
AcDbLine
 10
289.0989449498
 20
225.2055404994
 30
0.0
 11
293.6947688886
 21
224.5930214202
 31
0.0
  0
LINE
  5
454
330
1F
100
AcDbEntity
  8
0
  6
PHANTOM
 62
     8
370
    18
100
AcDbLine
 10
231.1154481406
 20
232.1450092188
 30
0.0
 11
226.51962407
 21
231.5324902156
 31
0.0
  0
LINE
  5
455
330
1F
100
AcDbEntity
  8
0
  6
PHANTOM
 62
     8
370
    18
100
AcDbLine
 10
313.1405752362
 20
239.0844782423
 30
0.0
 11
317.7364003604
 21
238.4719598473
 31
0.0
  0
ARC
  5
456
330
1F
100
AcDbEntity
  8
0
  6
PHANTOM
 62
     8
370
    18
100
AcDbCircle
 10
251.7904694547
 20
229.7949992104
 30
0.0
 40
0.6039849390383255
100
AcDbArc
 50
1.7979227733
 51
58.1968257646
  0
ARC
  5
457
330
1F
100
AcDbEntity
  8
0
  6
PHANTOM
 62
     8
370
    18
100
AcDbCircle
 10
252.0280755642
 20
229.9272944956
 30
0.0
 40
0.4211432487722564
100
AcDbArc
 50
358.8675935815
 51
74.478070623
  0
LWPOLYLINE
  5
458
330
1F
100
AcDbEntity
  8
0
  6
PHANTOM
 62
     8
370
    18
100
AcDbPolyline
 90
        3
 70
   128
 43
0.0
 10
252.4316150627
 20
229.8292747483
 10
252.4357507222
 20
229.8390352213
 10
252.4491365613
 20
229.9189714695
  0
LWPOLYLINE
  5
459
330
1F
100
AcDbEntity
  8
0
  6
PHANTOM
 62
     8
370
    18
100
AcDbPolyline
 90
       11
 70
   128
 43
0.0
 10
252.1484072067
 20
230.337048498
 10
252.1908680493
 20
230.3501409612
 10
252.2579026118
 20
230.3396175779
 10
252.3292393139
 20
230.2984357763
 10
252.3962738765
 20
230.2315627011
 10
252.4509214803
 20
230.1470627589
 10
252.4865893045
 20
230.0551322259
 10
252.4989762633
 20
229.9668564223
 10
252.4865893045
 20
229.8928822969
 10
252.4509214803
 20
229.8421329572
 10
252.4382521376
 20
229.8335415796
  0
ARC
  5
45A
330
1F
100
AcDbEntity
  8
0
  6
PHANTOM
 62
     8
370
    18
100
AcDbCircle
 10
223.5061899782
 20
246.1231559664
 30
0.0
 40
0.6039939564419536
100
AcDbArc
 50
1.7983814257
 51
58.1963671122
  0
ARC
  5
45B
330
1F
100
AcDbEntity
  8
0
  6
PHANTOM
 62
     8
370
    18
100
AcDbCircle
 10
223.7438035926
 20
246.25545675
 30
0.0
 40
0.421143546908924
100
AcDbArc
 50
358.8676250497
 51
74.4780391548
  0
LWPOLYLINE
  5
45C
330
1F
100
AcDbEntity
  8
0
  6
PHANTOM
 62
     8
370
    18
100
AcDbPolyline
 90
        3
 70
   128
 43
0.0
 10
224.1473444474
 20
246.1574366198
 10
224.1514790532
 20
246.167197701
 10
224.1648648923
 20
246.2471339492
  0
LWPOLYLINE
  5
45D
330
1F
100
AcDbEntity
  8
0
  6
PHANTOM
 62
     8
370
    18
100
AcDbPolyline
 90
       11
 70
   128
 43
0.0
 10
223.8641365915
 20
246.6652103695
 10
223.906597434
 20
246.6783028327
 10
223.9736319966
 20
246.6677794494
 10
224.0449686987
 20
246.6265976478
 10
224.1120032612
 20
246.5597245726
 10
224.1666498114
 20
246.4752252387
 10
224.2023176356
 20
246.3832947057
 10
224.214705648
 20
246.2950182938
 10
224.2023176356
 20
246.2210447767
 10
224.1666498114
 20
246.170295437
 10
224.1539804687
 20
246.1617040593
  0
LINE
  5
45E
330
1F
100
AcDbEntity
  8
0
  6
PHANTOM
 62
     8
370
    18
100
AcDbLine
 10
243.1362630203
 20
253.7844708622
 30
0.0
 11
238.5404390815
 21
253.171951783
 31
0.0
  0
LINE
  5
45F
330
1F
100
AcDbEntity
  8
0
  6
PHANTOM
 62
     8
370
    18
100
AcDbLine
 10
301.1197598296
 20
260.7239395816
 30
0.0
 11
305.7155839001
 21
260.1114205784
 31
0.0
  0
LINE
  5
460
330
1F
100
AcDbEntity
  8
0
  6
PHANTOM
 62
     8
370
    18
100
AcDbLine
 10
219.0946327339
 20
267.6634086051
 30
0.0
 11
214.4988076097
 21
267.0508902101
 31
0.0
  0
ARC
  5
461
330
1F
100
AcDbEntity
  8
0
  6
PHANTOM
 62
     8
370
    18
100
AcDbCircle
 10
280.4447416027
 20
274.7047430553
 30
0.0
 40
0.603988080699745
100
AcDbArc
 50
121.8033340316
 51
178.2019174305
  0
LWPOLYLINE
  5
462
330
1F
100
AcDbEntity
  8
0
  6
PHANTOM
 62
     8
370
    18
100
AcDbPolyline
 90
        3
 70
   128
 43
0.0
 10
279.7860714089
 20
274.8287146631
 10
279.7994572479
 20
274.7487784149
 10
279.8035929075
 20
274.7390179419
  0
ARC
  5
463
330
1F
100
AcDbEntity
  8
0
  6
PHANTOM
 62
     8
370
    18
100
AcDbCircle
 10
280.207128802
 20
274.8370427573
 30
0.0
 40
0.4211397458236505
100
AcDbArc
 50
105.5215528796
 51
181.1331054871
  0
LWPOLYLINE
  5
464
330
1F
100
AcDbEntity
  8
0
  6
PHANTOM
 62
     8
370
    18
100
AcDbPolyline
 90
       11
 70
   128
 43
0.0
 10
279.7963152004
 20
274.7436571559
 10
279.7842864898
 20
274.7518785843
 10
279.7486186656
 20
274.802627924
 10
279.7362317068
 20
274.876599616
 10
279.7486186656
 20
274.964877853
 10
279.7842864898
 20
275.056808386
 10
279.8389340936
 20
275.1413083282
 10
279.9059686562
 20
275.2081814034
 10
279.9773053583
 20
275.249363205
 10
280.0443399208
 20
275.2598865883
 10
280.0876099829
 20
275.2463243873
  0
ARC
  5
465
330
1F
100
AcDbEntity
  8
0
  6
PHANTOM
 62
     8
370
    18
100
AcDbCircle
 10
308.729021328
 20
291.0328997145
 30
0.0
 40
0.603997349893093
100
AcDbArc
 50
121.8039232569
 51
178.2014503455
  0
LWPOLYLINE
  5
466
330
1F
100
AcDbEntity
  8
0
  6
PHANTOM
 62
     8
370
    18
100
AcDbPolyline
 90
        3
 70
   128
 43
0.0
 10
308.0703430778
 20
291.1568771429
 10
308.0837289169
 20
291.0769408947
 10
308.0878635227
 20
291.0671798134
  0
ARC
  5
467
330
1F
100
AcDbEntity
  8
0
  6
PHANTOM
 62
     8
370
    18
100
AcDbCircle
 10
308.4914007737
 20
291.1652050117
 30
0.0
 40
0.421140044015735
100
AcDbArc
 50
105.5215843546
 51
181.1330740122
  0
LWPOLYLINE
  5
468
330
1F
100
AcDbEntity
  8
0
  6
PHANTOM
 62
     8
370
    18
100
AcDbPolyline
 90
       11
 70
   128
 43
0.0
 10
308.0805858156
 20
291.0718190274
 10
308.0685581588
 20
291.0800410641
 10
308.0328903345
 20
291.1307904038
 10
308.0205023221
 20
291.2047614874
 10
308.0328903345
 20
291.2930403328
 10
308.0685581588
 20
291.3849708658
 10
308.1232047089
 20
291.4694701997
 10
308.1902392714
 20
291.5363432749
 10
308.2615759735
 20
291.5775250765
 10
308.3286105361
 20
291.5880484598
 10
308.3718816518
 20
291.5744868671
  0
ENDSEC
  0
SECTION
  2
OBJECTS
  0
DICTIONARY
  5
C
330
0
100
AcDbDictionary
281
     1
  3
ACAD_GROUP
350
D
  3
ACAD_LAYOUT
350
1A
  3
ACAD_MLINESTYLE
350
17
  3
ACAD_PLOTSETTINGS
350
19
  3
ACAD_PLOTSTYLENAME
350
E
  3
ACAD_SCALELIST
350
47
  0
DICTIONARY
  5
D
102
{ACAD_REACTORS
330
C
102
}
330
C
100
AcDbDictionary
281
     1
  0
DICTIONARY
  5
1A
102
{ACAD_REACTORS
330
C
102
}
330
C
100
AcDbDictionary
281
     1
  3
Layout1
350
1E
  3
Layout2
350
26
  3
Model
350
22
  0
DICTIONARY
  5
17
102
{ACAD_REACTORS
330
C
102
}
330
C
100
AcDbDictionary
281
     1
  3
Standard
350
18
  0
DICTIONARY
  5
19
102
{ACAD_REACTORS
330
C
102
}
330
C
100
AcDbDictionary
281
     1
  0
ACDBDICTIONARYWDFLT
  5
E
102
{ACAD_REACTORS
330
C
102
}
330
C
100
AcDbDictionary
281
     1
  3
Normal
350
F
100
AcDbDictionaryWithDefault
340
F
  0
DICTIONARY
  5
47
102
{ACAD_REACTORS
330
C
102
}
330
C
100
AcDbDictionary
281
     1
  3
A0
350
48
  3
A1
350
49
  3
A2
350
4A
  3
A3
350
4B
  3
A4
350
4C
  3
A5
350
4D
  3
A6
350
4E
  3
A7
350
4F
  3
A8
350
50
  3
A9
350
51
  3
B0
350
52
  3
B1
350
53
  3
B2
350
54
  3
B3
350
55
  3
B4
350
56
  3
B5
350
57
  3
B6
350
58
  3
B7
350
59
  3
B8
350
5A
  3
B9
350
5B
  3
C0
350
5C
  3
C1
350
5D
  3
C2
350
5E
  3
C3
350
5F
  3
C4
350
60
  3
C5
350
61
  3
C6
350
62
  3
C7
350
63
  3
C8
350
64
  3
C9
350
65
  3
D0
350
66
  3
D1
350
67
  3
D2
350
68
  0
LAYOUT
  5
1E
102
{ACAD_REACTORS
330
1A
102
}
330
1A
100
AcDbPlotSettings
  1

  2
none_device
  4

  6

 40
0.0
 41
0.0
 42
0.0
 43
0.0
 44
0.0
 45
0.0
 46
0.0
 47
0.0
 48
0.0
 49
0.0
140
0.0
141
0.0
142
1.0
143
1.0
 70
   688
 72
     1
 73
     0
 74
     5
  7

 75
    16
147
1.0
148
0.0
149
0.0
100
AcDbLayout
  1
Layout1
 70
     1
 71
     1
 10
0.0
 20
0.0
 11
420.0
 21
297.0
 12
0.0
 22
0.0
 32
0.0
 14
1.0000000000E+20
 24
1.0000000000E+20
 34
1.0000000000E+20
 15
-1.0000000000E+20
 25
-1.0000000000E+20
 35
-1.0000000000E+20
146
0.0
 13
0.0
 23
0.0
 33
0.0
 16
1.0
 26
0.0
 36
0.0
 17
0.0
 27
1.0
 37
0.0
 76
     0
330
1B
  0
LAYOUT
  5
26
102
{ACAD_REACTORS
330
1A
102
}
330
1A
100
AcDbPlotSettings
  1

  2
none_device
  4

  6

 40
0.0
 41
0.0
 42
0.0
 43
0.0
 44
0.0
 45
0.0
 46
0.0
 47
0.0
 48
0.0
 49
0.0
140
0.0
141
0.0
142
1.0
143
1.0
 70
   688
 72
     1
 73
     0
 74
     5
  7

 75
    16
147
1.0
148
0.0
149
0.0
100
AcDbLayout
  1
Layout2
 70
     1
 71
     2
 10
0.0
 20
0.0
 11
0.0
 21
0.0
 12
0.0
 22
0.0
 32
0.0
 14
0.0
 24
0.0
 34
0.0
 15
0.0
 25
0.0
 35
0.0
146
0.0
 13
0.0
 23
0.0
 33
0.0
 16
1.0
 26
0.0
 36
0.0
 17
0.0
 27
1.0
 37
0.0
 76
     0
330
23
  0
LAYOUT
  5
22
102
{ACAD_REACTORS
330
1A
102
}
330
1A
100
AcDbPlotSettings
  1

  2
none_device
  4
Letter_(8.50_x_11.00_Inches)
  6

 40
6.35
 41
6.35
 42
6.35000508
 43
6.35000508
 44
215.9
 45
279.4
 46
0.0
 47
0.0
 48
0.0
 49
0.0
140
0.0
141
0.0
142
1.0
143
1.0
 70
  1712
 72
     1
 73
     0
 74
     0
  7

 75
     0
147
1.0
148
0.0
149
0.0
100
AcDbLayout
  1
Model
 70
     1
 71
     0
 10
0.0
 20
0.0
 11
594.0
 21
420.0
 12
0.0
 22
0.0
 32
0.0
 14
0.0
 24
0.0
 34
0.0
 15
594.0
 25
420.0
 35
0.0
146
0.0
 13
0.0
 23
0.0
 33
0.0
 16
1.0
 26
0.0
 36
0.0
 17
0.0
 27
1.0
 37
0.0
 76
     0
330
1F
331
29
  0
MLINESTYLE
  5
18
102
{ACAD_REACTORS
330
17
102
}
330
17
100
AcDbMlineStyle
  2
Standard
 70
     0
  3

 62
   256
 51
90.0
 52
90.0
 71
     2
 49
0.5
 62
   256
  6
BYLAYER
 49
-0.5
 62
   256
  6
BYLAYER
  0
ACDBPLACEHOLDER
  5
F
102
{ACAD_REACTORS
330
E
102
}
330
E
  0
SCALE
  5
48
102
{ACAD_REACTORS
330
47
102
}
330
47
100
AcDbScale
 70
     0
300
1:1
140
1.0
141
1.0
290
     1
  0
SCALE
  5
49
102
{ACAD_REACTORS
330
47
102
}
330
47
100
AcDbScale
 70
     0
300
1:2
140
1.0
141
2.0
290
     0
  0
SCALE
  5
4A
102
{ACAD_REACTORS
330
47
102
}
330
47
100
AcDbScale
 70
     0
300
1:4
140
1.0
141
4.0
290
     0
  0
SCALE
  5
4B
102
{ACAD_REACTORS
330
47
102
}
330
47
100
AcDbScale
 70
     0
300
1:5
140
1.0
141
5.0
290
     0
  0
SCALE
  5
4C
102
{ACAD_REACTORS
330
47
102
}
330
47
100
AcDbScale
 70
     0
300
1:8
140
1.0
141
8.0
290
     0
  0
SCALE
  5
4D
102
{ACAD_REACTORS
330
47
102
}
330
47
100
AcDbScale
 70
     0
300
1:10
140
1.0
141
10.0
290
     0
  0
SCALE
  5
4E
102
{ACAD_REACTORS
330
47
102
}
330
47
100
AcDbScale
 70
     0
300
1:16
140
1.0
141
16.0
290
     0
  0
SCALE
  5
4F
102
{ACAD_REACTORS
330
47
102
}
330
47
100
AcDbScale
 70
     0
300
1:20
140
1.0
141
20.0
290
     0
  0
SCALE
  5
50
102
{ACAD_REACTORS
330
47
102
}
330
47
100
AcDbScale
 70
     0
300
1:30
140
1.0
141
30.0
290
     0
  0
SCALE
  5
51
102
{ACAD_REACTORS
330
47
102
}
330
47
100
AcDbScale
 70
     0
300
1:40
140
1.0
141
40.0
290
     0
  0
SCALE
  5
52
102
{ACAD_REACTORS
330
47
102
}
330
47
100
AcDbScale
 70
     0
300
1:50
140
1.0
141
50.0
290
     0
  0
SCALE
  5
53
102
{ACAD_REACTORS
330
47
102
}
330
47
100
AcDbScale
 70
     0
300
1:100
140
1.0
141
100.0
290
     0
  0
SCALE
  5
54
102
{ACAD_REACTORS
330
47
102
}
330
47
100
AcDbScale
 70
     0
300
2:1
140
2.0
141
1.0
290
     0
  0
SCALE
  5
55
102
{ACAD_REACTORS
330
47
102
}
330
47
100
AcDbScale
 70
     0
300
4:1
140
4.0
141
1.0
290
     0
  0
SCALE
  5
56
102
{ACAD_REACTORS
330
47
102
}
330
47
100
AcDbScale
 70
     0
300
8:1
140
8.0
141
1.0
290
     0
  0
SCALE
  5
57
102
{ACAD_REACTORS
330
47
102
}
330
47
100
AcDbScale
 70
     0
300
10:1
140
10.0
141
1.0
290
     0
  0
SCALE
  5
58
102
{ACAD_REACTORS
330
47
102
}
330
47
100
AcDbScale
 70
     0
300
100:1
140
100.0
141
1.0
290
     0
  0
SCALE
  5
59
102
{ACAD_REACTORS
330
47
102
}
330
47
100
AcDbScale
 70
     0
300
1/128" = 1'-0"
140
0.0078125
141
12.0
290
     0
  0
SCALE
  5
5A
102
{ACAD_REACTORS
330
47
102
}
330
47
100
AcDbScale
 70
     0
300
1/64" = 1'-0"
140
0.015625
141
12.0
290
     0
  0
SCALE
  5
5B
102
{ACAD_REACTORS
330
47
102
}
330
47
100
AcDbScale
 70
     0
300
1/32" = 1'-0"
140
0.03125
141
12.0
290
     0
  0
SCALE
  5
5C
102
{ACAD_REACTORS
330
47
102
}
330
47
100
AcDbScale
 70
     0
300
1/16" = 1'-0"
140
0.0625
141
12.0
290
     0
  0
SCALE
  5
5D
102
{ACAD_REACTORS
330
47
102
}
330
47
100
AcDbScale
 70
     0
300
3/32" = 1'-0"
140
0.09375
141
12.0
290
     0
  0
SCALE
  5
5E
102
{ACAD_REACTORS
330
47
102
}
330
47
100
AcDbScale
 70
     0
300
1/8" = 1'-0"
140
0.125
141
12.0
290
     0
  0
SCALE
  5
5F
102
{ACAD_REACTORS
330
47
102
}
330
47
100
AcDbScale
 70
     0
300
3/16" = 1'-0"
140
0.1875
141
12.0
290
     0
  0
SCALE
  5
60
102
{ACAD_REACTORS
330
47
102
}
330
47
100
AcDbScale
 70
     0
300
1/4" = 1'-0"
140
0.25
141
12.0
290
     0
  0
SCALE
  5
61
102
{ACAD_REACTORS
330
47
102
}
330
47
100
AcDbScale
 70
     0
300
3/8" = 1'-0"
140
0.375
141
12.0
290
     0
  0
SCALE
  5
62
102
{ACAD_REACTORS
330
47
102
}
330
47
100
AcDbScale
 70
     0
300
1/2" = 1'-0"
140
0.5
141
12.0
290
     0
  0
SCALE
  5
63
102
{ACAD_REACTORS
330
47
102
}
330
47
100
AcDbScale
 70
     0
300
3/4" = 1'-0"
140
0.75
141
12.0
290
     0
  0
SCALE
  5
64
102
{ACAD_REACTORS
330
47
102
}
330
47
100
AcDbScale
 70
     0
300
1" = 1'-0"
140
1.0
141
12.0
290
     0
  0
SCALE
  5
65
102
{ACAD_REACTORS
330
47
102
}
330
47
100
AcDbScale
 70
     0
300
1-1/2" = 1'-0"
140
1.5
141
12.0
290
     0
  0
SCALE
  5
66
102
{ACAD_REACTORS
330
47
102
}
330
47
100
AcDbScale
 70
     0
300
3" = 1'-0"
140
3.0
141
12.0
290
     0
  0
SCALE
  5
67
102
{ACAD_REACTORS
330
47
102
}
330
47
100
AcDbScale
 70
     0
300
6" = 1'-0"
140
6.0
141
12.0
290
     0
  0
SCALE
  5
68
102
{ACAD_REACTORS
330
47
102
}
330
47
100
AcDbScale
 70
     0
300
1'-0" = 1'-0"
140
12.0
141
12.0
290
     0
  0
ENDSEC
  0
EOF
