  0
SECTION
  2
HEADER
  9
$ACADVER
  1
AC1015
  9
$ACADMAINTVER
 70
     6
  9
$DWGCODEPAGE
  3
ANSI_1252
  9
$INSBASE
 10
0.0
 20
0.0
 30
0.0
  9
$EXTMIN
 10
0.0
 20
0.0
 30
0.0
  9
$EXTMAX
 10
594.0
 20
420.0
 30
0.0
  9
$LIMMIN
 10
0.0
 20
0.0
  9
$LIMMAX
 10
594.0
 20
420.0
  9
$ORTHOMODE
 70
     0
  9
$REGENMODE
 70
     1
  9
$FILLMODE
 70
     1
  9
$QTEXTMODE
 70
     0
  9
$MIRRTEXT
 70
     1
  9
$LTSCALE
 40
1.0
  9
$ATTMODE
 70
     1
  9
$TEXTSIZE
 40
3.5
  9
$TRACEWID
 40
1.0
  9
$TEXTSTYLE
  7
Standard
  9
$CLAYER
  8
0
  9
$CELTYPE
  6
ByLayer
  9
$CECOLOR
 62
   256
  9
$CELTSCALE
 40
1.0
  9
$DISPSILH
 70
     0
  9
$DIMSCALE
 40
1.0
  9
$DIMASZ
 40
3.302
  9
$DIMEXO
 40
1.0
  9
$DIMDLI
 40
3.75
  9
$DIMRND
 40
0.0
  9
$DIMDLE
 40
0.0
  9
$DIMEXE
 40
1.0
  9
$DIMTP
 40
0.0
  9
$DIMTM
 40
0.0
  9
$DIMTXT
 40
3.5
  9
$DIMCEN
 40
2.5
  9
$DIMTSZ
 40
0.0
  9
$DIMTOL
 70
     0
  9
$DIMLIM
 70
     0
  9
$DIMTIH
 70
     1
  9
$DIMTOH
 70
     1
  9
$DIMSE1
 70
     0
  9
$DIMSE2
 70
     0
  9
$DIMTAD
 70
     1
  9
$DIMZIN
 70
     0
  9
$DIMBLK
  1

  9
$DIMASO
 70
     1
  9
$DIMSHO
 70
     1
  9
$DIMPOST
  1

  9
$DIMAPOST
  1

  9
$DIMALT
 70
     0
  9
$DIMALTD
 70
     3
  9
$DIMALTF
 40
0.0393700787
  9
$DIMLFAC
 40
10.0
  9
$DIMTOFL
 70
     1
  9
$DIMTVP
 40
0.0
  9
$DIMTIX
 70
     0
  9
$DIMSOXD
 70
     0
  9
$DIMSAH
 70
     0
  9
$DIMBLK1
  1

  9
$DIMBLK2
  1

  9
$DIMSTYLE
  2
ISO-25
  9
$DIMCLRD
 70
     0
  9
$DIMCLRE
 70
     0
  9
$DIMCLRT
 70
     0
  9
$DIMTFAC
 40
1.0
  9
$DIMGAP
 40
1.524
  9
$DIMJUST
 70
     0
  9
$DIMSD1
 70
     0
  9
$DIMSD2
 70
     0
  9
$DIMTOLJ
 70
     0
  9
$DIMTZIN
 70
     0
  9
$DIMALTZ
 70
     0
  9
$DIMALTTZ
 70
     0
  9
$DIMUPT
 70
     0
  9
$DIMDEC
 70
     2
  9
$DIMTDEC
 70
     2
  9
$DIMALTU
 70
     2
  9
$DIMALTTD
 70
     3
  9
$DIMTXSTY
  7
Standard
  9
$DIMAUNIT
 70
     0
  9
$DIMADEC
 70
     2
  9
$DIMALTRND
 40
0.0
  9
$DIMAZIN
 70
     0
  9
$DIMDSEP
 70
    44
  9
$DIMATFIT
 70
     3
  9
$DIMFRAC
 70
     0
  9
$DIMLDRBLK
  1

  9
$DIMLUNIT
 70
     2
  9
$DIMLWD
 70
    -2
  9
$DIMLWE
 70
    -2
  9
$DIMTMOVE
 70
     0
  9
$LUNITS
 70
     2
  9
$LUPREC
 70
     2
  9
$SKETCHINC
 40
1.0
  9
$FILLETRAD
 40
10.0
  9
$AUNITS
 70
     0
  9
$AUPREC
 70
     2
  9
$MENU
  1
.
  9
$ELEVATION
 40
0.0
  9
$PELEVATION
 40
0.0
  9
$THICKNESS
 40
0.0
  9
$LIMCHECK
 70
     0
  9
$CHAMFERA
 40
0.0
  9
$CHAMFERB
 40
0.0
  9
$CHAMFERC
 40
0.0
  9
$CHAMFERD
 40
0.0
  9
$SKPOLY
 70
     0
  9
$TDCREATE
 40
2458521.623472963
  9
$TDUCREATE
 40
2458521.581806296
  9
$TDUPDATE
 40
2458521.623474051
  9
$TDUUPDATE
 40
2458521.581807384
  9
$TDINDWG
 40
0.0000000116
  9
$TDUSRTIMER
 40
0.0000000116
  9
$USRTIMER
 70
     1
  9
$ANGBASE
 50
0.0
  9
$ANGDIR
 70
     0
  9
$PDMODE
 70
     0
  9
$PDSIZE
 40
-1.0
  9
$PLINEWID
 40
0.0
  9
$SPLFRAME
 70
     0
  9
$SPLINETYPE
 70
     6
  9
$SPLINESEGS
 70
     8
  9
$HANDSEED
  5
4A9
  9
$SURFTAB1
 70
     6
  9
$SURFTAB2
 70
     6
  9
$SURFTYPE
 70
     6
  9
$SURFU
 70
     6
  9
$SURFV
 70
     6
  9
$UCSBASE
  2

  9
$UCSNAME
  2

  9
$UCSORG
 10
0.0
 20
0.0
 30
0.0
  9
$UCSXDIR
 10
1.0
 20
0.0
 30
0.0
  9
$UCSYDIR
 10
0.0
 20
1.0
 30
0.0
  9
$UCSORTHOREF
  2

  9
$UCSORTHOVIEW
 70
     0
  9
$UCSORGTOP
 10
0.0
 20
0.0
 30
0.0
  9
$UCSORGBOTTOM
 10
0.0
 20
0.0
 30
0.0
  9
$UCSORGLEFT
 10
0.0
 20
0.0
 30
0.0
  9
$UCSORGRIGHT
 10
0.0
 20
0.0
 30
0.0
  9
$UCSORGFRONT
 10
0.0
 20
0.0
 30
0.0
  9
$UCSORGBACK
 10
0.0
 20
0.0
 30
0.0
  9
$PUCSBASE
  2

  9
$PUCSNAME
  2

  9
$PUCSORG
 10
0.0
 20
0.0
 30
0.0
  9
$PUCSXDIR
 10
1.0
 20
0.0
 30
0.0
  9
$PUCSYDIR
 10
0.0
 20
1.0
 30
0.0
  9
$PUCSORTHOREF
  2

  9
$PUCSORTHOVIEW
 70
     0
  9
$PUCSORGTOP
 10
0.0
 20
0.0
 30
0.0
  9
$PUCSORGBOTTOM
 10
0.0
 20
0.0
 30
0.0
  9
$PUCSORGLEFT
 10
0.0
 20
0.0
 30
0.0
  9
$PUCSORGRIGHT
 10
0.0
 20
0.0
 30
0.0
  9
$PUCSORGFRONT
 10
0.0
 20
0.0
 30
0.0
  9
$PUCSORGBACK
 10
0.0
 20
0.0
 30
0.0
  9
$USERI1
 70
     0
  9
$USERI2
 70
     0
  9
$USERI3
 70
     0
  9
$USERI4
 70
     0
  9
$USERI5
 70
     0
  9
$USERR1
 40
0.0
  9
$USERR2
 40
0.0
  9
$USERR3
 40
0.0
  9
$USERR4
 40
0.0
  9
$USERR5
 40
0.0
  9
$WORLDVIEW
 70
     1
  9
$SHADEDGE
 70
     3
  9
$SHADEDIF
 70
    70
  9
$TILEMODE
 70
     1
  9
$MAXACTVP
 70
    64
  9
$PINSBASE
 10
0.0
 20
0.0
 30
0.0
  9
$PLIMCHECK
 70
     0
  9
$PEXTMIN
 10
1.0000000000E+20
 20
1.0000000000E+20
 30
1.0000000000E+20
  9
$PEXTMAX
 10
-1.0000000000E+20
 20
-1.0000000000E+20
 30
-1.0000000000E+20
  9
$PLIMMIN
 10
0.0
 20
0.0
  9
$PLIMMAX
 10
420.0
 20
297.0
  9
$UNITMODE
 70
     0
  9
$VISRETAIN
 70
     1
  9
$PLINEGEN
 70
     0
  9
$PSLTSCALE
 70
     1
  9
$TREEDEPTH
 70
  3020
  9
$CMLSTYLE
  2
Standard
  9
$CMLJUST
 70
     0
  9
$CMLSCALE
 40
20.0
  9
$PROXYGRAPHICS
 70
     1
  9
$MEASUREMENT
 70
     1
  9
$CELWEIGHT
370
    -1
  9
$ENDCAPS
280
     0
  9
$JOINSTYLE
280
     0
  9
$LWDISPLAY
290
     1
  9
$INSUNITS
 70
     4
  9
$HYPERLINKBASE
  1

  9
$STYLESHEET
  1

  9
$XEDIT
290
     1
  9
$CEPSNTYPE
380
     0
  9
$PSTYLEMODE
290
     1
  9
$FINGERPRINTGUID
  2
{5D69EBD4-DEB9-4BA7-8910-264941C8A239}
  9
$VERSIONGUID
  2
{FAEB1C32-E019-11D5-929B-00C0DF256EC4}
  9
$EXTNAMES
290
     1
  9
$PSVPSCALE
 40
0.0
  9
$OLESTARTUP
290
     0
  0
ENDSEC
  0
SECTION
  2
CLASSES
  0
CLASS
  1
ACDBDICTIONARYWDFLT
  2
AcDbDictionaryWithDefault
  3
ObjectDBX Classes
 90
        0
280
     0
281
     0
  0
CLASS
  1
VISUALSTYLE
  2
AcDbVisualStyle
  3
ObjectDBX Classes
 90
     4095
280
     0
281
     0
  0
CLASS
  1
MATERIAL
  2
AcDbMaterial
  3
ObjectDBX Classes
 90
     1153
280
     0
281
     0
  0
CLASS
  1
SCALE
  2
AcDbScale
  3
ObjectDBX Classes
 90
     1153
280
     0
281
     0
  0
CLASS
  1
TABLESTYLE
  2
AcDbTableStyle
  3
ObjectDBX Classes
 90
     4095
280
     0
281
     0
  0
CLASS
  1
MLEADERSTYLE
  2
AcDbMLeaderStyle
  3
ACDB_MLEADERSTYLE_CLASS
 90
     4095
280
     0
281
     0
  0
CLASS
  1
SUN
  2
AcDbSun
  3
SCENEOE
 90
     1153
280
     0
281
     0
  0
CLASS
  1
ACDBPLACEHOLDER
  2
AcDbPlaceHolder
  3
ObjectDBX Classes
 90
        0
280
     0
281
     0
  0
CLASS
  1
LAYOUT
  2
AcDbLayout
  3
ObjectDBX Classes
 90
        0
280
     0
281
     0
  0
ENDSEC
  0
SECTION
  2
TABLES
  0
TABLE
  2
VPORT
  5
8
330
0
100
AcDbSymbolTable
 70
     1
  0
VPORT
  5
29
330
8
100
AcDbSymbolTableRecord
100
AcDbViewportTableRecord
  2
*Active
 70
     0
 10
0.0
 20
0.0
 11
1.0
 21
1.0
 12
297.0
 22
210.0
 13
0.0
 23
0.0
 14
10.0
 24
10.0
 15
10.0
 25
10.0
 16
0.0
 26
0.0
 36
1.0
 17
0.0
 27
0.0
 37
0.0
 40
420.0
 41
1.4142857143
 42
50.0
 43
0.0
 44
0.0
 50
0.0
 51
0.0
 71
     0
 72
  2000
 73
     1
 74
     3
 75
     0
 76
     0
 77
     0
 78
     0
281
     0
 65
     1
110
0.0
120
0.0
130
0.0
111
1.0
121
0.0
131
0.0
112
0.0
122
1.0
132
0.0
 79
     0
146
0.0
  0
ENDTAB
  0
TABLE
  2
LTYPE
  5
5
330
0
100
AcDbSymbolTable
 70
     6
  0
LTYPE
  5
14
330
5
100
AcDbSymbolTableRecord
100
AcDbLinetypeTableRecord
  2
ByBlock
 70
     0
  3

 72
    65
 73
     0
 40
0.0
  0
LTYPE
  5
15
330
5
100
AcDbSymbolTableRecord
100
AcDbLinetypeTableRecord
  2
ByLayer
 70
     0
  3

 72
    65
 73
     0
 40
0.0
  0
LTYPE
  5
16
330
5
100
AcDbSymbolTableRecord
100
AcDbLinetypeTableRecord
  2
Continuous
 70
     0
  3
Solid line
 72
    65
 73
     0
 40
0.0
  0
LTYPE
  5
6E
330
5
100
AcDbSymbolTableRecord
100
AcDbLinetypeTableRecord
  2
HIDDEN
 70
     0
  3
Hidden __ __ __ __ __ __ __ __ __ __ __ __ __ __
 72
    65
 73
     2
 40
1.905
 49
1.27
 74
     0
 49
-0.635
 74
     0
  0
LTYPE
  5
6F
330
5
100
AcDbSymbolTableRecord
100
AcDbLinetypeTableRecord
  2
PHANTOM
 70
     0
  3
Phantom ______  __  __  ______  __  __  ______
 72
    65
 73
     6
 40
12.7
 49
6.35
 74
     0
 49
-1.27
 74
     0
 49
1.27
 74
     0
 49
-1.27
 74
     0
 49
1.27
 74
     0
 49
-1.27
 74
     0
  0
LTYPE
  5
70
330
5
100
AcDbSymbolTableRecord
100
AcDbLinetypeTableRecord
  2
CENTER
 70
     0
  3
Center ____ _ ____ _ ____ _ ____ _ ____ _ ____
 72
    65
 73
     4
 40
10.16
 49
6.35
 74
     0
 49
-1.27
 74
     0
 49
1.27
 74
     0
 49
-1.27
 74
     0
  0
LTYPE
  5
71
330
5
100
AcDbSymbolTableRecord
100
AcDbLinetypeTableRecord
  2
CENTERX2
 70
     0
  3
Center (2x) ________  __  ________  __  _____
 72
    65
 73
     4
 40
20.32
 49
12.7
 74
     0
 49
-2.54
 74
     0
 49
2.54
 74
     0
 49
-2.54
 74
     0
  0
LTYPE
  5
72
330
5
100
AcDbSymbolTableRecord
100
AcDbLinetypeTableRecord
  2
DOT2
 70
     0
  3
Dot (.5x) ........................................
 72
    65
 73
     2
 40
0.635
 49
0.0
 74
     0
 49
-0.635
 74
     0
  0
ENDTAB
  0
TABLE
  2
LAYER
  5
2
330
0
100
AcDbSymbolTable
 70
    37
  0
LAYER
  5
10
330
2
100
AcDbSymbolTableRecord
100
AcDbLayerTableRecord
  2
0
 70
     0
 62
     7
  6
Continuous
370
    -3
390
F
  0
LAYER
  5
73
330
2
100
AcDbSymbolTableRecord
100
AcDbLayerTableRecord
  2
SLD-0
 70
     0
 62
     7
  6
Continuous
370
    -3
390
F
  0
LAYER
  5
74
330
2
100
AcDbSymbolTableRecord
100
AcDbLayerTableRecord
  2
RAHMEN025
 70
     0
 62
     7
  6
Continuous
370
    -3
390
F
  0
LAYER
  5
75
330
2
100
AcDbSymbolTableRecord
100
AcDbLayerTableRecord
  2
RAHMEN07
 70
     0
 62
     5
  6
Continuous
370
    -3
390
F
  0
LAYER
  5
76
330
2
100
AcDbSymbolTableRecord
100
AcDbLayerTableRecord
  2
RAHMEN05
 70
     0
 62
     6
  6
Continuous
370
    -3
390
F
  0
LAYER
  5
77
330
2
100
AcDbSymbolTableRecord
100
AcDbLayerTableRecord
  2
TB
 70
     0
 62
     7
  6
Continuous
370
    -3
390
F
  0
LAYER
  5
78
330
2
100
AcDbSymbolTableRecord
100
AcDbLayerTableRecord
  2
1-VIDNO
 70
     0
 62
     5
  6
Continuous
370
    -3
390
F
  0
LAYER
  5
79
330
2
100
AcDbSymbolTableRecord
100
AcDbLayerTableRecord
  2
2-NEVIDNO
 70
     0
 62
     5
  6
HIDDEN
370
    -3
390
F
  0
LAYER
  5
7A
330
2
100
AcDbSymbolTableRecord
100
AcDbLayerTableRecord
  2
O-GLAVE
 70
     0
 62
     5
  6
Continuous
370
    -3
390
F
  0
LAYER
  5
7B
330
2
100
AcDbSymbolTableRecord
100
AcDbLayerTableRecord
  2
O-TEKST
 70
     0
 62
     7
  6
Continuous
370
    -3
390
F
  0
LAYER
  5
7C
330
2
100
AcDbSymbolTableRecord
100
AcDbLayerTableRecord
  2
O-ZUNANJI
 70
     0
 62
     7
  6
Continuous
370
    -3
390
F
  0
LAYER
  5
7D
330
2
100
AcDbSymbolTableRecord
100
AcDbLayerTableRecord
  2
SLD-DEFPOINTS
 70
     0
 62
     7
  6
Continuous
370
    -3
390
F
  0
LAYER
  5
7E
330
2
100
AcDbSymbolTableRecord
100
AcDbLayerTableRecord
  2
3-POMOZNO
 70
     0
 62
     4
  6
Continuous
370
    -3
390
F
  0
LAYER
  5
7F
330
2
100
AcDbSymbolTableRecord
100
AcDbLayerTableRecord
  2
4-SREDNJICA
 70
     0
 62
     1
  6
CENTER
370
    -3
390
F
  0
LAYER
  5
80
330
2
100
AcDbSymbolTableRecord
100
AcDbLayerTableRecord
  2
5-SRAFURA
 70
     0
 62
     7
  6
Continuous
370
    -3
390
F
  0
LAYER
  5
81
330
2
100
AcDbSymbolTableRecord
100
AcDbLayerTableRecord
  2
6-KOTE
 70
     0
 62
     7
  6
Continuous
370
    -3
390
F
  0
LAYER
  5
82
330
2
100
AcDbSymbolTableRecord
100
AcDbLayerTableRecord
  2
7-TEKST
 70
     0
 62
     7
  6
Continuous
370
    -3
390
F
  0
LAYER
  5
83
330
2
100
AcDbSymbolTableRecord
100
AcDbLayerTableRecord
  2
8-VARJENJA
 70
     0
 62
     1
  6
Continuous
370
    -3
390
F
  0
LAYER
  5
84
330
2
100
AcDbSymbolTableRecord
100
AcDbLayerTableRecord
  2
BEMASSUNG
 70
     0
 62
     7
  6
Continuous
370
    -3
390
F
  0
LAYER
  5
85
330
2
100
AcDbSymbolTableRecord
100
AcDbLayerTableRecord
  2
UMRISS03
 70
     0
 62
     7
  6
Continuous
370
    -3
390
F
  0
LAYER
  5
86
330
2
100
AcDbSymbolTableRecord
100
AcDbLayerTableRecord
  2
UMRISS02
 70
     0
 62
     7
  6
Continuous
370
    -3
390
F
  0
LAYER
  5
87
330
2
100
AcDbSymbolTableRecord
100
AcDbLayerTableRecord
  2
HILFSLINIEN
 70
     0
 62
     7
  6
Continuous
370
    -3
390
F
  0
LAYER
  5
88
330
2
100
AcDbSymbolTableRecord
100
AcDbLayerTableRecord
  2
UMRISS03_-PSPAC_
 70
     0
 62
     7
  6
Continuous
370
    -3
390
F
  0
LAYER
  5
89
330
2
100
AcDbSymbolTableRecord
100
AcDbLayerTableRecord
  2
ACA_VARSAVE
 70
     0
 62
     7
  6
Continuous
370
    -3
390
F
  0
LAYER
  5
8A
330
2
100
AcDbSymbolTableRecord
100
AcDbLayerTableRecord
  2
KONTUREN
 70
     0
 62
     7
  6
Continuous
370
    -3
390
F
  0
LAYER
  5
8B
330
2
100
AcDbSymbolTableRecord
100
AcDbLayerTableRecord
  2
ACHSE
 70
     0
 62
     7
  6
Continuous
370
    -3
390
F
  0
LAYER
  5
8C
330
2
100
AcDbSymbolTableRecord
100
AcDbLayerTableRecord
  2
UNSICHTBAR
 70
     0
 62
     7
  6
Continuous
370
    -3
390
F
  0
LAYER
  5
8D
330
2
100
AcDbSymbolTableRecord
100
AcDbLayerTableRecord
  2
MASSE
 70
     0
 62
     7
  6
Continuous
370
    -3
390
F
  0
LAYER
  5
8E
330
2
100
AcDbSymbolTableRecord
100
AcDbLayerTableRecord
  2
RAND
 70
     0
 62
     7
  6
Continuous
370
    -3
390
F
  0
LAYER
  5
8F
330
2
100
AcDbSymbolTableRecord
100
AcDbLayerTableRecord
  2
D-TEXT
 70
     0
 62
     7
  6
Continuous
370
    -3
390
F
  0
LAYER
  5
90
330
2
100
AcDbSymbolTableRecord
100
AcDbLayerTableRecord
  2
F-TEXT
 70
     0
 62
     7
  6
Continuous
370
    -3
390
F
  0
LAYER
  5
91
330
2
100
AcDbSymbolTableRecord
100
AcDbLayerTableRecord
  2
I-TEXT
 70
     0
 62
     7
  6
Continuous
370
    -3
390
F
  0
LAYER
  5
92
330
2
100
AcDbSymbolTableRecord
100
AcDbLayerTableRecord
  2
D-TEXT-FETT
 70
     0
 62
     7
  6
Continuous
370
    -3
390
F
  0
LAYER
  5
93
330
2
100
AcDbSymbolTableRecord
100
AcDbLayerTableRecord
  2
F-TEXT-FETT
 70
     0
 62
     7
  6
Continuous
370
    -3
390
F
  0
LAYER
  5
94
330
2
100
AcDbSymbolTableRecord
100
AcDbLayerTableRecord
  2
I-TEXT-FETT
 70
     0
 62
     7
  6
Continuous
370
    -3
390
F
  0
LAYER
  5
95
330
2
100
AcDbSymbolTableRecord
100
AcDbLayerTableRecord
  2
TEXT-D-F-I
 70
     0
 62
     7
  6
Continuous
370
    -3
390
F
  0
LAYER
  5
96
330
2
100
AcDbSymbolTableRecord
100
AcDbLayerTableRecord
  2
TEXT-D-F-I-FETT
 70
     0
 62
     7
  6
Continuous
370
    -3
390
F
  0
ENDTAB
  0
TABLE
  2
STYLE
  5
3
330
0
100
AcDbSymbolTable
 70
     2
  0
STYLE
  5
11
330
3
100
AcDbSymbolTableRecord
100
AcDbTextStyleTableRecord
  2
Standard
 70
     0
 40
0.0
 41
1.0
 50
0.0
 71
     0
 42
3.5
  3
txt
  4

  0
STYLE
  5
C6
330
3
100
AcDbSymbolTableRecord
100
AcDbTextStyleTableRecord
  2
SLDTEXTSTYLE0
 70
     0
 40
0.0
 41
0.75
 50
0.0
 71
     0
 42
3.5
  3
TXT
  4

  0
ENDTAB
  0
TABLE
  2
VIEW
  5
6
330
0
100
AcDbSymbolTable
 70
     0
  0
ENDTAB
  0
TABLE
  2
UCS
  5
7
330
0
100
AcDbSymbolTable
 70
     0
  0
ENDTAB
  0
TABLE
  2
APPID
  5
9
330
0
100
AcDbSymbolTable
 70
     1
  0
APPID
  5
12
330
9
100
AcDbSymbolTableRecord
100
AcDbRegAppTableRecord
  2
ACAD
 70
     0
  0
ENDTAB
  0
TABLE
  2
DIMSTYLE
  5
A
330
0
100
AcDbSymbolTable
 70
     1
100
AcDbDimStyleTable
  0
DIMSTYLE
105
27
330
A
100
AcDbSymbolTableRecord
100
AcDbDimStyleTableRecord
  2
ISO-25
 70
     0
 41
2.5
 42
0.625
 43
3.75
 44
1.25
 73
     0
 74
     0
 77
     1
 78
     8
140
2.5
141
2.5
143
0.0393700787
147
0.625
171
     3
172
     1
178
     0
271
     2
272
     2
274
     3
278
    44
283
     0
284
     8
340
11
  0
ENDTAB
  0
TABLE
  2
BLOCK_RECORD
  5
1
330
0
100
AcDbSymbolTable
 70
     3
  0
BLOCK_RECORD
  5
1F
330
1
100
AcDbSymbolTableRecord
100
AcDbBlockTableRecord
  2
*Model_Space
340
22
  0
BLOCK_RECORD
  5
1B
330
1
100
AcDbSymbolTableRecord
100
AcDbBlockTableRecord
  2
*Paper_Space
340
1E
  0
BLOCK_RECORD
  5
23
330
1
100
AcDbSymbolTableRecord
100
AcDbBlockTableRecord
  2
*Paper_Space0
340
26
  0
BLOCK_RECORD
  5
1CC
330
1
100
AcDbSymbolTableRecord
100
AcDbBlockTableRecord
  2
SW_NOTE_0
340
0
102
{BLKREFS
331
1D1
102
}
  0
BLOCK_RECORD
  5
295
330
1
100
AcDbSymbolTableRecord
100
AcDbBlockTableRecord
  2
SW_NOTE_1
340
0
102
{BLKREFS
331
29A
102
}
  0
ENDTAB
  0
ENDSEC
  0
SECTION
  2
BLOCKS
  0
BLOCK
  5
20
330
1F
100
AcDbEntity
  8
0
100
AcDbBlockBegin
  2
*Model_Space
 70
     0
 10
0.0
 20
0.0
 30
0.0
  3
*Model_Space
  1

  0
ENDBLK
  5
21
330
1F
100
AcDbEntity
  8
0
100
AcDbBlockEnd
  0
BLOCK
  5
1C
330
1B
100
AcDbEntity
 67
     1
  8
0
100
AcDbBlockBegin
  2
*Paper_Space
 70
     0
 10
0.0
 20
0.0
 30
0.0
  3
*Paper_Space
  1

  0
ENDBLK
  5
1D
330
1B
100
AcDbEntity
 67
     1
  8
0
100
AcDbBlockEnd
  0
BLOCK
  5
24
330
23
100
AcDbEntity
  8
0
100
AcDbBlockBegin
  2
*Paper_Space0
 70
     0
 10
0.0
 20
0.0
 30
0.0
  3
*Paper_Space0
  1

  0
ENDBLK
  5
25
330
23
100
AcDbEntity
  8
0
100
AcDbBlockEnd
  0
BLOCK
  5
1CD
330
1CC
100
AcDbEntity
  8
0
100
AcDbBlockBegin
  2
SW_NOTE_0
 70
     0
 10
0.0
 20
0.0
 30
0.0
  3
SW_NOTE_0
  1

  0
MTEXT
  5
1CF
330
1CC
100
AcDbEntity
  8
O-TEKST
 62
     0
100
AcDbMText
 10
16.0734375
 20
8.1855801476
 30
0.0
 40
6.35
 41
0.0
 71
     2
 72
     1
  1
SCHNITT
  7
SLDTEXTSTYLE0
 73
     1
 44
1.0
  0
MTEXT
  5
1D0
330
1CC
100
AcDbEntity
  8
O-TEKST
 62
     0
100
AcDbMText
 10
38.5538176
 20
5.3469457771
 30
0.0
 40
3.5
 41
0.0
 71
     2
 72
     1
  1
A-A
  7
SLDTEXTSTYLE0
 73
     1
 44
1.0
  0
ENDBLK
  5
1CE
330
1CC
100
AcDbEntity
  8
0
100
AcDbBlockEnd
  0
BLOCK
  5
296
330
295
100
AcDbEntity
  8
0
100
AcDbBlockBegin
  2
SW_NOTE_1
 70
     0
 10
0.0
 20
0.0
 30
0.0
  3
SW_NOTE_1
  1

  0
MTEXT
  5
298
330
295
100
AcDbEntity
  8
O-TEKST
 62
     0
100
AcDbMText
 10
16.0734375
 20
8.1855801476
 30
0.0
 40
6.35
 41
0.0
 71
     2
 72
     1
  1
SCHNITT
  7
SLDTEXTSTYLE0
 73
     1
 44
1.0
  0
MTEXT
  5
299
330
295
100
AcDbEntity
  8
O-TEKST
 62
     0
100
AcDbMText
 10
38.0069426
 20
5.3469457771
 30
0.0
 40
3.5
 41
0.0
 71
     2
 72
     1
  1
B-B
  7
SLDTEXTSTYLE0
 73
     1
 44
1.0
  0
ENDBLK
  5
297
330
295
100
AcDbEntity
  8
0
100
AcDbBlockEnd
  0
ENDSEC
  0
SECTION
  2
ENTITIES
  0
LINE
  5
97
330
1F
100
AcDbEntity
  8
0
  6
Continuous
 62
     7
370
    25
100
AcDbLine
 10
73.3366949776
 20
87.0199999888
 30
0.0
 11
73.7621946553
 21
87.0199999888
 31
0.0
  0
ARC
  5
98
330
1F
100
AcDbEntity
  8
0
  6
Continuous
 62
     7
370
    25
100
AcDbCircle
 10
73.3366948941
 20
86.52
 30
0.0
 40
0.5
100
AcDbArc
 50
90.0
 51
270.0
  0
LINE
  5
99
330
1F
100
AcDbEntity
  8
0
  6
Continuous
 62
     7
370
    25
100
AcDbLine
 10
73.7621946553
 20
86.0200000112
 30
0.0
 11
73.3366949776
 21
86.0200000112
 31
0.0
  0
ARC
  5
9A
330
1F
100
AcDbEntity
  8
0
  6
Continuous
 62
     7
370
    25
100
AcDbCircle
 10
74.3866948941
 20
86.52
 30
0.0
 40
0.8000000000000104
100
AcDbArc
 50
218.6821874535
 51
321.3178125465
  0
LINE
  5
9B
330
1F
100
AcDbEntity
  8
0
  6
Continuous
 62
     7
370
    25
100
AcDbLine
 10
75.436694763
 20
86.0200000112
 30
0.0
 11
75.0111950854
 21
86.0200000112
 31
0.0
  0
ARC
  5
9C
330
1F
100
AcDbEntity
  8
0
  6
Continuous
 62
     7
370
    25
100
AcDbCircle
 10
75.4366948941
 20
86.52
 30
0.0
 40
0.5
100
AcDbArc
 50
270.0
 51
90.0
  0
LINE
  5
9D
330
1F
100
AcDbEntity
  8
0
  6
Continuous
 62
     7
370
    25
100
AcDbLine
 10
75.0111950854
 20
87.0199999888
 30
0.0
 11
75.436694763
 21
87.0199999888
 31
0.0
  0
ARC
  5
9E
330
1F
100
AcDbEntity
  8
0
  6
Continuous
 62
     7
370
    25
100
AcDbCircle
 10
74.3866948941
 20
86.52
 30
0.0
 40
0.8000000000000104
100
AcDbArc
 50
38.6821874535
 51
141.3178125465
  0
ARC
  5
9F
330
1F
100
AcDbEntity
  8
0
  6
Continuous
 62
     7
370
    25
100
AcDbCircle
 10
114.5366948941
 20
86.52
 30
0.0
 40
0.5
100
AcDbArc
 50
90.0
 51
270.0
  0
LINE
  5
A0
330
1F
100
AcDbEntity
  8
0
  6
Continuous
 62
     7
370
    25
100
AcDbLine
 10
114.5366950253
 20
86.0200000112
 30
0.0
 11
114.9621947029
 21
86.0200000112
 31
0.0
  0
ARC
  5
A1
330
1F
100
AcDbEntity
  8
0
  6
Continuous
 62
     7
370
    25
100
AcDbCircle
 10
115.5866948941
 20
86.52
 30
0.0
 40
0.7999999999999993
100
AcDbArc
 50
218.6821874535
 51
321.3178125465
  0
LINE
  5
A2
330
1F
100
AcDbEntity
  8
0
  6
Continuous
 62
     7
370
    25
100
AcDbLine
 10
116.211195133
 20
86.0200000112
 30
0.0
 11
116.6366948107
 21
86.0200000112
 31
0.0
  0
ARC
  5
A3
330
1F
100
AcDbEntity
  8
0
  6
Continuous
 62
     7
370
    25
100
AcDbCircle
 10
116.6366948941
 20
86.52
 30
0.0
 40
0.5
100
AcDbArc
 50
270.0
 51
90.0
  0
LINE
  5
A4
330
1F
100
AcDbEntity
  8
0
  6
Continuous
 62
     7
370
    25
100
AcDbLine
 10
116.6366948107
 20
87.0199999888
 30
0.0
 11
116.211195133
 21
87.0199999888
 31
0.0
  0
ARC
  5
A5
330
1F
100
AcDbEntity
  8
0
  6
Continuous
 62
     7
370
    25
100
AcDbCircle
 10
115.5866948941
 20
86.52
 30
0.0
 40
0.8000000000000104
100
AcDbArc
 50
38.6821874535
 51
141.3178125465
  0
LINE
  5
A6
330
1F
100
AcDbEntity
  8
0
  6
Continuous
 62
     7
370
    25
100
AcDbLine
 10
114.9621947029
 20
87.0199999888
 30
0.0
 11
114.5366950253
 21
87.0199999888
 31
0.0
  0
ARC
  5
A7
330
1F
100
AcDbEntity
  8
0
  6
Continuous
 62
     7
370
    25
100
AcDbCircle
 10
128.5866948941
 20
52.92
 30
0.0
 40
2.000000000000007
100
AcDbArc
 50
270.0
 51
0.0
  0
LINE
  5
A8
330
1F
100
AcDbEntity
  8
0
  6
Continuous
 62
     7
370
    25
100
AcDbLine
 10
128.5866944412
 20
50.9199993801
 30
0.0
 11
61.3866953471
 21
50.9199993801
 31
0.0
  0
ARC
  5
A9
330
1F
100
AcDbEntity
  8
0
  6
Continuous
 62
     7
370
    25
100
AcDbCircle
 10
61.3866948941
 20
52.92
 30
0.0
 40
2.000000000000007
100
AcDbArc
 50
180.0
 51
270.0
  0
LINE
  5
AA
330
1F
100
AcDbEntity
  8
0
  6
Continuous
 62
     7
370
    25
100
AcDbLine
 10
59.3866942743
 20
52.920000453
 30
0.0
 11
59.3866942743
 21
120.119999547
 31
0.0
  0
ARC
  5
AB
330
1F
100
AcDbEntity
  8
0
  6
Continuous
 62
     7
370
    25
100
AcDbCircle
 10
61.3866948941
 20
120.12
 30
0.0
 40
2.0
100
AcDbArc
 50
90.0
 51
180.0
  0
LINE
  5
AC
330
1F
100
AcDbEntity
  8
0
  6
Continuous
 62
     7
370
    25
100
AcDbLine
 10
130.586695514
 20
120.119999547
 30
0.0
 11
130.586695514
 21
52.920000453
 31
0.0
  0
ARC
  5
AD
330
1F
100
AcDbEntity
  8
0
  6
Continuous
 62
     7
370
    25
100
AcDbCircle
 10
128.5866948941
 20
120.12
 30
0.0
 40
2.0
100
AcDbArc
 50
0.0
 51
90.0
  0
LINE
  5
AE
330
1F
100
AcDbEntity
  8
0
  6
Continuous
 62
     7
370
    25
100
AcDbLine
 10
61.3866953471
 20
122.1200006199
 30
0.0
 11
128.5866944412
 21
122.1200006199
 31
0.0
  0
LINE
  5
AF
330
1F
100
AcDbEntity
  8
0
  6
Continuous
 62
     7
370
    25
100
AcDbLine
 10
58.9866934636
 20
50.5199985695
 30
0.0
 11
59.1866938689
 21
50.7199989748
 31
0.0
  0
LINE
  5
B0
330
1F
100
AcDbEntity
  8
0
  6
Continuous
 62
     7
370
    25
100
AcDbLine
 10
58.9866934636
 20
122.5200014305
 30
0.0
 11
58.9866934636
 21
50.5199985695
 31
0.0
  0
LINE
  5
B1
330
1F
100
AcDbEntity
  8
0
  6
Continuous
 62
     7
370
    25
100
AcDbLine
 10
59.1866938689
 20
122.3200010252
 30
0.0
 11
58.9866934636
 21
122.5200014305
 31
0.0
  0
LINE
  5
B2
330
1F
100
AcDbEntity
  8
0
  6
Continuous
 62
     7
370
    25
100
AcDbLine
 10
59.1866938689
 20
50.7199989748
 30
0.0
 11
59.1866938689
 21
122.3200010252
 31
0.0
  0
LINE
  5
B3
330
1F
100
AcDbEntity
  8
0
  6
Continuous
 62
     7
370
    25
100
AcDbLine
 10
130.9866963247
 20
122.5200014305
 30
0.0
 11
58.9866934636
 21
122.5200014305
 31
0.0
  0
LINE
  5
B4
330
1F
100
AcDbEntity
  8
0
  6
Continuous
 62
     7
370
    25
100
AcDbLine
 10
130.7866959193
 20
122.3200010252
 30
0.0
 11
130.9866963247
 21
122.5200014305
 31
0.0
  0
LINE
  5
B5
330
1F
100
AcDbEntity
  8
0
  6
Continuous
 62
     7
370
    25
100
AcDbLine
 10
59.1866938689
 20
122.3200010252
 30
0.0
 11
130.7866959193
 21
122.3200010252
 31
0.0
  0
LINE
  5
B6
330
1F
100
AcDbEntity
  8
0
  6
Continuous
 62
     7
370
    25
100
AcDbLine
 10
59.1866938689
 20
50.7199989748
 30
0.0
 11
130.7866959193
 21
50.7199989748
 31
0.0
  0
LINE
  5
B7
330
1F
100
AcDbEntity
  8
0
  6
Continuous
 62
     7
370
    25
100
AcDbLine
 10
130.7866959193
 20
50.7199989748
 30
0.0
 11
130.7866959193
 21
122.3200010252
 31
0.0
  0
LINE
  5
B8
330
1F
100
AcDbEntity
  8
0
  6
Continuous
 62
     7
370
    25
100
AcDbLine
 10
130.9866963247
 20
50.5199985695
 30
0.0
 11
130.7866959193
 21
50.7199989748
 31
0.0
  0
LINE
  5
B9
330
1F
100
AcDbEntity
  8
0
  6
Continuous
 62
     7
370
    25
100
AcDbLine
 10
130.9866963247
 20
50.5199985695
 30
0.0
 11
130.9866963247
 21
122.5200014305
 31
0.0
  0
LINE
  5
BA
330
1F
100
AcDbEntity
  8
0
  6
Continuous
 62
     7
370
    25
100
AcDbLine
 10
58.9866934636
 20
50.5199985695
 30
0.0
 11
130.9866963247
 21
50.5199985695
 31
0.0
  0
LINE
  5
BB
330
1F
100
AcDbEntity
  8
0
  6
Continuous
 62
     7
370
    25
100
AcDbLine
 10
134.9866954902
 20
126.520000596
 30
0.0
 11
54.9866942981
 21
126.520000596
 31
0.0
  0
LINE
  5
BC
330
1F
100
AcDbEntity
  8
0
  6
Continuous
 62
     7
370
    25
100
AcDbLine
 10
134.9866954902
 20
46.519999404
 30
0.0
 11
134.9866954902
 21
126.520000596
 31
0.0
  0
LINE
  5
BD
330
1F
100
AcDbEntity
  8
0
  6
Continuous
 62
     7
370
    25
100
AcDbLine
 10
54.9866942981
 20
46.519999404
 30
0.0
 11
134.9866954902
 21
46.519999404
 31
0.0
  0
LINE
  5
BE
330
1F
100
AcDbEntity
  8
0
  6
Continuous
 62
     7
370
    25
100
AcDbLine
 10
54.9866942981
 20
126.520000596
 30
0.0
 11
54.9866942981
 21
46.519999404
 31
0.0
  0
LINE
  5
BF
330
1F
100
AcDbEntity
  8
0
  6
Continuous
 62
     7
370
    25
100
AcDbLine
 10
74.9866945961
 20
87.0491502457
 30
0.0
 11
74.9866945961
 21
85.9908497543
 31
0.0
  0
LINE
  5
C0
330
1F
100
AcDbEntity
  8
0
  6
Continuous
 62
     7
370
    25
100
AcDbLine
 10
114.9866951922
 20
85.9908497543
 30
0.0
 11
114.9866951922
 21
87.0491502457
 31
0.0
  0
LINE
  5
C1
330
1F
100
AcDbEntity
  8
0
  6
PHANTOM
 62
     7
370
    35
100
AcDbLine
 10
94.9866948941
 20
137.0097964847
 30
0.0
 11
94.9866948941
 21
36.0302035153
 31
0.0
  0
LINE
  5
C2
330
1F
100
AcDbEntity
  8
0
  6
Continuous
 62
     7
370
    35
100
AcDbLine
 10
82.9866948941
 20
135.0097964847
 30
0.0
 11
94.9866948941
 21
135.0097964847
 31
0.0
  0
SOLID
  5
C3
330
1F
100
AcDbEntity
  8
0
  6
Continuous
 62
     7
370
    35
100
AcDbTrace
 10
94.9866948941
 20
135.0097964847
 30
0.0
 11
88.9866948941
 21
136.5097964847
 31
0.0
 12
88.9866948941
 22
133.5097964847
 32
0.0
 13
88.9866948941
 23
133.5097964847
 33
0.0
  0
LINE
  5
C4
330
1F
100
AcDbEntity
  8
0
  6
Continuous
 62
     7
370
    35
100
AcDbLine
 10
82.9866948941
 20
38.0302035153
 30
0.0
 11
94.9866948941
 21
38.0302035153
 31
0.0
  0
SOLID
  5
C5
330
1F
100
AcDbEntity
  8
0
  6
Continuous
 62
     7
370
    35
100
AcDbTrace
 10
94.9866948941
 20
38.0302035153
 30
0.0
 11
88.9866948941
 21
39.5302035153
 31
0.0
 12
88.9866948941
 22
36.5302035153
 32
0.0
 13
88.9866948941
 23
36.5302035153
 33
0.0
  0
MTEXT
  5
C7
330
1F
100
AcDbEntity
  8
0
  6
Continuous
 62
     7
100
AcDbMText
 10
82.9866948941
 20
145.096669212
 30
0.0
 40
6.35
 41
0.0
 71
     1
 72
     1
  1
A
  7
SLDTEXTSTYLE0
 73
     1
 44
1.0
  0
MTEXT
  5
C8
330
1F
100
AcDbEntity
  8
0
  6
Continuous
 62
     7
100
AcDbMText
 10
82.9866948941
 20
34.6712748971
 30
0.0
 40
6.35
 41
0.0
 71
     1
 72
     1
  1
A
  7
SLDTEXTSTYLE0
 73
     1
 44
1.0
  0
LINE
  5
C9
330
1F
100
AcDbEntity
  8
0
  6
PHANTOM
 62
     7
370
    35
100
AcDbLine
 10
144.5866948941
 20
86.52
 30
0.0
 11
45.3866948941
 21
86.52
 31
0.0
  0
LINE
  5
CA
330
1F
100
AcDbEntity
  8
0
  6
Continuous
 62
     7
370
    35
100
AcDbLine
 10
142.5866948941
 20
74.52
 30
0.0
 11
142.5866948941
 21
86.52
 31
0.0
  0
SOLID
  5
CB
330
1F
100
AcDbEntity
  8
0
  6
Continuous
 62
     7
370
    35
100
AcDbTrace
 10
142.5866948941
 20
86.52
 30
0.0
 11
141.0866948941
 21
80.52
 31
0.0
 12
144.0866948941
 22
80.52
 32
0.0
 13
144.0866948941
 23
80.52
 33
0.0
  0
LINE
  5
CC
330
1F
100
AcDbEntity
  8
0
  6
Continuous
 62
     7
370
    35
100
AcDbLine
 10
47.3866948941
 20
74.52
 30
0.0
 11
47.3866948941
 21
86.52
 31
0.0
  0
SOLID
  5
CD
330
1F
100
AcDbEntity
  8
0
  6
Continuous
 62
     7
370
    35
100
AcDbTrace
 10
47.3866948941
 20
86.52
 30
0.0
 11
45.8866948941
 21
80.52
 31
0.0
 12
48.8866948941
 22
80.52
 32
0.0
 13
48.8866948941
 23
80.52
 33
0.0
  0
MTEXT
  5
CE
330
1F
100
AcDbEntity
  8
0
  6
Continuous
 62
     7
100
AcDbMText
 10
144.5312185305
 20
84.6068727273
 30
0.0
 40
6.35
 41
0.0
 71
     1
 72
     1
  1
B
  7
SLDTEXTSTYLE0
 73
     1
 44
1.0
  0
MTEXT
  5
CF
330
1F
100
AcDbEntity
  8
0
  6
Continuous
 62
     7
100
AcDbMText
 10
40.5808621669
 20
84.6068727273
 30
0.0
 40
6.35
 41
0.0
 71
     1
 72
     1
  1
B
  7
SLDTEXTSTYLE0
 73
     1
 44
1.0
  0
LINE
  5
D0
330
1F
100
AcDbEntity
  8
0
  6
Continuous
 62
     7
370
    25
100
AcDbLine
 10
243.276695371
 20
53.0199991655
 30
0.0
 11
223.7766960862
 21
53.0199991655
 31
0.0
  0
ARC
  5
D1
330
1F
100
AcDbEntity
  8
0
  6
Continuous
 62
     7
370
    25
100
AcDbCircle
 10
246.7766948941
 20
53.02
 30
0.0
 40
3.5
100
AcDbArc
 50
90.0
 51
180.0
  0
LINE
  5
D2
330
1F
100
AcDbEntity
  8
0
  6
Continuous
 62
     7
370
    25
100
AcDbLine
 10
257.7766934636
 20
56.5199988079
 30
0.0
 11
246.7766920331
 21
56.5199988079
 31
0.0
  0
LINE
  5
D3
330
1F
100
AcDbEntity
  8
0
  6
Continuous
 62
     7
370
    25
100
AcDbLine
 10
257.7766934636
 20
56.5199988079
 30
0.0
 11
257.7766934636
 21
50.7199989748
 31
0.0
  0
LINE
  5
D4
330
1F
100
AcDbEntity
  8
0
  6
Continuous
 62
     7
370
    25
100
AcDbLine
 10
257.7766934636
 20
50.7199989748
 30
0.0
 11
254.2766968015
 21
50.5199985695
 31
0.0
  0
LINE
  5
D5
330
1F
100
AcDbEntity
  8
0
  6
Continuous
 62
     7
370
    25
100
AcDbLine
 10
254.2766968015
 20
46.519999404
 30
0.0
 11
254.2766968015
 21
50.5199985695
 31
0.0
  0
LINE
  5
D6
330
1F
100
AcDbEntity
  8
0
  6
Continuous
 62
     7
370
    25
100
AcDbLine
 10
254.2766968015
 20
46.519999404
 30
0.0
 11
249.2766956094
 21
46.519999404
 31
0.0
  0
LINE
  5
D7
330
1F
100
AcDbEntity
  8
0
  6
Continuous
 62
     7
370
    25
100
AcDbLine
 10
246.777216554
 20
50.5199985695
 30
0.0
 11
249.2766956094
 21
46.519999404
 31
0.0
  0
LINE
  5
D8
330
1F
100
AcDbEntity
  8
0
  6
Continuous
 62
     7
370
    25
100
AcDbLine
 10
243.276695371
 20
50.5199985695
 30
0.0
 11
246.777216554
 21
50.5199985695
 31
0.0
  0
LINE
  5
D9
330
1F
100
AcDbEntity
  8
0
  6
Continuous
 62
     7
370
    25
100
AcDbLine
 10
243.276695371
 20
51.520000596
 30
0.0
 11
243.276695371
 21
50.5199985695
 31
0.0
  0
LINE
  5
DA
330
1F
100
AcDbEntity
  8
0
  6
Continuous
 62
     7
370
    25
100
AcDbLine
 10
223.7766960862
 20
51.520000596
 30
0.0
 11
243.276695371
 21
51.520000596
 31
0.0
  0
LINE
  5
DB
330
1F
100
AcDbEntity
  8
0
  6
Continuous
 62
     7
370
    25
100
AcDbLine
 10
223.7766960862
 20
51.520000596
 30
0.0
 11
223.7766960862
 21
53.0199991655
 31
0.0
  0
LINE
  5
DC
330
1F
100
AcDbEntity
  8
0
  6
Continuous
 62
     7
370
    25
100
AcDbLine
 10
233.2766929868
 20
56.5199988079
 30
0.0
 11
246.7766920331
 21
56.5199988079
 31
0.0
  0
LINE
  5
DD
330
1F
100
AcDbEntity
  8
0
  6
Continuous
 62
     7
370
    25
100
AcDbLine
 10
243.276695371
 20
121.519999404
 30
0.0
 11
223.7766960862
 21
121.519999404
 31
0.0
  0
LINE
  5
DE
330
1F
100
AcDbEntity
  8
0
  6
Continuous
 62
     7
370
    25
100
AcDbLine
 10
243.276695371
 20
121.519999404
 30
0.0
 11
243.276695371
 21
122.5200014305
 31
0.0
  0
LINE
  5
DF
330
1F
100
AcDbEntity
  8
0
  6
Continuous
 62
     7
370
    25
100
AcDbLine
 10
246.777216554
 20
122.5200014305
 30
0.0
 11
243.276695371
 21
122.5200014305
 31
0.0
  0
LINE
  5
E0
330
1F
100
AcDbEntity
  8
0
  6
Continuous
 62
     7
370
    25
100
AcDbLine
 10
246.777216554
 20
122.5200014305
 30
0.0
 11
249.2766956094
 21
126.520000596
 31
0.0
  0
LINE
  5
E1
330
1F
100
AcDbEntity
  8
0
  6
Continuous
 62
     7
370
    25
100
AcDbLine
 10
249.2766956094
 20
126.520000596
 30
0.0
 11
254.2766968015
 21
126.520000596
 31
0.0
  0
LINE
  5
E2
330
1F
100
AcDbEntity
  8
0
  6
Continuous
 62
     7
370
    25
100
AcDbLine
 10
254.2766968015
 20
122.5200014305
 30
0.0
 11
257.7766934636
 21
122.3200010252
 31
0.0
  0
LINE
  5
E3
330
1F
100
AcDbEntity
  8
0
  6
Continuous
 62
     7
370
    25
100
AcDbLine
 10
246.7766920331
 20
116.5200011921
 30
0.0
 11
257.7766934636
 21
116.5200011921
 31
0.0
  0
ARC
  5
E4
330
1F
100
AcDbEntity
  8
0
  6
Continuous
 62
     7
370
    25
100
AcDbCircle
 10
246.7766948941
 20
120.02
 30
0.0
 40
3.5
100
AcDbArc
 50
180.0
 51
270.0
  0
LINE
  5
E5
330
1F
100
AcDbEntity
  8
0
  6
Continuous
 62
     7
370
    25
100
AcDbLine
 10
223.7766960862
 20
120.0200008345
 30
0.0
 11
243.276695371
 21
120.0200008345
 31
0.0
  0
LINE
  5
E6
330
1F
100
AcDbEntity
  8
0
  6
Continuous
 62
     7
370
    25
100
AcDbLine
 10
257.7766934636
 20
122.3200010252
 30
0.0
 11
257.7766934636
 21
116.5200011921
 31
0.0
  0
LINE
  5
E7
330
1F
100
AcDbEntity
  8
0
  6
Continuous
 62
     7
370
    25
100
AcDbLine
 10
254.2766968015
 20
122.5200014305
 30
0.0
 11
254.2766968015
 21
126.520000596
 31
0.0
  0
LINE
  5
E8
330
1F
100
AcDbEntity
  8
0
  6
Continuous
 62
     7
370
    25
100
AcDbLine
 10
223.7766960862
 20
120.0200008345
 30
0.0
 11
223.7766960862
 21
121.519999404
 31
0.0
  0
LINE
  5
E9
330
1F
100
AcDbEntity
  8
0
  6
Continuous
 62
     7
370
    25
100
AcDbLine
 10
246.7766920331
 20
116.5200011921
 30
0.0
 11
233.2766929868
 21
116.5200011921
 31
0.0
  0
LINE
  5
EA
330
1F
100
AcDbEntity
  8
0
  6
Continuous
 62
     7
370
    25
100
AcDbLine
 10
224.6749500039
 20
121.519999404
 30
0.0
 11
224.6749500039
 21
122.5200014305
 31
0.0
  0
LINE
  5
EB
330
1F
100
AcDbEntity
  8
0
  6
Continuous
 62
     7
370
    25
100
AcDbLine
 10
243.276695371
 20
122.5200014305
 30
0.0
 11
224.6749500039
 21
122.5200014305
 31
0.0
  0
LINE
  5
EC
330
1F
100
AcDbEntity
  8
0
  6
Continuous
 62
     7
370
    25
100
AcDbLine
 10
224.6749500039
 20
51.520000596
 30
0.0
 11
224.6749500039
 21
50.5199985695
 31
0.0
  0
LINE
  5
ED
330
1F
100
AcDbEntity
  8
0
  6
Continuous
 62
     7
370
    25
100
AcDbLine
 10
243.276695371
 20
50.5199985695
 30
0.0
 11
224.6749500039
 21
50.5199985695
 31
0.0
  0
LINE
  5
EE
330
1F
100
AcDbEntity
  8
0
  6
Continuous
 62
     7
370
    25
100
AcDbLine
 10
249.2766956094
 20
126.520000596
 30
0.0
 11
233.2766929868
 21
126.520000596
 31
0.0
  0
LINE
  5
EF
330
1F
100
AcDbEntity
  8
0
  6
Continuous
 62
     7
370
    25
100
AcDbLine
 10
249.2766956094
 20
46.519999404
 30
0.0
 11
233.2766929868
 21
46.519999404
 31
0.0
  0
LINE
  5
F0
330
1F
100
AcDbEntity
  8
0
  6
Continuous
 62
     7
370
    25
100
AcDbLine
 10
223.7766960862
 20
50.5321072531
 30
0.0
 11
223.5769132379
 21
50.5199985695
 31
0.0
  0
LINE
  5
F1
330
1F
100
AcDbEntity
  8
0
  6
Continuous
 62
     7
370
    25
100
AcDbLine
 10
224.6749500039
 20
50.5199985695
 30
0.0
 11
223.5769132379
 21
50.5199985695
 31
0.0
  0
LINE
  5
F2
330
1F
100
AcDbEntity
  8
0
  6
Continuous
 62
     7
370
    25
100
AcDbLine
 10
223.7766960862
 20
51.520000596
 30
0.0
 11
223.7766960862
 21
50.5321072531
 31
0.0
  0
LINE
  5
F3
330
1F
100
AcDbEntity
  8
0
  6
Continuous
 62
     7
370
    25
100
AcDbLine
 10
223.7766960862
 20
122.5078927469
 30
0.0
 11
223.5769132379
 21
122.5200014305
 31
0.0
  0
LINE
  5
F4
330
1F
100
AcDbEntity
  8
0
  6
Continuous
 62
     7
370
    25
100
AcDbLine
 10
224.6749500039
 20
122.5200014305
 30
0.0
 11
223.5769132379
 21
122.5200014305
 31
0.0
  0
LINE
  5
F5
330
1F
100
AcDbEntity
  8
0
  6
Continuous
 62
     7
370
    25
100
AcDbLine
 10
223.7766960862
 20
121.519999404
 30
0.0
 11
223.7766960862
 21
122.5078927469
 31
0.0
  0
LINE
  5
F6
330
1F
100
AcDbEntity
  8
0
  6
Continuous
 62
     7
370
    25
100
AcDbLine
 10
223.7766960862
 20
56.5199988079
 30
0.0
 11
233.2766929868
 21
56.5199988079
 31
0.0
  0
LINE
  5
F7
330
1F
100
AcDbEntity
  8
0
  6
Continuous
 62
     7
370
    25
100
AcDbLine
 10
223.7766960862
 20
53.0199991655
 30
0.0
 11
223.7766960862
 21
56.5199988079
 31
0.0
  0
LINE
  5
F8
330
1F
100
AcDbEntity
  8
0
  6
Continuous
 62
     7
370
    25
100
AcDbLine
 10
233.2766929868
 20
116.5200011921
 30
0.0
 11
223.7766960862
 21
116.5200011921
 31
0.0
  0
LINE
  5
F9
330
1F
100
AcDbEntity
  8
0
  6
Continuous
 62
     7
370
    25
100
AcDbLine
 10
223.7766960862
 20
116.5200011921
 30
0.0
 11
223.7766960862
 21
120.0200008345
 31
0.0
  0
LINE
  5
FA
330
1F
100
AcDbEntity
  8
0
  6
Continuous
 62
     7
370
    25
100
AcDbLine
 10
220.2766934636
 20
46.519999404
 30
0.0
 11
220.2766934636
 21
50.3200011444
 31
0.0
  0
LINE
  5
FB
330
1F
100
AcDbEntity
  8
0
  6
Continuous
 62
     7
370
    25
100
AcDbLine
 10
223.5769132379
 20
50.5199985695
 30
0.0
 11
220.2766934636
 21
50.3200011444
 31
0.0
  0
LINE
  5
FC
330
1F
100
AcDbEntity
  8
0
  6
Continuous
 62
     7
370
    25
100
AcDbLine
 10
233.2766929868
 20
46.519999404
 30
0.0
 11
220.2766934636
 21
46.519999404
 31
0.0
  0
LINE
  5
FD
330
1F
100
AcDbEntity
  8
0
  6
Continuous
 62
     7
370
    25
100
AcDbLine
 10
220.2766934636
 20
126.520000596
 30
0.0
 11
220.2766934636
 21
122.7199988556
 31
0.0
  0
LINE
  5
FE
330
1F
100
AcDbEntity
  8
0
  6
Continuous
 62
     7
370
    25
100
AcDbLine
 10
223.5769132379
 20
122.5200014305
 30
0.0
 11
220.2766934636
 21
122.7199988556
 31
0.0
  0
LINE
  5
FF
330
1F
100
AcDbEntity
  8
0
  6
Continuous
 62
     7
370
    25
100
AcDbLine
 10
233.2766929868
 20
126.520000596
 30
0.0
 11
220.2766934636
 21
126.520000596
 31
0.0
  0
LINE
  5
100
330
1F
100
AcDbEntity
  8
0
  6
Continuous
 62
     7
370
    25
100
AcDbLine
 10
223.7766960862
 20
83.0199999851
 30
0.0
 11
223.7766960862
 21
90.0200000149
 31
0.0
  0
LINE
  5
101
330
1F
100
AcDbEntity
  8
0
  6
Continuous
 62
     7
370
    25
100
AcDbLine
 10
223.7766960862
 20
59.5199989271
 30
0.0
 11
233.2766929868
 21
59.5199989271
 31
0.0
  0
LINE
  5
102
330
1F
100
AcDbEntity
  8
0
  6
Continuous
 62
     7
370
    25
100
AcDbLine
 10
223.7766960862
 20
56.5199988079
 30
0.0
 11
223.7766960862
 21
59.5199989271
 31
0.0
  0
SPLINE
  5
103
330
1F
100
AcDbEntity
  8
0
  6
Continuous
 62
     7
370
    25
100
AcDbSpline
210
0.0
220
0.0
230
1.0
 70
     8
 71
     3
 72
    11
 73
     7
 74
     0
 42
0.000000001
 43
0.00000001
 40
0.0
 40
0.0
 40
0.0
 40
0.0
 40
0.2476537224331973
 40
0.4953102024385576
 40
0.7476606995801637
 40
1.0
 40
1.0
 40
1.0
 40
1.0
 10
233.2766929867984
 20
59.5199989271166
 30
0.0
 10
233.50210203394
 20
59.52437247988838
 30
0.0
 10
233.9529226381055
 20
59.53311963413054
 30
0.0
 10
234.6300050446774
 20
59.60524548364604
 30
0.0
 10
235.3058506549498
 20
59.71770639867238
 30
0.0
 10
235.7506430162534
 20
59.8328164966915
 30
0.0
 10
235.9730342629672
 20
59.89037026882192
 30
0.0
  0
ARC
  5
104
330
1F
100
AcDbEntity
  8
0
  6
Continuous
 62
     7
370
    25
100
AcDbCircle
 10
233.2766948941
 20
69.52
 30
0.0
 40
10.0
100
AcDbArc
 50
285.642471013
 51
90.0
  0
LINE
  5
105
330
1F
100
AcDbEntity
  8
0
  6
Continuous
 62
     7
370
    25
100
AcDbLine
 10
233.2766929868
 20
79.5199999702
 30
0.0
 11
223.7766960862
 21
79.5199999702
 31
0.0
  0
LINE
  5
106
330
1F
100
AcDbEntity
  8
0
  6
Continuous
 62
     7
370
    25
100
AcDbLine
 10
223.7766960862
 20
79.5199999702
 30
0.0
 11
223.7766960862
 21
83.0199999851
 31
0.0
  0
LINE
  5
107
330
1F
100
AcDbEntity
  8
0
  6
Continuous
 62
     7
370
    25
100
AcDbLine
 10
223.7766960862
 20
93.5200000298
 30
0.0
 11
233.2766929868
 21
93.5200000298
 31
0.0
  0
LINE
  5
108
330
1F
100
AcDbEntity
  8
0
  6
Continuous
 62
     7
370
    25
100
AcDbLine
 10
223.7766960862
 20
90.0200000149
 30
0.0
 11
223.7766960862
 21
93.5200000298
 31
0.0
  0
ARC
  5
109
330
1F
100
AcDbEntity
  8
0
  6
Continuous
 62
     7
370
    25
100
AcDbCircle
 10
233.2766948941
 20
103.52
 30
0.0
 40
10.00000000000002
100
AcDbArc
 50
270.0
 51
74.357528987
  0
LINE
  5
10A
330
1F
100
AcDbEntity
  8
0
  6
Continuous
 62
     7
370
    25
100
AcDbLine
 10
233.2766929868
 20
113.5200010729
 30
0.0
 11
223.7766960862
 21
113.5200010729
 31
0.0
  0
LINE
  5
10B
330
1F
100
AcDbEntity
  8
0
  6
Continuous
 62
     7
370
    25
100
AcDbLine
 10
223.7766960862
 20
113.5200010729
 30
0.0
 11
223.7766960862
 21
116.5200011921
 31
0.0
  0
SPLINE
  5
10C
330
1F
100
AcDbEntity
  8
0
  6
Continuous
 62
     7
370
    25
100
AcDbSpline
210
0.0
220
0.0
230
1.0
 70
     8
 71
     3
 72
    12
 73
     8
 74
     0
 42
0.000000001
 43
0.00000001
 40
0.0
 40
0.0
 40
0.0
 40
0.0
 40
0.098017689389138
 40
0.321797945777421
 40
0.5455838155099867
 40
0.7727934599011528
 40
1.0
 40
1.0
 40
1.0
 40
1.0
 10
235.9730342629672
 20
113.1496297311785
 30
0.0
 10
235.8869439735084
 20
113.1729757173062
 30
0.0
 10
235.6043043961841
 20
113.2496219882484
 30
0.0
 10
235.1187562447465
 20
113.355016713486
 30
0.0
 10
234.511914071851
 20
113.4494209598476
 30
0.0
 10
233.8970653509454
 20
113.5088378867228
 30
0.0
 10
233.4834828330668
 20
113.5162800277769
 30
0.0
 10
233.2766929867984
 20
113.5200010728838
 30
0.0
  0
LINE
  5
10D
330
1F
100
AcDbEntity
  8
0
  6
Continuous
 62
     7
370
    25
100
AcDbLine
 10
223.7766960862
 20
79.5199999702
 30
0.0
 11
223.7766960862
 21
59.5199989271
 31
0.0
  0
LINE
  5
10E
330
1F
100
AcDbEntity
  8
0
  6
Continuous
 62
     7
370
    25
100
AcDbLine
 10
223.7766960862
 20
113.5200010729
 30
0.0
 11
223.7766960862
 21
93.5200000298
 31
0.0
  0
LINE
  5
10F
330
1F
100
AcDbEntity
  8
0
  6
Continuous
 62
     7
370
    25
100
AcDbLine
 10
223.5769132379
 20
56.0194777441
 30
0.0
 11
222.7766970399
 21
55.9891747427
 31
0.0
  0
LINE
  5
110
330
1F
100
AcDbEntity
  8
0
  6
Continuous
 62
     7
370
    25
100
AcDbLine
 10
223.5769132379
 20
56.0194777441
 30
0.0
 11
223.5769132379
 21
64.4199999166
 31
0.0
  0
LINE
  5
111
330
1F
100
AcDbEntity
  8
0
  6
Continuous
 62
     7
370
    25
100
AcDbLine
 10
223.7766960862
 20
64.4199999166
 30
0.0
 11
223.5769132379
 21
64.4199999166
 31
0.0
  0
LINE
  5
112
330
1F
100
AcDbEntity
  8
0
  6
Continuous
 62
     7
370
    25
100
AcDbLine
 10
220.2766934636
 20
50.5771415424
 30
0.0
 11
220.2766934636
 21
50.3200011444
 31
0.0
  0
LINE
  5
113
330
1F
100
AcDbEntity
  8
0
  6
Continuous
 62
     7
370
    25
100
AcDbLine
 10
223.5769132379
 20
74.6199997258
 30
0.0
 11
223.5769132379
 21
83.0205226433
 31
0.0
  0
LINE
  5
114
330
1F
100
AcDbEntity
  8
0
  6
Continuous
 62
     7
370
    25
100
AcDbLine
 10
222.7766970399
 20
83.0508256447
 30
0.0
 11
223.5769132379
 21
83.0205226433
 31
0.0
  0
LINE
  5
115
330
1F
100
AcDbEntity
  8
0
  6
Continuous
 62
     7
370
    25
100
AcDbLine
 10
223.5769132379
 20
90.0194773567
 30
0.0
 11
222.7766970399
 21
89.9891743553
 31
0.0
  0
LINE
  5
116
330
1F
100
AcDbEntity
  8
0
  6
Continuous
 62
     7
370
    25
100
AcDbLine
 10
223.5769132379
 20
90.0194773567
 30
0.0
 11
223.5769132379
 21
98.4200002742
 31
0.0
  0
LINE
  5
117
330
1F
100
AcDbEntity
  8
0
  6
Continuous
 62
     7
370
    25
100
AcDbLine
 10
223.7766960862
 20
98.4200002742
 30
0.0
 11
223.5769132379
 21
98.4200002742
 31
0.0
  0
LINE
  5
118
330
1F
100
AcDbEntity
  8
0
  6
Continuous
 62
     7
370
    25
100
AcDbLine
 10
223.5769132379
 20
74.6199997258
 30
0.0
 11
223.7766960862
 21
74.6199997258
 31
0.0
  0
LINE
  5
119
330
1F
100
AcDbEntity
  8
0
  6
Continuous
 62
     7
370
    25
100
AcDbLine
 10
222.7766970399
 20
117.0508252573
 30
0.0
 11
223.5769132379
 21
117.0205222559
 31
0.0
  0
LINE
  5
11A
330
1F
100
AcDbEntity
  8
0
  6
Continuous
 62
     7
370
    25
100
AcDbLine
 10
223.5769132379
 20
108.6200000834
 30
0.0
 11
223.5769132379
 21
117.0205222559
 31
0.0
  0
LINE
  5
11B
330
1F
100
AcDbEntity
  8
0
  6
Continuous
 62
     7
370
    25
100
AcDbLine
 10
223.5769132379
 20
108.6200000834
 30
0.0
 11
223.7766960862
 21
108.6200000834
 31
0.0
  0
LINE
  5
11C
330
1F
100
AcDbEntity
  8
0
  6
Continuous
 62
     7
370
    25
100
AcDbLine
 10
220.2766934636
 20
122.7199988556
 30
0.0
 11
220.2766934636
 21
122.4628584576
 31
0.0
  0
LINE
  5
11D
330
1F
100
AcDbEntity
  8
0
  6
Continuous
 62
     7
370
    25
100
AcDbLine
 10
252.7766922715
 20
116.0199986887
 30
0.0
 11
252.9766956571
 21
116.0199986887
 31
0.0
  0
LINE
  5
11E
330
1F
100
AcDbEntity
  8
0
  6
Continuous
 62
     7
370
    25
100
AcDbLine
 10
252.9766956571
 20
57.0200013113
 30
0.0
 11
252.9766956571
 21
116.0199986887
 31
0.0
  0
LINE
  5
11F
330
1F
100
AcDbEntity
  8
0
  6
Continuous
 62
     7
370
    25
100
AcDbLine
 10
252.7766922715
 20
57.0200013113
 30
0.0
 11
252.9766956571
 21
57.0200013113
 31
0.0
  0
LINE
  5
120
330
1F
100
AcDbEntity
  8
0
  6
Continuous
 62
     7
370
    25
100
AcDbLine
 10
252.7766922715
 20
57.0200013113
 30
0.0
 11
252.7766922715
 21
116.0199986887
 31
0.0
  0
LINE
  5
121
330
1F
100
AcDbEntity
  8
0
  6
Continuous
 62
     7
370
    25
100
AcDbLine
 10
257.5766960386
 20
116.0199986887
 30
0.0
 11
257.5766960386
 21
57.0200013113
 31
0.0
  0
LINE
  5
122
330
1F
100
AcDbEntity
  8
0
  6
Continuous
 62
     7
370
    25
100
AcDbLine
 10
257.5766960386
 20
116.0199986887
 30
0.0
 11
257.7766934636
 21
116.0199986887
 31
0.0
  0
LINE
  5
123
330
1F
100
AcDbEntity
  8
0
  6
Continuous
 62
     7
370
    25
100
AcDbLine
 10
257.7766934636
 20
116.0199986887
 30
0.0
 11
257.7766934636
 21
57.0200013113
 31
0.0
  0
LINE
  5
124
330
1F
100
AcDbEntity
  8
0
  6
Continuous
 62
     7
370
    25
100
AcDbLine
 10
257.5766960386
 20
57.0200013113
 30
0.0
 11
257.7766934636
 21
57.0200013113
 31
0.0
  0
LINE
  5
125
330
1F
100
AcDbEntity
  8
0
  6
Continuous
 62
     7
370
    25
100
AcDbLine
 10
253.1766930822
 20
116.0199986887
 30
0.0
 11
252.9766956571
 21
116.0199986887
 31
0.0
  0
LINE
  5
126
330
1F
100
AcDbEntity
  8
0
  6
Continuous
 62
     7
370
    25
100
AcDbLine
 10
253.1766930822
 20
57.0200013113
 30
0.0
 11
252.9766956571
 21
57.0200013113
 31
0.0
  0
LINE
  5
127
330
1F
100
AcDbEntity
  8
0
  6
Continuous
 62
     7
370
    25
100
AcDbLine
 10
257.5766960386
 20
116.0199986887
 30
0.0
 11
257.376692653
 21
116.0199986887
 31
0.0
  0
LINE
  5
128
330
1F
100
AcDbEntity
  8
0
  6
Continuous
 62
     7
370
    25
100
AcDbLine
 10
257.5766960386
 20
57.0200013113
 30
0.0
 11
257.376692653
 21
57.0200013113
 31
0.0
  0
LINE
  5
129
330
1F
100
AcDbEntity
  8
0
  6
Continuous
 62
     7
370
    25
100
AcDbLine
 10
257.376692653
 20
116.0199986887
 30
0.0
 11
253.1766930822
 21
116.0199986887
 31
0.0
  0
LINE
  5
12A
330
1F
100
AcDbEntity
  8
0
  6
Continuous
 62
     7
370
    25
100
AcDbLine
 10
257.376692653
 20
57.0200013113
 30
0.0
 11
253.1766930822
 21
57.0200013113
 31
0.0
  0
LINE
  5
12B
330
1F
100
AcDbEntity
  8
0
  6
Continuous
 62
     7
370
    25
100
AcDbLine
 10
258.0766955617
 20
122.1200006199
 30
0.0
 11
258.0766955617
 21
50.9199993801
 31
0.0
  0
LINE
  5
12C
330
1F
100
AcDbEntity
  8
0
  6
Continuous
 62
     7
370
    25
100
AcDbLine
 10
258.0766955617
 20
50.9199993801
 30
0.0
 11
257.7766934636
 21
50.9199993801
 31
0.0
  0
LINE
  5
12D
330
1F
100
AcDbEntity
  8
0
  6
Continuous
 62
     7
370
    25
100
AcDbLine
 10
257.7766934636
 20
122.1200006199
 30
0.0
 11
257.7766934636
 21
50.9199993801
 31
0.0
  0
LINE
  5
12E
330
1F
100
AcDbEntity
  8
0
  6
Continuous
 62
     7
370
    25
100
AcDbLine
 10
257.7766934636
 20
122.1200006199
 30
0.0
 11
258.0766955617
 21
122.1200006199
 31
0.0
  0
LINE
  5
12F
330
1F
100
AcDbEntity
  8
0
  6
Continuous
 62
     7
370
    25
100
AcDbLine
 10
208.276695967
 20
53.0199991655
 30
0.0
 11
188.7766951922
 21
53.0199991655
 31
0.0
  0
ARC
  5
130
330
1F
100
AcDbEntity
  8
0
  6
Continuous
 62
     7
370
    25
100
AcDbCircle
 10
211.7766948941
 20
53.02
 30
0.0
 40
3.5
100
AcDbArc
 50
90.0
 51
180.0
  0
LINE
  5
131
330
1F
100
AcDbEntity
  8
0
  6
Continuous
 62
     7
370
    25
100
AcDbLine
 10
222.7766970399
 20
56.5199988079
 30
0.0
 11
211.7766956094
 21
56.5199988079
 31
0.0
  0
LINE
  5
132
330
1F
100
AcDbEntity
  8
0
  6
Continuous
 62
     7
370
    25
100
AcDbLine
 10
222.7766970399
 20
56.5199988079
 30
0.0
 11
222.7766970399
 21
50.7199989748
 31
0.0
  0
LINE
  5
133
330
1F
100
AcDbEntity
  8
0
  6
Continuous
 62
     7
370
    25
100
AcDbLine
 10
222.7766970399
 20
50.7199989748
 30
0.0
 11
219.2766944173
 21
50.5199985695
 31
0.0
  0
LINE
  5
134
330
1F
100
AcDbEntity
  8
0
  6
Continuous
 62
     7
370
    25
100
AcDbLine
 10
219.2766944173
 20
46.519999404
 30
0.0
 11
219.2766944173
 21
50.5199985695
 31
0.0
  0
LINE
  5
135
330
1F
100
AcDbEntity
  8
0
  6
Continuous
 62
     7
370
    25
100
AcDbLine
 10
219.2766944173
 20
46.519999404
 30
0.0
 11
214.2766962054
 21
46.519999404
 31
0.0
  0
LINE
  5
136
330
1F
100
AcDbEntity
  8
0
  6
Continuous
 62
     7
370
    25
100
AcDbLine
 10
211.77721715
 20
50.5199985695
 30
0.0
 11
214.2766962054
 21
46.519999404
 31
0.0
  0
LINE
  5
137
330
1F
100
AcDbEntity
  8
0
  6
Continuous
 62
     7
370
    25
100
AcDbLine
 10
208.276695967
 20
50.5199985695
 30
0.0
 11
211.77721715
 21
50.5199985695
 31
0.0
  0
LINE
  5
138
330
1F
100
AcDbEntity
  8
0
  6
Continuous
 62
     7
370
    25
100
AcDbLine
 10
208.276695967
 20
51.520000596
 30
0.0
 11
208.276695967
 21
50.5199985695
 31
0.0
  0
LINE
  5
139
330
1F
100
AcDbEntity
  8
0
  6
Continuous
 62
     7
370
    25
100
AcDbLine
 10
188.7766951922
 20
51.520000596
 30
0.0
 11
208.276695967
 21
51.520000596
 31
0.0
  0
LINE
  5
13A
330
1F
100
AcDbEntity
  8
0
  6
Continuous
 62
     7
370
    25
100
AcDbLine
 10
188.7766951922
 20
51.520000596
 30
0.0
 11
188.7766951922
 21
53.0199991655
 31
0.0
  0
LINE
  5
13B
330
1F
100
AcDbEntity
  8
0
  6
Continuous
 62
     7
370
    25
100
AcDbLine
 10
198.2766935828
 20
56.5199988079
 30
0.0
 11
211.7766956094
 21
56.5199988079
 31
0.0
  0
LINE
  5
13C
330
1F
100
AcDbEntity
  8
0
  6
Continuous
 62
     7
370
    25
100
AcDbLine
 10
208.276695967
 20
121.519999404
 30
0.0
 11
188.7766951922
 21
121.519999404
 31
0.0
  0
LINE
  5
13D
330
1F
100
AcDbEntity
  8
0
  6
Continuous
 62
     7
370
    25
100
AcDbLine
 10
208.276695967
 20
121.519999404
 30
0.0
 11
208.276695967
 21
122.5200014305
 31
0.0
  0
LINE
  5
13E
330
1F
100
AcDbEntity
  8
0
  6
Continuous
 62
     7
370
    25
100
AcDbLine
 10
211.77721715
 20
122.5200014305
 30
0.0
 11
208.276695967
 21
122.5200014305
 31
0.0
  0
LINE
  5
13F
330
1F
100
AcDbEntity
  8
0
  6
Continuous
 62
     7
370
    25
100
AcDbLine
 10
211.77721715
 20
122.5200014305
 30
0.0
 11
214.2766962054
 21
126.520000596
 31
0.0
  0
LINE
  5
140
330
1F
100
AcDbEntity
  8
0
  6
Continuous
 62
     7
370
    25
100
AcDbLine
 10
214.2766962054
 20
126.520000596
 30
0.0
 11
219.2766944173
 21
126.520000596
 31
0.0
  0
LINE
  5
141
330
1F
100
AcDbEntity
  8
0
  6
Continuous
 62
     7
370
    25
100
AcDbLine
 10
219.2766944173
 20
122.5200014305
 30
0.0
 11
222.7766970399
 21
122.3200010252
 31
0.0
  0
LINE
  5
142
330
1F
100
AcDbEntity
  8
0
  6
Continuous
 62
     7
370
    25
100
AcDbLine
 10
211.7766956094
 20
116.5200011921
 30
0.0
 11
222.7766970399
 21
116.5200011921
 31
0.0
  0
ARC
  5
143
330
1F
100
AcDbEntity
  8
0
  6
Continuous
 62
     7
370
    25
100
AcDbCircle
 10
211.7766948941
 20
120.02
 30
0.0
 40
3.5
100
AcDbArc
 50
180.0
 51
270.0
  0
LINE
  5
144
330
1F
100
AcDbEntity
  8
0
  6
Continuous
 62
     7
370
    25
100
AcDbLine
 10
188.7766951922
 20
120.0200008345
 30
0.0
 11
208.276695967
 21
120.0200008345
 31
0.0
  0
LINE
  5
145
330
1F
100
AcDbEntity
  8
0
  6
Continuous
 62
     7
370
    25
100
AcDbLine
 10
222.7766970399
 20
122.3200010252
 30
0.0
 11
222.7766970399
 21
116.5200011921
 31
0.0
  0
LINE
  5
146
330
1F
100
AcDbEntity
  8
0
  6
Continuous
 62
     7
370
    25
100
AcDbLine
 10
219.2766944173
 20
122.5200014305
 30
0.0
 11
219.2766944173
 21
126.520000596
 31
0.0
  0
LINE
  5
147
330
1F
100
AcDbEntity
  8
0
  6
Continuous
 62
     7
370
    25
100
AcDbLine
 10
188.7766951922
 20
120.0200008345
 30
0.0
 11
188.7766951922
 21
121.519999404
 31
0.0
  0
LINE
  5
148
330
1F
100
AcDbEntity
  8
0
  6
Continuous
 62
     7
370
    25
100
AcDbLine
 10
211.7766956094
 20
116.5200011921
 30
0.0
 11
198.2766935828
 21
116.5200011921
 31
0.0
  0
LINE
  5
149
330
1F
100
AcDbEntity
  8
0
  6
Continuous
 62
     7
370
    25
100
AcDbLine
 10
189.6749506
 20
121.519999404
 30
0.0
 11
189.6749506
 21
122.5200014305
 31
0.0
  0
LINE
  5
14A
330
1F
100
AcDbEntity
  8
0
  6
Continuous
 62
     7
370
    25
100
AcDbLine
 10
208.276695967
 20
122.5200014305
 30
0.0
 11
189.6749506
 21
122.5200014305
 31
0.0
  0
LINE
  5
14B
330
1F
100
AcDbEntity
  8
0
  6
Continuous
 62
     7
370
    25
100
AcDbLine
 10
189.6749506
 20
51.520000596
 30
0.0
 11
189.6749506
 21
50.5199985695
 31
0.0
  0
LINE
  5
14C
330
1F
100
AcDbEntity
  8
0
  6
Continuous
 62
     7
370
    25
100
AcDbLine
 10
208.276695967
 20
50.5199985695
 30
0.0
 11
189.6749506
 21
50.5199985695
 31
0.0
  0
LINE
  5
14D
330
1F
100
AcDbEntity
  8
0
  6
Continuous
 62
     7
370
    25
100
AcDbLine
 10
214.2766962054
 20
126.520000596
 30
0.0
 11
198.2766935828
 21
126.520000596
 31
0.0
  0
LINE
  5
14E
330
1F
100
AcDbEntity
  8
0
  6
Continuous
 62
     7
370
    25
100
AcDbLine
 10
214.2766962054
 20
46.519999404
 30
0.0
 11
198.2766935828
 21
46.519999404
 31
0.0
  0
LINE
  5
14F
330
1F
100
AcDbEntity
  8
0
  6
Continuous
 62
     7
370
    25
100
AcDbLine
 10
188.7766951922
 20
50.5321072531
 30
0.0
 11
188.5769138339
 21
50.5199985695
 31
0.0
  0
LINE
  5
150
330
1F
100
AcDbEntity
  8
0
  6
Continuous
 62
     7
370
    25
100
AcDbLine
 10
189.6749506
 20
50.5199985695
 30
0.0
 11
188.5769138339
 21
50.5199985695
 31
0.0
  0
LINE
  5
151
330
1F
100
AcDbEntity
  8
0
  6
Continuous
 62
     7
370
    25
100
AcDbLine
 10
188.7766951922
 20
51.520000596
 30
0.0
 11
188.7766951922
 21
50.5321072531
 31
0.0
  0
LINE
  5
152
330
1F
100
AcDbEntity
  8
0
  6
Continuous
 62
     7
370
    25
100
AcDbLine
 10
188.7766951922
 20
122.5078927469
 30
0.0
 11
188.5769138339
 21
122.5200014305
 31
0.0
  0
LINE
  5
153
330
1F
100
AcDbEntity
  8
0
  6
Continuous
 62
     7
370
    25
100
AcDbLine
 10
189.6749506
 20
122.5200014305
 30
0.0
 11
188.5769138339
 21
122.5200014305
 31
0.0
  0
LINE
  5
154
330
1F
100
AcDbEntity
  8
0
  6
Continuous
 62
     7
370
    25
100
AcDbLine
 10
188.7766951922
 20
121.519999404
 30
0.0
 11
188.7766951922
 21
122.5078927469
 31
0.0
  0
LINE
  5
155
330
1F
100
AcDbEntity
  8
0
  6
Continuous
 62
     7
370
    25
100
AcDbLine
 10
188.7766951922
 20
56.5199988079
 30
0.0
 11
198.2766935828
 21
56.5199988079
 31
0.0
  0
LINE
  5
156
330
1F
100
AcDbEntity
  8
0
  6
Continuous
 62
     7
370
    25
100
AcDbLine
 10
188.7766951922
 20
53.0199991655
 30
0.0
 11
188.7766951922
 21
56.5199988079
 31
0.0
  0
LINE
  5
157
330
1F
100
AcDbEntity
  8
0
  6
Continuous
 62
     7
370
    25
100
AcDbLine
 10
198.2766935828
 20
116.5200011921
 30
0.0
 11
188.7766951922
 21
116.5200011921
 31
0.0
  0
LINE
  5
158
330
1F
100
AcDbEntity
  8
0
  6
Continuous
 62
     7
370
    25
100
AcDbLine
 10
188.7766951922
 20
116.5200011921
 30
0.0
 11
188.7766951922
 21
120.0200008345
 31
0.0
  0
LINE
  5
159
330
1F
100
AcDbEntity
  8
0
  6
Continuous
 62
     7
370
    25
100
AcDbLine
 10
185.2766955498
 20
46.519999404
 30
0.0
 11
185.2766955498
 21
50.3200011444
 31
0.0
  0
LINE
  5
15A
330
1F
100
AcDbEntity
  8
0
  6
Continuous
 62
     7
370
    25
100
AcDbLine
 10
188.5769138339
 20
50.5199985695
 30
0.0
 11
185.2766955498
 21
50.3200011444
 31
0.0
  0
LINE
  5
15B
330
1F
100
AcDbEntity
  8
0
  6
Continuous
 62
     7
370
    25
100
AcDbLine
 10
198.2766935828
 20
46.519999404
 30
0.0
 11
185.2766955498
 21
46.519999404
 31
0.0
  0
LINE
  5
15C
330
1F
100
AcDbEntity
  8
0
  6
Continuous
 62
     7
370
    25
100
AcDbLine
 10
185.2766955498
 20
126.520000596
 30
0.0
 11
185.2766955498
 21
122.7199988556
 31
0.0
  0
LINE
  5
15D
330
1F
100
AcDbEntity
  8
0
  6
Continuous
 62
     7
370
    25
100
AcDbLine
 10
188.5769138339
 20
122.5200014305
 30
0.0
 11
185.2766955498
 21
122.7199988556
 31
0.0
  0
LINE
  5
15E
330
1F
100
AcDbEntity
  8
0
  6
Continuous
 62
     7
370
    25
100
AcDbLine
 10
198.2766935828
 20
126.520000596
 30
0.0
 11
185.2766955498
 21
126.520000596
 31
0.0
  0
LINE
  5
15F
330
1F
100
AcDbEntity
  8
0
  6
Continuous
 62
     7
370
    25
100
AcDbLine
 10
188.7766951922
 20
59.5199989271
 30
0.0
 11
198.2766935828
 21
59.5199989271
 31
0.0
  0
LINE
  5
160
330
1F
100
AcDbEntity
  8
0
  6
Continuous
 62
     7
370
    25
100
AcDbLine
 10
188.7766951922
 20
56.5199988079
 30
0.0
 11
188.7766951922
 21
59.5199989271
 31
0.0
  0
LINE
  5
161
330
1F
100
AcDbEntity
  8
0
  6
Continuous
 62
     7
370
    25
100
AcDbLine
 10
222.7766970399
 20
56.5199988079
 30
0.0
 11
222.7766970399
 21
116.5200011921
 31
0.0
  0
LINE
  5
162
330
1F
100
AcDbEntity
  8
0
  6
Continuous
 62
     7
370
    25
100
AcDbLine
 10
188.7766951922
 20
83.0199999851
 30
0.0
 11
188.7766951922
 21
90.0200000149
 31
0.0
  0
SPLINE
  5
163
330
1F
100
AcDbEntity
  8
0
  6
Continuous
 62
     7
370
    25
100
AcDbSpline
210
0.0
220
0.0
230
1.0
 70
     8
 71
     3
 72
    11
 73
     7
 74
     0
 42
0.000000001
 43
0.00000001
 40
0.0
 40
0.0
 40
0.0
 40
0.0
 40
0.2476539826215844
 40
0.4953118087790737
 40
0.7476614952230938
 40
1.0
 40
1.0
 40
1.0
 40
1.0
 10
198.2766935828448
 20
59.51999892711659
 30
0.0
 10
198.5021026242131
 20
59.52437253312254
 30
0.0
 10
198.9529242052488
 20
59.53311981301187
 30
0.0
 10
199.6300067006498
 20
59.60524498912061
 30
0.0
 10
200.3058512688935
 20
59.71770644756956
 30
0.0
 10
200.7506416270171
 20
59.83281651184845
 30
0.0
 10
200.9730318787814
 20
59.89037026882192
 30
0.0
  0
ARC
  5
164
330
1F
100
AcDbEntity
  8
0
  6
Continuous
 62
     7
370
    25
100
AcDbCircle
 10
198.2766948941
 20
69.52
 30
0.0
 40
10.00000000000001
100
AcDbArc
 50
285.642471013
 51
90.0
  0
LINE
  5
165
330
1F
100
AcDbEntity
  8
0
  6
Continuous
 62
     7
370
    25
100
AcDbLine
 10
198.2766935828
 20
79.5199999702
 30
0.0
 11
188.7766951922
 21
79.5199999702
 31
0.0
  0
LINE
  5
166
330
1F
100
AcDbEntity
  8
0
  6
Continuous
 62
     7
370
    25
100
AcDbLine
 10
188.7766951922
 20
79.5199999702
 30
0.0
 11
188.7766951922
 21
83.0199999851
 31
0.0
  0
LINE
  5
167
330
1F
100
AcDbEntity
  8
0
  6
Continuous
 62
     7
370
    25
100
AcDbLine
 10
188.7766951922
 20
93.5200000298
 30
0.0
 11
198.2766935828
 21
93.5200000298
 31
0.0
  0
LINE
  5
168
330
1F
100
AcDbEntity
  8
0
  6
Continuous
 62
     7
370
    25
100
AcDbLine
 10
188.7766951922
 20
90.0200000149
 30
0.0
 11
188.7766951922
 21
93.5200000298
 31
0.0
  0
ARC
  5
169
330
1F
100
AcDbEntity
  8
0
  6
Continuous
 62
     7
370
    25
100
AcDbCircle
 10
198.2766948941
 20
103.52
 30
0.0
 40
10.00000000000003
100
AcDbArc
 50
270.0
 51
74.357528987
  0
LINE
  5
16A
330
1F
100
AcDbEntity
  8
0
  6
Continuous
 62
     7
370
    25
100
AcDbLine
 10
198.2766935828
 20
113.5200010729
 30
0.0
 11
188.7766951922
 21
113.5200010729
 31
0.0
  0
LINE
  5
16B
330
1F
100
AcDbEntity
  8
0
  6
Continuous
 62
     7
370
    25
100
AcDbLine
 10
188.7766951922
 20
113.5200010729
 30
0.0
 11
188.7766951922
 21
116.5200011921
 31
0.0
  0
SPLINE
  5
16C
330
1F
100
AcDbEntity
  8
0
  6
Continuous
 62
     7
370
    25
100
AcDbSpline
210
0.0
220
0.0
230
1.0
 70
     8
 71
     3
 72
    12
 73
     8
 74
     0
 42
0.000000001
 43
0.00000001
 40
0.0
 40
0.0
 40
0.0
 40
0.0
 40
0.0980167397584761
 40
0.3217983030965202
 40
0.5455844135373863
 40
0.7727932155135151
 40
1.0
 40
1.0
 40
1.0
 40
1.0
 10
200.9730318787814
 20
113.1496297311785
 30
0.0
 10
200.88694259545
 20
113.1729757678223
 30
0.0
 10
200.6043032691563
 20
113.2496230323052
 30
0.0
 10
200.1187547158317
 20
113.3550161407485
 30
0.0
 10
199.5119126865798
 20
113.4494208505985
 30
0.0
 10
198.8970649610306
 20
113.508837989505
 30
0.0
 10
198.4834834301745
 20
113.5162800561045
 30
0.0
 10
198.2766935828448
 20
113.5200010728838
 30
0.0
  0
LINE
  5
16D
330
1F
100
AcDbEntity
  8
0
  6
Continuous
 62
     7
370
    25
100
AcDbLine
 10
188.7766951922
 20
79.5199999702
 30
0.0
 11
188.7766951922
 21
59.5199989271
 31
0.0
  0
LINE
  5
16E
330
1F
100
AcDbEntity
  8
0
  6
Continuous
 62
     7
370
    25
100
AcDbLine
 10
188.7766951922
 20
113.5200010729
 30
0.0
 11
188.7766951922
 21
93.5200000298
 31
0.0
  0
LINE
  5
16F
330
1F
100
AcDbEntity
  8
0
  6
Continuous
 62
     7
370
    25
100
AcDbLine
 10
188.5769138339
 20
56.0194777441
 30
0.0
 11
187.7766946557
 21
55.9891747427
 31
0.0
  0
LINE
  5
170
330
1F
100
AcDbEntity
  8
0
  6
Continuous
 62
     7
370
    25
100
AcDbLine
 10
188.5769138339
 20
56.0194777441
 30
0.0
 11
188.5769138339
 21
64.4199999166
 31
0.0
  0
LINE
  5
171
330
1F
100
AcDbEntity
  8
0
  6
Continuous
 62
     7
370
    25
100
AcDbLine
 10
188.7766951922
 20
64.4199999166
 30
0.0
 11
188.5769138339
 21
64.4199999166
 31
0.0
  0
LINE
  5
172
330
1F
100
AcDbEntity
  8
0
  6
Continuous
 62
     7
370
    25
100
AcDbLine
 10
185.2766955498
 20
50.7451819372
 30
0.0
 11
185.2766955498
 21
50.3200011444
 31
0.0
  0
LINE
  5
173
330
1F
100
AcDbEntity
  8
0
  6
Continuous
 62
     7
370
    25
100
AcDbLine
 10
188.5769138339
 20
74.6199997258
 30
0.0
 11
188.5769138339
 21
83.0205226433
 31
0.0
  0
LINE
  5
174
330
1F
100
AcDbEntity
  8
0
  6
Continuous
 62
     7
370
    25
100
AcDbLine
 10
187.7766946557
 20
83.0508256447
 30
0.0
 11
188.5769138339
 21
83.0205226433
 31
0.0
  0
LINE
  5
175
330
1F
100
AcDbEntity
  8
0
  6
Continuous
 62
     7
370
    25
100
AcDbLine
 10
188.5769138339
 20
90.0194773567
 30
0.0
 11
187.7766946557
 21
89.9891743553
 31
0.0
  0
LINE
  5
176
330
1F
100
AcDbEntity
  8
0
  6
Continuous
 62
     7
370
    25
100
AcDbLine
 10
188.5769138339
 20
90.0194773567
 30
0.0
 11
188.5769138339
 21
98.4200002742
 31
0.0
  0
LINE
  5
177
330
1F
100
AcDbEntity
  8
0
  6
Continuous
 62
     7
370
    25
100
AcDbLine
 10
188.7766951922
 20
98.4200002742
 30
0.0
 11
188.5769138339
 21
98.4200002742
 31
0.0
  0
LINE
  5
178
330
1F
100
AcDbEntity
  8
0
  6
Continuous
 62
     7
370
    25
100
AcDbLine
 10
188.5769138339
 20
74.6199997258
 30
0.0
 11
188.7766951922
 21
74.6199997258
 31
0.0
  0
LINE
  5
179
330
1F
100
AcDbEntity
  8
0
  6
Continuous
 62
     7
370
    25
100
AcDbLine
 10
187.7766946557
 20
117.0508252573
 30
0.0
 11
188.5769138339
 21
117.0205222559
 31
0.0
  0
LINE
  5
17A
330
1F
100
AcDbEntity
  8
0
  6
Continuous
 62
     7
370
    25
100
AcDbLine
 10
188.5769138339
 20
108.6200000834
 30
0.0
 11
188.5769138339
 21
117.0205222559
 31
0.0
  0
LINE
  5
17B
330
1F
100
AcDbEntity
  8
0
  6
Continuous
 62
     7
370
    25
100
AcDbLine
 10
188.5769138339
 20
108.6200000834
 30
0.0
 11
188.7766951922
 21
108.6200000834
 31
0.0
  0
LINE
  5
17C
330
1F
100
AcDbEntity
  8
0
  6
Continuous
 62
     7
370
    25
100
AcDbLine
 10
185.2766955498
 20
122.7199988556
 30
0.0
 11
185.2766955498
 21
122.2948180628
 31
0.0
  0
LINE
  5
17D
330
1F
100
AcDbEntity
  8
0
  6
Continuous
 62
     7
370
    25
100
AcDbLine
 10
184.2766950134
 20
50.6752567482
 30
0.0
 11
187.7766946557
 21
50.9199993801
 31
0.0
  0
LINE
  5
17E
330
1F
100
AcDbEntity
  8
0
  6
Continuous
 62
     7
370
    25
100
AcDbLine
 10
174.2766948643
 20
50.5199985695
 30
0.0
 11
177.7766952518
 21
50.5199985695
 31
0.0
  0
LINE
  5
17F
330
1F
100
AcDbEntity
  8
0
  6
Continuous
 62
     7
370
    25
100
AcDbLine
 10
177.7766952518
 20
56.5199988079
 30
0.0
 11
187.7766946557
 21
56.5199988079
 31
0.0
  0
LINE
  5
180
330
1F
100
AcDbEntity
  8
0
  6
Continuous
 62
     7
370
    25
100
AcDbLine
 10
174.2766948643
 20
46.519999404
 30
0.0
 11
184.2766950134
 21
46.519999404
 31
0.0
  0
LINE
  5
181
330
1F
100
AcDbEntity
  8
0
  6
Continuous
 62
     7
370
    25
100
AcDbLine
 10
187.7766946557
 20
56.5199988079
 30
0.0
 11
187.7766946557
 21
50.9199993801
 31
0.0
  0
LINE
  5
182
330
1F
100
AcDbEntity
  8
0
  6
Continuous
 62
     7
370
    25
100
AcDbLine
 10
184.2766950134
 20
46.519999404
 30
0.0
 11
184.2766950134
 21
50.6752567482
 31
0.0
  0
LINE
  5
183
330
1F
100
AcDbEntity
  8
0
  6
Continuous
 62
     7
370
    25
100
AcDbLine
 10
177.7766952518
 20
56.5199988079
 30
0.0
 11
177.7766952518
 21
50.5199985695
 31
0.0
  0
LINE
  5
184
330
1F
100
AcDbEntity
  8
0
  6
Continuous
 62
     7
370
    25
100
AcDbLine
 10
174.2766948643
 20
50.5199985695
 30
0.0
 11
174.2766948643
 21
46.519999404
 31
0.0
  0
LINE
  5
185
330
1F
100
AcDbEntity
  8
0
  6
Continuous
 62
     7
370
    25
100
AcDbLine
 10
184.2766950134
 20
126.520000596
 30
0.0
 11
174.2766948643
 21
126.520000596
 31
0.0
  0
LINE
  5
186
330
1F
100
AcDbEntity
  8
0
  6
Continuous
 62
     7
370
    25
100
AcDbLine
 10
187.7766946557
 20
122.1200006199
 30
0.0
 11
184.2766950134
 21
122.3647432518
 31
0.0
  0
LINE
  5
187
330
1F
100
AcDbEntity
  8
0
  6
Continuous
 62
     7
370
    25
100
AcDbLine
 10
187.7766946557
 20
116.5200011921
 30
0.0
 11
177.7766952518
 21
116.5200011921
 31
0.0
  0
LINE
  5
188
330
1F
100
AcDbEntity
  8
0
  6
Continuous
 62
     7
370
    25
100
AcDbLine
 10
177.7766952518
 20
122.5200014305
 30
0.0
 11
174.2766948643
 21
122.5200014305
 31
0.0
  0
LINE
  5
189
330
1F
100
AcDbEntity
  8
0
  6
Continuous
 62
     7
370
    25
100
AcDbLine
 10
187.7766946557
 20
122.1200006199
 30
0.0
 11
187.7766946557
 21
116.5200011921
 31
0.0
  0
LINE
  5
18A
330
1F
100
AcDbEntity
  8
0
  6
Continuous
 62
     7
370
    25
100
AcDbLine
 10
184.2766950134
 20
122.3647432518
 30
0.0
 11
184.2766950134
 21
126.520000596
 31
0.0
  0
LINE
  5
18B
330
1F
100
AcDbEntity
  8
0
  6
Continuous
 62
     7
370
    25
100
AcDbLine
 10
177.7766952518
 20
122.5200014305
 30
0.0
 11
177.7766952518
 21
116.5200011921
 31
0.0
  0
LINE
  5
18C
330
1F
100
AcDbEntity
  8
0
  6
Continuous
 62
     7
370
    25
100
AcDbLine
 10
174.2766948643
 20
126.520000596
 30
0.0
 11
174.2766948643
 21
122.5200014305
 31
0.0
  0
CIRCLE
  5
18D
330
1F
100
AcDbEntity
  8
0
  6
Continuous
 62
     7
370
    25
100
AcDbCircle
 10
179.7766948941
 20
66.52
 30
0.0
 40
1.25
  0
CIRCLE
  5
18E
330
1F
100
AcDbEntity
  8
0
  6
Continuous
 62
     7
370
    25
100
AcDbCircle
 10
179.7766948941
 20
106.52
 30
0.0
 40
1.25
  0
LINE
  5
18F
330
1F
100
AcDbEntity
  8
0
  6
Continuous
 62
     7
370
    25
100
AcDbLine
 10
187.7766946557
 20
56.5199988079
 30
0.0
 11
187.7766946557
 21
116.5200011921
 31
0.0
  0
LINE
  5
190
330
1F
100
AcDbEntity
  8
0
  6
Continuous
 62
     7
370
    25
100
AcDbLine
 10
177.7766952518
 20
56.5199988079
 30
0.0
 11
177.7766952518
 21
116.5200011921
 31
0.0
  0
LINE
  5
191
330
1F
100
AcDbEntity
  8
0
  6
Continuous
 62
     7
370
    25
100
AcDbLine
 10
174.2766948643
 20
122.5200014305
 30
0.0
 11
174.2766948643
 21
122.3200010252
 31
0.0
  0
LINE
  5
192
330
1F
100
AcDbEntity
  8
0
  6
Continuous
 62
     7
370
    25
100
AcDbLine
 10
174.2766948643
 20
50.7199989748
 30
0.0
 11
174.2766948643
 21
50.5199985695
 31
0.0
  0
LINE
  5
193
330
1F
100
AcDbEntity
  8
0
  6
Continuous
 62
     7
370
    25
100
AcDbLine
 10
176.7766947153
 20
122.3200010252
 30
0.0
 11
168.7766948941
 21
122.3200010252
 31
0.0
  0
LINE
  5
194
330
1F
100
AcDbEntity
  8
0
  6
Continuous
 62
     7
370
    25
100
AcDbLine
 10
176.7766947153
 20
106.520000298
 30
0.0
 11
168.7766948941
 21
106.520000298
 31
0.0
  0
LINE
  5
195
330
1F
100
AcDbEntity
  8
0
  6
Continuous
 62
     7
370
    25
100
AcDbLine
 10
176.7766947153
 20
106.520000298
 30
0.0
 11
176.7766947153
 21
122.3200010252
 31
0.0
  0
LINE
  5
196
330
1F
100
AcDbEntity
  8
0
  6
Continuous
 62
     7
370
    25
100
AcDbLine
 10
168.7766948941
 20
122.3200010252
 30
0.0
 11
168.7766948941
 21
106.520000298
 31
0.0
  0
LINE
  5
197
330
1F
100
AcDbEntity
  8
0
  6
Continuous
 62
     7
370
    25
100
AcDbLine
 10
168.7766948941
 20
50.7199989748
 30
0.0
 11
176.7766947153
 21
50.7199989748
 31
0.0
  0
LINE
  5
198
330
1F
100
AcDbEntity
  8
0
  6
Continuous
 62
     7
370
    25
100
AcDbLine
 10
168.7766948941
 20
66.519999702
 30
0.0
 11
176.7766947153
 21
66.519999702
 31
0.0
  0
LINE
  5
199
330
1F
100
AcDbEntity
  8
0
  6
Continuous
 62
     7
370
    25
100
AcDbLine
 10
176.7766947153
 20
50.7199989748
 30
0.0
 11
176.7766947153
 21
66.519999702
 31
0.0
  0
LINE
  5
19A
330
1F
100
AcDbEntity
  8
0
  6
Continuous
 62
     7
370
    25
100
AcDbLine
 10
168.7766948941
 20
66.519999702
 30
0.0
 11
168.7766948941
 21
50.7199989748
 31
0.0
  0
LINE
  5
19B
330
1F
100
AcDbEntity
  8
0
  6
Continuous
 62
     7
370
    25
100
AcDbLine
 10
168.7766948941
 20
46.519999404
 30
0.0
 11
173.276695073
 21
46.519999404
 31
0.0
  0
LINE
  5
19C
330
1F
100
AcDbEntity
  8
0
  6
Continuous
 62
     7
370
    25
100
AcDbLine
 10
173.276695073
 20
46.519999404
 30
0.0
 11
173.276695073
 21
50.7199989748
 31
0.0
  0
LINE
  5
19D
330
1F
100
AcDbEntity
  8
0
  6
Continuous
 62
     7
370
    25
100
AcDbLine
 10
168.7766948941
 20
46.519999404
 30
0.0
 11
168.7766948941
 21
50.7199989748
 31
0.0
  0
LINE
  5
19E
330
1F
100
AcDbEntity
  8
0
  6
Continuous
 62
     7
370
    25
100
AcDbLine
 10
168.7766948941
 20
126.520000596
 30
0.0
 11
173.276695073
 21
126.520000596
 31
0.0
  0
LINE
  5
19F
330
1F
100
AcDbEntity
  8
0
  6
Continuous
 62
     7
370
    25
100
AcDbLine
 10
173.276695073
 20
122.3200010252
 30
0.0
 11
173.276695073
 21
126.520000596
 31
0.0
  0
LINE
  5
1A0
330
1F
100
AcDbEntity
  8
0
  6
Continuous
 62
     7
370
    25
100
AcDbLine
 10
168.7766948941
 20
122.3200010252
 30
0.0
 11
168.7766948941
 21
126.520000596
 31
0.0
  0
LINE
  5
1A1
330
1F
100
AcDbEntity
  8
0
  6
Continuous
 62
     7
370
    25
100
AcDbLine
 10
176.7766947153
 20
66.519999702
 30
0.0
 11
176.7766947153
 21
106.520000298
 31
0.0
  0
LINE
  5
1A2
330
1F
100
AcDbEntity
  8
0
  6
Continuous
 62
     7
370
    25
100
AcDbLine
 10
168.7766948941
 20
66.519999702
 30
0.0
 11
168.7766948941
 21
106.520000298
 31
0.0
  0
LINE
  5
1A3
330
1F
100
AcDbEntity
  8
0
  6
PHANTOM
 62
     8
370
    18
100
AcDbLine
 10
233.2766929868
 20
56.5199988079
 30
0.0
 11
233.2766929868
 21
53.0199991655
 31
0.0
  0
LINE
  5
1A4
330
1F
100
AcDbEntity
  8
0
  6
PHANTOM
 62
     8
370
    18
100
AcDbLine
 10
233.2766929868
 20
116.5200011921
 30
0.0
 11
233.2766929868
 21
120.0200008345
 31
0.0
  0
LINE
  5
1A5
330
1F
100
AcDbEntity
  8
0
  6
PHANTOM
 62
     8
370
    18
100
AcDbLine
 10
233.2766929868
 20
122.5200014305
 30
0.0
 11
233.2766929868
 21
126.520000596
 31
0.0
  0
LINE
  5
1A6
330
1F
100
AcDbEntity
  8
0
  6
PHANTOM
 62
     8
370
    18
100
AcDbLine
 10
233.2766929868
 20
50.5199985695
 30
0.0
 11
233.2766929868
 21
46.519999404
 31
0.0
  0
LINE
  5
1A7
330
1F
100
AcDbEntity
  8
0
  6
PHANTOM
 62
     8
370
    18
100
AcDbLine
 10
233.2766929868
 20
90.0200000149
 30
0.0
 11
223.7766960862
 21
90.0200000149
 31
0.0
  0
ARC
  5
1A8
330
1F
100
AcDbEntity
  8
0
  6
PHANTOM
 62
     8
370
    18
100
AcDbCircle
 10
233.2766948941
 20
103.52
 30
0.0
 40
13.50000000000002
100
AcDbArc
 50
270.0
 51
74.357528987
  0
ARC
  5
1A9
330
1F
100
AcDbEntity
  8
0
  6
PHANTOM
 62
     8
370
    18
100
AcDbCircle
 10
233.2766948941
 20
69.52
 30
0.0
 40
13.50000000000001
100
AcDbArc
 50
285.642471013
 51
90.0
  0
LINE
  5
1AA
330
1F
100
AcDbEntity
  8
0
  6
PHANTOM
 62
     8
370
    18
100
AcDbLine
 10
223.7766960862
 20
83.0199999851
 30
0.0
 11
233.2766929868
 21
83.0199999851
 31
0.0
  0
LINE
  5
1AB
330
1F
100
AcDbEntity
  8
0
  6
PHANTOM
 62
     8
370
    18
100
AcDbLine
 10
233.2766929868
 20
56.5199988079
 30
0.0
 11
233.2766929868
 21
59.5199989271
 31
0.0
  0
LWPOLYLINE
  5
1AC
330
1F
100
AcDbEntity
  8
0
  6
PHANTOM
 62
     8
370
    18
100
AcDbPolyline
 90
       16
 70
   128
 43
0.0
 10
236.9167486432
 20
56.5199988079
 10
236.8181029561
 20
56.8723010015
 10
236.7205420736
 20
57.2207408142
 10
236.6251269582
 20
57.5615005684
 10
236.5329066518
 20
57.8908519936
 10
236.4448884729
 20
58.2051860285
 10
236.3620439771
 20
58.5010545444
 10
236.2852791551
 20
58.775218029
 10
236.2154284719
 20
59.0246724081
 10
236.1532667878
 20
59.246687789
 10
236.0994676355
 20
59.4388263416
 10
236.0546211007
 20
59.5989870024
 10
236.0192219022
 20
59.7254114342
 10
235.9936515096
 20
59.8167197895
 10
235.9782019857
 20
59.8719077301
 10
235.973034263
 20
59.8903702688
  0
LINE
  5
1AD
330
1F
100
AcDbEntity
  8
0
  6
PHANTOM
 62
     8
370
    18
100
AcDbLine
 10
233.2766929868
 20
83.0199999851
 30
0.0
 11
233.2766929868
 21
79.5199999702
 31
0.0
  0
LINE
  5
1AE
330
1F
100
AcDbEntity
  8
0
  6
PHANTOM
 62
     8
370
    18
100
AcDbLine
 10
233.2766929868
 20
90.0200000149
 30
0.0
 11
233.2766929868
 21
93.5200000298
 31
0.0
  0
LWPOLYLINE
  5
1AF
330
1F
100
AcDbEntity
  8
0
  6
PHANTOM
 62
     8
370
    18
100
AcDbPolyline
 90
       16
 70
   128
 43
0.0
 10
236.9167486432
 20
116.5200011921
 10
236.8181029561
 20
116.1676989985
 10
236.7205420736
 20
115.8192591858
 10
236.6251269582
 20
115.4784994316
 10
236.5329066518
 20
115.1491480064
 10
236.4448884729
 20
114.8348139715
 10
236.3620439771
 20
114.5389454556
 10
236.2852791551
 20
114.264781971
 10
236.2154284719
 20
114.0153275919
 10
236.1532667878
 20
113.793312211
 10
236.0994676355
 20
113.6011736584
 10
236.0546211007
 20
113.4410129976
 10
236.0192219022
 20
113.3145885658
 10
235.9936515096
 20
113.2232802105
 10
235.9782019857
 20
113.1680922699
 10
235.973034263
 20
113.1496297312
  0
LINE
  5
1B0
330
1F
100
AcDbEntity
  8
0
  6
PHANTOM
 62
     8
370
    18
100
AcDbLine
 10
233.2766929868
 20
116.5200011921
 30
0.0
 11
233.2766929868
 21
113.5200010729
 31
0.0
  0
LINE
  5
1B1
330
1F
100
AcDbEntity
  8
0
  6
PHANTOM
 62
     8
370
    18
100
AcDbLine
 10
253.1766930822
 20
116.0199986887
 30
0.0
 11
253.1766930822
 21
57.0200013113
 31
0.0
  0
LINE
  5
1B2
330
1F
100
AcDbEntity
  8
0
  6
PHANTOM
 62
     8
370
    18
100
AcDbLine
 10
257.376692653
 20
116.0199986887
 30
0.0
 11
257.376692653
 21
57.0200013113
 31
0.0
  0
LINE
  5
1B3
330
1F
100
AcDbEntity
  8
0
  6
PHANTOM
 62
     8
370
    18
100
AcDbLine
 10
198.2766935828
 20
56.5199988079
 30
0.0
 11
198.2766935828
 21
53.0199991655
 31
0.0
  0
LINE
  5
1B4
330
1F
100
AcDbEntity
  8
0
  6
PHANTOM
 62
     8
370
    18
100
AcDbLine
 10
198.2766935828
 20
116.5200011921
 30
0.0
 11
198.2766935828
 21
120.0200008345
 31
0.0
  0
LINE
  5
1B5
330
1F
100
AcDbEntity
  8
0
  6
PHANTOM
 62
     8
370
    18
100
AcDbLine
 10
198.2766935828
 20
122.5200014305
 30
0.0
 11
198.2766935828
 21
126.520000596
 31
0.0
  0
LINE
  5
1B6
330
1F
100
AcDbEntity
  8
0
  6
PHANTOM
 62
     8
370
    18
100
AcDbLine
 10
198.2766935828
 20
50.5199985695
 30
0.0
 11
198.2766935828
 21
46.519999404
 31
0.0
  0
LINE
  5
1B7
330
1F
100
AcDbEntity
  8
0
  6
PHANTOM
 62
     8
370
    18
100
AcDbLine
 10
198.2766935828
 20
56.5199988079
 30
0.0
 11
198.2766935828
 21
59.5199989271
 31
0.0
  0
LINE
  5
1B8
330
1F
100
AcDbEntity
  8
0
  6
PHANTOM
 62
     8
370
    18
100
AcDbLine
 10
198.2766935828
 20
90.0200000149
 30
0.0
 11
188.7766951922
 21
90.0200000149
 31
0.0
  0
ARC
  5
1B9
330
1F
100
AcDbEntity
  8
0
  6
PHANTOM
 62
     8
370
    18
100
AcDbCircle
 10
198.2766948941
 20
103.52
 30
0.0
 40
13.50000000000002
100
AcDbArc
 50
270.0
 51
74.357528987
  0
ARC
  5
1BA
330
1F
100
AcDbEntity
  8
0
  6
PHANTOM
 62
     8
370
    18
100
AcDbCircle
 10
198.2766948941
 20
69.52
 30
0.0
 40
13.50000000000001
100
AcDbArc
 50
285.642471013
 51
90.0
  0
LINE
  5
1BB
330
1F
100
AcDbEntity
  8
0
  6
PHANTOM
 62
     8
370
    18
100
AcDbLine
 10
188.7766951922
 20
83.0199999851
 30
0.0
 11
198.2766935828
 21
83.0199999851
 31
0.0
  0
LWPOLYLINE
  5
1BC
330
1F
100
AcDbEntity
  8
0
  6
PHANTOM
 62
     8
370
    18
100
AcDbPolyline
 90
       16
 70
   128
 43
0.0
 10
201.9167492393
 20
56.5199988079
 10
201.8181035522
 20
56.8723010015
 10
201.7205396894
 20
57.2207408142
 10
201.625124574
 20
57.5615005684
 10
201.5329042676
 20
57.8908519936
 10
201.4448920491
 20
58.2051860285
 10
201.3620475534
 20
58.5010545444
 10
201.2852797511
 20
58.775218029
 10
201.2154320482
 20
59.0246724081
 10
201.1532673839
 20
59.246687789
 10
201.0994652513
 20
59.4388263416
 10
201.0546216968
 20
59.5989870024
 10
201.019219518
 20
59.7254114342
 10
200.9936550859
 20
59.8167197895
 10
200.9782025817
 20
59.8719077301
 10
200.9730318788
 20
59.8903702688
  0
LINE
  5
1BD
330
1F
100
AcDbEntity
  8
0
  6
PHANTOM
 62
     8
370
    18
100
AcDbLine
 10
198.2766935828
 20
83.0199999851
 30
0.0
 11
198.2766935828
 21
79.5199999702
 31
0.0
  0
LINE
  5
1BE
330
1F
100
AcDbEntity
  8
0
  6
PHANTOM
 62
     8
370
    18
100
AcDbLine
 10
198.2766935828
 20
90.0200000149
 30
0.0
 11
198.2766935828
 21
93.5200000298
 31
0.0
  0
LWPOLYLINE
  5
1BF
330
1F
100
AcDbEntity
  8
0
  6
PHANTOM
 62
     8
370
    18
100
AcDbPolyline
 90
       16
 70
   128
 43
0.0
 10
201.9167492393
 20
116.5200011921
 10
201.8181035522
 20
116.1676989985
 10
201.7205396894
 20
115.8192591858
 10
201.625124574
 20
115.4784994316
 10
201.5329042676
 20
115.1491480064
 10
201.4448920491
 20
114.8348139715
 10
201.3620475534
 20
114.5389454556
 10
201.2852797511
 20
114.264781971
 10
201.2154320482
 20
114.0153275919
 10
201.1532673839
 20
113.793312211
 10
201.0994652513
 20
113.6011736584
 10
201.0546216968
 20
113.4410129976
 10
201.019219518
 20
113.3145885658
 10
200.9936550859
 20
113.2232802105
 10
200.9782025817
 20
113.1680922699
 10
200.9730318788
 20
113.1496297312
  0
LINE
  5
1C0
330
1F
100
AcDbEntity
  8
0
  6
PHANTOM
 62
     8
370
    18
100
AcDbLine
 10
198.2766935828
 20
116.5200011921
 30
0.0
 11
198.2766935828
 21
113.5200010729
 31
0.0
  0
HATCH
  5
1C1
330
1F
100
AcDbEntity
  8
0
  6
Continuous
 62
     7
370
    18
100
AcDbHatch
 10
0.0
 20
0.0
 30
0.0
210
0.0
220
0.0
230
1.0
  2
ANSI34
 70
     0
 71
     0
 91
        1
 92
        0
 93
        4
 72
     1
 10
168.776694894147
 20
106.5200000000002
 11
176.7766948941471
 21
106.5200000000002
 72
     1
 10
176.7766948941471
 20
106.5200000000002
 11
176.7766948941471
 21
122.3200000000001
 72
     1
 10
176.7766948941471
 20
122.3200000000001
 11
168.7766948941471
 21
122.3200000000002
 72
     1
 10
168.7766948941471
 20
122.3200000000002
 11
168.776694894147
 21
106.5200000000002
 97
        0
 75
     0
 76
     1
 52
0.0
 41
1.0
 77
     0
 78
     4
 53
45.0
 43
0.0
 44
0.0
 45
-13.47038418160373
 46
13.47038418160373
 79
     0
 53
45.0
 43
4.49013
 44
0.0
 45
-13.47038418160373
 46
13.47038418160373
 79
     0
 53
45.0
 43
8.98026
 44
0.0
 45
-13.47038418160373
 46
13.47038418160373
 79
     0
 53
45.0
 43
13.4704
 44
0.0
 45
-13.47038418160373
 46
13.47038418160373
 79
     0
 98
        1
 10
0.0
 20
0.0
  0
HATCH
  5
1C2
330
1F
100
AcDbEntity
  8
0
  6
Continuous
 62
     7
370
    18
100
AcDbHatch
 10
0.0
 20
0.0
 30
0.0
210
0.0
220
0.0
230
1.0
  2
ANSI34
 70
     0
 71
     0
 91
        1
 92
        0
 93
        4
 72
     1
 10
176.7766948941469
 20
66.52000000000014
 11
168.7766948941469
 21
66.52000000000017
 72
     1
 10
168.7766948941469
 20
66.52000000000017
 11
168.7766948941469
 21
50.72000000000018
 72
     1
 10
168.7766948941469
 20
50.72000000000018
 11
176.7766948941469
 21
50.72000000000015
 72
     1
 10
176.7766948941469
 20
50.72000000000015
 11
176.7766948941469
 21
66.52000000000014
 97
        0
 75
     0
 76
     1
 52
0.0
 41
1.0
 77
     0
 78
     4
 53
45.0
 43
0.0
 44
0.0
 45
-13.47038418160373
 46
13.47038418160373
 79
     0
 53
45.0
 43
4.49013
 44
0.0
 45
-13.47038418160373
 46
13.47038418160373
 79
     0
 53
45.0
 43
8.98026
 44
0.0
 45
-13.47038418160373
 46
13.47038418160373
 79
     0
 53
45.0
 43
13.4704
 44
0.0
 45
-13.47038418160373
 46
13.47038418160373
 79
     0
 98
        1
 10
0.0
 20
0.0
  0
HATCH
  5
1C3
330
1F
100
AcDbEntity
  8
0
  6
Continuous
 62
     7
370
    18
100
AcDbHatch
 10
0.0
 20
0.0
 30
0.0
210
0.0
220
0.0
230
1.0
  2
ANSI34
 70
     0
 71
     0
 91
        1
 92
        0
 93
        8
 72
     1
 10
174.2766948941471
 20
122.5200000000002
 11
177.7766948941471
 21
122.5200000000002
 72
     1
 10
177.7766948941471
 20
122.5200000000002
 11
177.7766948941471
 21
116.5200000000002
 72
     1
 10
177.7766948941471
 20
116.5200000000002
 11
187.7766948941471
 21
116.5200000000001
 72
     1
 10
187.7766948941471
 20
116.5200000000001
 11
187.7766948941471
 21
122.1200000000001
 72
     1
 10
187.7766948941471
 20
122.1200000000001
 11
184.2766948941471
 21
122.3647438418024
 72
     1
 10
184.2766948941471
 20
122.3647438418024
 11
184.2766948941471
 21
126.5200000000001
 72
     1
 10
184.2766948941471
 20
126.5200000000001
 11
174.2766948941471
 21
126.5200000000002
 72
     1
 10
174.2766948941471
 20
126.5200000000002
 11
174.2766948941471
 21
122.5200000000002
 97
        0
 75
     0
 76
     1
 52
0.0
 41
1.0
 77
     0
 78
     4
 53
45.0
 43
0.0
 44
0.0
 45
-13.47038418160373
 46
13.47038418160373
 79
     0
 53
45.0
 43
4.49013
 44
0.0
 45
-13.47038418160373
 46
13.47038418160373
 79
     0
 53
45.0
 43
8.98026
 44
0.0
 45
-13.47038418160373
 46
13.47038418160373
 79
     0
 53
45.0
 43
13.4704
 44
0.0
 45
-13.47038418160373
 46
13.47038418160373
 79
     0
 98
        1
 10
0.0
 20
0.0
  0
HATCH
  5
1C4
330
1F
100
AcDbEntity
  8
0
  6
Continuous
 62
     7
370
    18
100
AcDbHatch
 10
0.0
 20
0.0
 30
0.0
210
0.0
220
0.0
230
1.0
  2
ANSI34
 70
     0
 71
     0
 91
        1
 92
        0
 93
        8
 72
     1
 10
187.7766948941469
 20
56.52000000000012
 11
177.7766948941469
 21
56.52000000000016
 72
     1
 10
177.7766948941469
 20
56.52000000000016
 11
177.7766948941469
 21
50.52000000000017
 72
     1
 10
177.7766948941469
 20
50.52000000000017
 11
174.2766948941469
 21
50.52000000000018
 72
     1
 10
174.2766948941469
 20
50.52000000000018
 11
174.2766948941469
 21
46.52000000000018
 72
     1
 10
174.2766948941469
 20
46.52000000000018
 11
184.2766948941468
 21
46.52000000000014
 72
     1
 10
184.2766948941468
 20
46.52000000000014
 11
184.2766948941469
 21
50.67525615819786
 72
     1
 10
184.2766948941469
 20
50.67525615819786
 11
187.7766948941469
 21
50.92000000000013
 72
     1
 10
187.7766948941469
 20
50.92000000000013
 11
187.7766948941469
 21
56.52000000000012
 97
        0
 75
     0
 76
     1
 52
0.0
 41
1.0
 77
     0
 78
     4
 53
45.0
 43
0.0
 44
0.0
 45
-13.47038418160373
 46
13.47038418160373
 79
     0
 53
45.0
 43
4.49013
 44
0.0
 45
-13.47038418160373
 46
13.47038418160373
 79
     0
 53
45.0
 43
8.98026
 44
0.0
 45
-13.47038418160373
 46
13.47038418160373
 79
     0
 53
45.0
 43
13.4704
 44
0.0
 45
-13.47038418160373
 46
13.47038418160373
 79
     0
 98
        1
 10
0.0
 20
0.0
  0
HATCH
  5
1C5
330
1F
100
AcDbEntity
  8
0
  6
Continuous
 62
     7
370
    18
100
AcDbHatch
 10
0.0
 20
0.0
 30
0.0
210
0.0
220
0.0
230
1.0
  2
ANSI34
 70
     0
 71
     0
 91
        1
 92
        0
 93
       12
 72
     1
 10
188.7766948941469
 20
53.02000000000012
 11
188.7766948941469
 21
51.52000000000013
 72
     1
 10
188.7766948941469
 20
51.52000000000013
 11
208.2766948941469
 21
51.52000000000006
 72
     1
 10
208.2766948941469
 20
51.52000000000006
 11
208.2766948941469
 21
50.52000000000006
 72
     1
 10
208.2766948941469
 20
50.52000000000006
 11
211.7772174865096
 21
50.52000000000005
 72
     1
 10
211.7772174865096
 20
50.52000000000005
 11
214.2766948941469
 21
46.52000000000003
 72
     1
 10
214.2766948941469
 20
46.52000000000003
 11
219.2766948941468
 21
46.52000000000002
 72
     1
 10
219.2766948941468
 20
46.52000000000002
 11
219.2766948941469
 21
50.52000000000002
 72
     1
 10
219.2766948941469
 20
50.52000000000002
 11
222.7766948941469
 21
50.72000000000001
 72
     1
 10
222.7766948941469
 20
50.72000000000001
 11
222.7766948941469
 21
56.52
 72
     1
 10
222.7766948941469
 20
56.52
 11
211.7766948941469
 21
56.52000000000005
 72
     2
 10
211.7766948941469
 20
53.02000000000004
 40
3.5
 50
89.99999999999955
 51
179.9999999999998
 73
     1
 72
     1
 10
208.2766948941469
 20
53.02000000000005
 11
188.7766948941469
 21
53.02000000000012
 97
        0
 75
     0
 76
     1
 52
0.0
 41
1.0
 77
     0
 78
     4
 53
45.0
 43
0.0
 44
0.0
 45
-13.47038418160373
 46
13.47038418160373
 79
     0
 53
45.0
 43
4.49013
 44
0.0
 45
-13.47038418160373
 46
13.47038418160373
 79
     0
 53
45.0
 43
8.98026
 44
0.0
 45
-13.47038418160373
 46
13.47038418160373
 79
     0
 53
45.0
 43
13.4704
 44
0.0
 45
-13.47038418160373
 46
13.47038418160373
 79
     0
 98
        1
 10
0.0
 20
0.0
  0
HATCH
  5
1C6
330
1F
100
AcDbEntity
  8
0
  6
Continuous
 62
     7
370
    18
100
AcDbHatch
 10
0.0
 20
0.0
 30
0.0
210
0.0
220
0.0
230
1.0
  2
ANSI34
 70
     0
 71
     0
 91
        1
 92
        0
 93
       12
 72
     1
 10
188.7766948941471
 20
121.5200000000001
 11
188.7766948941471
 21
120.0200000000001
 72
     1
 10
188.7766948941471
 20
120.0200000000001
 11
208.2766948941471
 21
120.02
 72
     2
 10
211.7766948941471
 20
120.02
 40
3.5
 50
180.0
 51
270.0000000000003
 73
     1
 72
     1
 10
211.7766948941471
 20
116.52
 11
222.7766948941471
 21
116.52
 72
     1
 10
222.7766948941471
 20
116.52
 11
222.7766948941471
 21
122.32
 72
     1
 10
222.7766948941471
 20
122.32
 11
219.2766948941471
 21
122.52
 72
     1
 10
219.2766948941471
 20
122.52
 11
219.2766948941471
 21
126.52
 72
     1
 10
219.2766948941471
 20
126.52
 11
214.2766948941471
 21
126.52
 72
     1
 10
214.2766948941471
 20
126.52
 11
211.7772174865098
 21
122.52
 72
     1
 10
211.7772174865098
 20
122.52
 11
208.2766948941471
 21
122.52
 72
     1
 10
208.2766948941471
 20
122.52
 11
208.2766948941471
 21
121.52
 72
     1
 10
208.2766948941471
 20
121.52
 11
188.7766948941471
 21
121.5200000000001
 97
        0
 75
     0
 76
     1
 52
0.0
 41
1.0
 77
     0
 78
     4
 53
45.0
 43
0.0
 44
0.0
 45
-13.47038418160373
 46
13.47038418160373
 79
     0
 53
45.0
 43
4.49013
 44
0.0
 45
-13.47038418160373
 46
13.47038418160373
 79
     0
 53
45.0
 43
8.98026
 44
0.0
 45
-13.47038418160373
 46
13.47038418160373
 79
     0
 53
45.0
 43
13.4704
 44
0.0
 45
-13.47038418160373
 46
13.47038418160373
 79
     0
 98
        1
 10
0.0
 20
0.0
  0
HATCH
  5
1C7
330
1F
100
AcDbEntity
  8
0
  6
Continuous
 62
     7
370
    18
100
AcDbHatch
 10
0.0
 20
0.0
 30
0.0
210
0.0
220
0.0
230
1.0
  2
DIN 201 Stahl und Stahlguss
 70
     0
 71
     0
 91
        1
 92
        0
 93
        4
 72
     1
 10
258.0766948941471
 20
122.1199999999999
 11
257.7766948941471
 21
122.1199999999999
 72
     1
 10
257.7766948941471
 20
122.1199999999999
 11
257.7766948941468
 21
50.91999999999982
 72
     1
 10
257.7766948941468
 20
50.91999999999982
 11
258.0766948941468
 21
50.91999999999982
 72
     1
 10
258.0766948941468
 20
50.91999999999982
 11
258.0766948941471
 21
122.1199999999999
 97
        0
 75
     0
 76
     2
 52
0.0
 41
1.0
 77
     0
 78
     4
 53
45.00000209717174
 43
0.0
 44
0.0
 45
-13.47038467465416
 46
13.47038368855329
 79
     0
 53
45.00000209717174
 43
4.490128
 44
0.0
 45
-13.47038467465416
 46
13.47038368855329
 79
     0
 53
45.00000209717174
 43
8.980256
 44
0.0
 45
-13.47038467465416
 46
13.47038368855329
 79
     0
 53
45.00000209717174
 43
13.47038
 44
0.0
 45
-13.47038467465416
 46
13.47038368855329
 79
     0
 98
        1
 10
0.0
 20
0.0
  0
HATCH
  5
1C8
330
1F
100
AcDbEntity
  8
0
  6
Continuous
 62
     7
370
    18
100
AcDbHatch
 10
0.0
 20
0.0
 30
0.0
210
0.0
220
0.0
230
1.0
  2
DIN 201 Stahl und Stahlguss
 70
     0
 71
     0
 91
        1
 92
        0
 93
        4
 72
     1
 10
257.7766948941468
 20
57.01999999999988
 11
257.7766948941471
 21
116.0199999999999
 72
     1
 10
257.7766948941471
 20
116.0199999999999
 11
257.576694894147
 21
116.0199999999999
 72
     1
 10
257.576694894147
 20
116.0199999999999
 11
257.5766948941468
 21
57.01999999999989
 72
     1
 10
257.5766948941468
 20
57.01999999999989
 11
257.7766948941468
 21
57.01999999999988
 97
        0
 75
     0
 76
     2
 52
90.0
 41
1.0
 77
     0
 78
     4
 53
135.0000020971719
 43
0.0
 44
0.0
 45
-13.47038368855324
 46
-13.4703846746542
 79
     0
 53
135.0000020971719
 43
-0.0000000000000157
 44
4.490128
 45
-13.47038368855324
 46
-13.4703846746542
 79
     0
 53
135.0000020971719
 43
-0.0000000000000314
 44
8.980256
 45
-13.47038368855324
 46
-13.4703846746542
 79
     0
 53
135.0000020971719
 43
-0.000000000000047
 44
13.47038
 45
-13.47038368855324
 46
-13.4703846746542
 79
     0
 98
        1
 10
0.0
 20
0.0
  0
HATCH
  5
1C9
330
1F
100
AcDbEntity
  8
0
  6
Continuous
 62
     7
370
    18
100
AcDbHatch
 10
0.0
 20
0.0
 30
0.0
210
0.0
220
0.0
230
1.0
  2
DIN 201 Stahl und Stahlguss
 70
     0
 71
     0
 91
        1
 92
        0
 93
        4
 72
     1
 10
252.7766948941471
 20
116.0199999999999
 11
252.7766948941469
 21
57.0199999999999
 72
     1
 10
252.7766948941469
 20
57.0199999999999
 11
252.9766948941469
 21
57.0199999999999
 72
     1
 10
252.9766948941469
 20
57.0199999999999
 11
252.9766948941471
 21
116.0199999999999
 72
     1
 10
252.9766948941471
 20
116.0199999999999
 11
252.7766948941471
 21
116.0199999999999
 97
        0
 75
     0
 76
     2
 52
90.0
 41
1.0
 77
     0
 78
     4
 53
135.0000020971719
 43
0.0
 44
0.0
 45
-13.47038368855324
 46
-13.4703846746542
 79
     0
 53
135.0000020971719
 43
-0.0000000000000157
 44
4.490128
 45
-13.47038368855324
 46
-13.4703846746542
 79
     0
 53
135.0000020971719
 43
-0.0000000000000314
 44
8.980256
 45
-13.47038368855324
 46
-13.4703846746542
 79
     0
 53
135.0000020971719
 43
-0.000000000000047
 44
13.47038
 45
-13.47038368855324
 46
-13.4703846746542
 79
     0
 98
        1
 10
0.0
 20
0.0
  0
HATCH
  5
1CA
330
1F
100
AcDbEntity
  8
0
  6
Continuous
 62
     7
370
    18
100
AcDbHatch
 10
0.0
 20
0.0
 30
0.0
210
0.0
220
0.0
230
1.0
  2
ANSI34
 70
     0
 71
     0
 91
        1
 92
        0
 93
       12
 72
     1
 10
223.7766948941469
 20
53.02
 11
223.7766948941469
 21
51.52
 72
     1
 10
223.7766948941469
 20
51.52
 11
243.2766948941469
 21
51.51999999999994
 72
     1
 10
243.2766948941469
 20
51.51999999999994
 11
243.2766948941469
 21
50.51999999999994
 72
     1
 10
243.2766948941469
 20
50.51999999999994
 11
246.7772174865096
 21
50.51999999999992
 72
     1
 10
246.7772174865096
 20
50.51999999999992
 11
249.2766948941468
 21
46.51999999999991
 72
     1
 10
249.2766948941468
 20
46.51999999999991
 11
254.2766948941468
 21
46.5199999999999
 72
     1
 10
254.2766948941468
 20
46.5199999999999
 11
254.2766948941468
 21
50.5199999999999
 72
     1
 10
254.2766948941468
 20
50.5199999999999
 11
257.7766948941468
 21
50.71999999999989
 72
     1
 10
257.7766948941468
 20
50.71999999999989
 11
257.7766948941469
 21
56.51999999999988
 72
     1
 10
257.7766948941469
 20
56.51999999999988
 11
246.7766948941469
 21
56.51999999999992
 72
     2
 10
246.7766948941469
 20
53.01999999999992
 40
3.5
 50
89.99999999999955
 51
179.9999999999999
 73
     1
 72
     1
 10
243.2766948941469
 20
53.01999999999992
 11
223.7766948941469
 21
53.02
 97
        0
 75
     0
 76
     1
 52
90.0
 41
1.0
 77
     0
 78
     4
 53
135.0000000000002
 43
0.0
 44
0.0
 45
-13.47038418160369
 46
-13.47038418160378
 79
     0
 53
135.0000000000002
 43
-0.0000000000000157
 44
4.49013
 45
-13.47038418160369
 46
-13.47038418160378
 79
     0
 53
135.0000000000002
 43
-0.0000000000000314
 44
8.98026
 45
-13.47038418160369
 46
-13.47038418160378
 79
     0
 53
135.0000000000002
 43
-0.000000000000047
 44
13.4704
 45
-13.47038418160369
 46
-13.47038418160378
 79
     0
 98
        1
 10
0.0
 20
0.0
  0
HATCH
  5
1CB
330
1F
100
AcDbEntity
  8
0
  6
Continuous
 62
     7
370
    18
100
AcDbHatch
 10
0.0
 20
0.0
 30
0.0
210
0.0
220
0.0
230
1.0
  2
ANSI34
 70
     0
 71
     0
 91
        1
 92
        0
 93
       12
 72
     1
 10
223.7766948941471
 20
121.52
 11
223.7766948941471
 21
120.02
 72
     1
 10
223.7766948941471
 20
120.02
 11
243.2766948941471
 21
120.0199999999999
 72
     2
 10
246.7766948941471
 20
120.0199999999999
 40
3.5
 50
179.9999999999998
 51
270.0000000000003
 73
     1
 72
     1
 10
246.7766948941471
 20
116.5199999999999
 11
257.7766948941471
 21
116.5199999999999
 72
     1
 10
257.7766948941471
 20
116.5199999999999
 11
257.7766948941471
 21
122.3199999999999
 72
     1
 10
257.7766948941471
 20
122.3199999999999
 11
254.2766948941471
 21
122.5199999999999
 72
     1
 10
254.2766948941471
 20
122.5199999999999
 11
254.2766948941471
 21
126.5199999999999
 72
     1
 10
254.2766948941471
 20
126.5199999999999
 11
249.2766948941471
 21
126.5199999999999
 72
     1
 10
249.2766948941471
 20
126.5199999999999
 11
246.7772174865098
 21
122.5199999999999
 72
     1
 10
246.7772174865098
 20
122.5199999999999
 11
243.2766948941471
 21
122.5199999999999
 72
     1
 10
243.2766948941471
 20
122.5199999999999
 11
243.2766948941471
 21
121.5199999999999
 72
     1
 10
243.2766948941471
 20
121.5199999999999
 11
223.7766948941471
 21
121.52
 97
        0
 75
     0
 76
     1
 52
90.0
 41
1.0
 77
     0
 78
     4
 53
135.0000000000002
 43
0.0
 44
0.0
 45
-13.47038418160369
 46
-13.47038418160378
 79
     0
 53
135.0000000000002
 43
-0.0000000000000157
 44
4.49013
 45
-13.47038418160369
 46
-13.47038418160378
 79
     0
 53
135.0000000000002
 43
-0.0000000000000314
 44
8.98026
 45
-13.47038418160369
 46
-13.47038418160378
 79
     0
 53
135.0000000000002
 43
-0.000000000000047
 44
13.4704
 45
-13.47038418160369
 46
-13.47038418160378
 79
     0
 98
        1
 10
0.0
 20
0.0
  0
INSERT
  5
1D1
330
1F
100
AcDbEntity
  8
O-TEKST
100
AcDbBlockReference
  2
SW_NOTE_0
 10
191.8918012324
 20
26.2730035942
 30
0.0
  0
LINE
  5
1D2
330
1F
100
AcDbEntity
  8
0
  6
Continuous
 62
     7
370
    25
100
AcDbLine
 10
54.9866942981
 20
258.4100019073
 30
0.0
 11
54.9866942981
 21
224.4099985695
 31
0.0
  0
LINE
  5
1D3
330
1F
100
AcDbEntity
  8
0
  6
Continuous
 62
     7
370
    25
100
AcDbLine
 10
59.1866938689
 20
261.9099985695
 30
0.0
 11
58.9866934636
 21
258.4100019073
 31
0.0
  0
LINE
  5
1D4
330
1F
100
AcDbEntity
  8
0
  6
Continuous
 62
     7
370
    25
100
AcDbLine
 10
64.9866937021
 20
261.9099985695
 30
0.0
 11
64.9866937021
 21
227.9100011921
 31
0.0
  0
LINE
  5
1D5
330
1F
100
AcDbEntity
  8
0
  6
Continuous
 62
     7
370
    25
100
AcDbLine
 10
58.7866960386
 20
224.4099985695
 30
0.0
 11
58.9988021472
 21
227.9100011921
 31
0.0
  0
LINE
  5
1D6
330
1F
100
AcDbEntity
  8
0
  6
Continuous
 62
     7
370
    25
100
AcDbLine
 10
58.7866960386
 20
224.4099985695
 30
0.0
 11
54.9866942981
 21
224.4099985695
 31
0.0
  0
LINE
  5
1D7
330
1F
100
AcDbEntity
  8
0
  6
Continuous
 62
     7
370
    25
100
AcDbLine
 10
64.9866937021
 20
261.9099985695
 30
0.0
 11
59.1866938689
 21
261.9099985695
 31
0.0
  0
LINE
  5
1D8
330
1F
100
AcDbEntity
  8
0
  6
Continuous
 62
     7
370
    25
100
AcDbLine
 10
54.9866942981
 20
258.4100019073
 30
0.0
 11
58.9866934636
 21
258.4100019073
 31
0.0
  0
LINE
  5
1D9
330
1F
100
AcDbEntity
  8
0
  6
Continuous
 62
     7
370
    25
100
AcDbLine
 10
58.9988021472
 20
227.9100011921
 30
0.0
 11
64.9866937021
 21
227.9100011921
 31
0.0
  0
LINE
  5
1DA
330
1F
100
AcDbEntity
  8
0
  6
Continuous
 62
     7
370
    25
100
AcDbLine
 10
130.9866963247
 20
258.4100019073
 30
0.0
 11
130.7866959193
 21
261.9099985695
 31
0.0
  0
LINE
  5
1DB
330
1F
100
AcDbEntity
  8
0
  6
Continuous
 62
     7
370
    25
100
AcDbLine
 10
134.9866954902
 20
224.4099985695
 30
0.0
 11
131.1866937497
 21
224.4099985695
 31
0.0
  0
LINE
  5
1DC
330
1F
100
AcDbEntity
  8
0
  6
Continuous
 62
     7
370
    25
100
AcDbLine
 10
130.9745876411
 20
227.9100011921
 30
0.0
 11
131.1866937497
 21
224.4099985695
 31
0.0
  0
LINE
  5
1DD
330
1F
100
AcDbEntity
  8
0
  6
Continuous
 62
     7
370
    25
100
AcDbLine
 10
124.9866960862
 20
227.9100011921
 30
0.0
 11
124.9866960862
 21
261.9099985695
 31
0.0
  0
LINE
  5
1DE
330
1F
100
AcDbEntity
  8
0
  6
Continuous
 62
     7
370
    25
100
AcDbLine
 10
134.9866954902
 20
224.4099985695
 30
0.0
 11
134.9866954902
 21
258.4100019073
 31
0.0
  0
LINE
  5
1DF
330
1F
100
AcDbEntity
  8
0
  6
Continuous
 62
     7
370
    25
100
AcDbLine
 10
130.7866959193
 20
261.9099985695
 30
0.0
 11
124.9866960862
 21
261.9099985695
 31
0.0
  0
LINE
  5
1E0
330
1F
100
AcDbEntity
  8
0
  6
Continuous
 62
     7
370
    25
100
AcDbLine
 10
130.9866963247
 20
258.4100019073
 30
0.0
 11
134.9866954902
 21
258.4100019073
 31
0.0
  0
LINE
  5
1E1
330
1F
100
AcDbEntity
  8
0
  6
Continuous
 62
     7
370
    25
100
AcDbLine
 10
124.9866960862
 20
227.9100011921
 30
0.0
 11
130.9745876411
 21
227.9100011921
 31
0.0
  0
LINE
  5
1E2
330
1F
100
AcDbEntity
  8
0
  6
Continuous
 62
     7
370
    25
100
AcDbLine
 10
81.4866943577
 20
227.9100011921
 30
0.0
 11
64.9866937021
 21
227.9100011921
 31
0.0
  0
LINE
  5
1E3
330
1F
100
AcDbEntity
  8
0
  6
Continuous
 62
     7
370
    25
100
AcDbLine
 10
124.9866960862
 20
227.9100011921
 30
0.0
 11
108.4866954306
 21
227.9100011921
 31
0.0
  0
LINE
  5
1E4
330
1F
100
AcDbEntity
  8
0
  6
Continuous
 62
     7
370
    25
100
AcDbLine
 10
104.9866950432
 20
227.9100011921
 30
0.0
 11
104.9866950432
 21
237.4099980927
 31
0.0
  0
LINE
  5
1E5
330
1F
100
AcDbEntity
  8
0
  6
Continuous
 62
     7
370
    25
100
AcDbLine
 10
108.4866954306
 20
227.9100011921
 30
0.0
 11
104.9866950432
 21
227.9100011921
 31
0.0
  0
ARC
  5
1E6
330
1F
100
AcDbEntity
  8
0
  6
Continuous
 62
     7
370
    25
100
AcDbCircle
 10
94.9866948941
 20
237.41
 30
0.0
 40
10.0
100
AcDbArc
 50
0.0
 51
180.0
  0
LINE
  5
1E7
330
1F
100
AcDbEntity
  8
0
  6
Continuous
 62
     7
370
    25
100
AcDbLine
 10
84.9866947451
 20
237.4099980927
 30
0.0
 11
84.9866947451
 21
227.9100011921
 31
0.0
  0
LINE
  5
1E8
330
1F
100
AcDbEntity
  8
0
  6
Continuous
 62
     7
370
    25
100
AcDbLine
 10
84.9866947451
 20
227.9100011921
 30
0.0
 11
81.4866943577
 21
227.9100011921
 31
0.0
  0
LINE
  5
1E9
330
1F
100
AcDbEntity
  8
0
  6
Continuous
 62
     7
370
    25
100
AcDbLine
 10
84.9866947451
 20
227.9100011921
 30
0.0
 11
104.9866950432
 21
227.9100011921
 31
0.0
  0
LINE
  5
1EA
330
1F
100
AcDbEntity
  8
0
  6
Continuous
 62
     7
370
    25
100
AcDbLine
 10
108.4872169712
 20
227.7102183437
 30
0.0
 11
108.5175199726
 21
226.9100021458
 31
0.0
  0
LINE
  5
1EB
330
1F
100
AcDbEntity
  8
0
  6
Continuous
 62
     7
370
    25
100
AcDbLine
 10
108.4872169712
 20
227.7102183437
 30
0.0
 11
100.0866947988
 21
227.7102183437
 31
0.0
  0
LINE
  5
1EC
330
1F
100
AcDbEntity
  8
0
  6
Continuous
 62
     7
370
    25
100
AcDbLine
 10
100.0866947988
 20
227.9100011921
 30
0.0
 11
100.0866947988
 21
227.7102183437
 31
0.0
  0
LINE
  5
1ED
330
1F
100
AcDbEntity
  8
0
  6
Continuous
 62
     7
370
    25
100
AcDbLine
 10
130.9295533517
 20
224.4099985695
 30
0.0
 11
131.1866937497
 21
224.4099985695
 31
0.0
  0
LINE
  5
1EE
330
1F
100
AcDbEntity
  8
0
  6
Continuous
 62
     7
370
    25
100
AcDbLine
 10
81.4558698157
 20
226.9100021458
 30
0.0
 11
81.4861728171
 21
227.7102183437
 31
0.0
  0
LINE
  5
1EF
330
1F
100
AcDbEntity
  8
0
  6
Continuous
 62
     7
370
    25
100
AcDbLine
 10
89.8866949895
 20
227.7102183437
 30
0.0
 11
81.4861728171
 21
227.7102183437
 31
0.0
  0
LINE
  5
1F0
330
1F
100
AcDbEntity
  8
0
  6
Continuous
 62
     7
370
    25
100
AcDbLine
 10
89.8866949895
 20
227.7102183437
 30
0.0
 11
89.8866949895
 21
227.9100011921
 31
0.0
  0
LINE
  5
1F1
330
1F
100
AcDbEntity
  8
0
  6
Continuous
 62
     7
370
    25
100
AcDbLine
 10
58.7866960386
 20
224.4099985695
 30
0.0
 11
59.0438364366
 21
224.4099985695
 31
0.0
  0
ARC
  5
1F2
330
1F
100
AcDbEntity
  8
0
  6
Continuous
 62
     7
370
    25
100
AcDbCircle
 10
92.8866948941
 20
257.31
 30
0.0
 40
0.4000000000000341
100
AcDbArc
 50
180.0
 51
270.0
  0
LINE
  5
1F3
330
1F
100
AcDbEntity
  8
0
  6
Continuous
 62
     7
370
    25
100
AcDbLine
 10
92.4866948569
 20
261.5099977589
 30
0.0
 11
92.4866948569
 21
257.309998188
 31
0.0
  0
ARC
  5
1F4
330
1F
100
AcDbEntity
  8
0
  6
Continuous
 62
     7
370
    25
100
AcDbCircle
 10
92.8866948941
 20
261.51
 30
0.0
 40
0.3999999999999915
100
AcDbArc
 50
90.0
 51
180.0
  0
LINE
  5
1F5
330
1F
100
AcDbEntity
  8
0
  6
Continuous
 62
     7
370
    25
100
AcDbLine
 10
97.0866948658
 20
261.9099985695
 30
0.0
 11
92.8866949225
 21
261.9099985695
 31
0.0
  0
ARC
  5
1F6
330
1F
100
AcDbEntity
  8
0
  6
Continuous
 62
     7
370
    25
100
AcDbCircle
 10
97.0866948941
 20
261.51
 30
0.0
 40
0.3999999999999915
100
AcDbArc
 50
0.0
 51
90.0
  0
LINE
  5
1F7
330
1F
100
AcDbEntity
  8
0
  6
Continuous
 62
     7
370
    25
100
AcDbLine
 10
97.4866949314
 20
257.309998188
 30
0.0
 11
97.4866949314
 21
261.5099977589
 31
0.0
  0
ARC
  5
1F8
330
1F
100
AcDbEntity
  8
0
  6
Continuous
 62
     7
370
    25
100
AcDbCircle
 10
97.0866948941
 20
257.31
 30
0.0
 40
0.4000000000000341
100
AcDbArc
 50
270.0
 51
0.0
  0
LINE
  5
1F9
330
1F
100
AcDbEntity
  8
0
  6
Continuous
 62
     7
370
    25
100
AcDbLine
 10
92.8866949225
 20
256.9099973774
 30
0.0
 11
97.0866948658
 21
256.9099973774
 31
0.0
  0
LINE
  5
1FA
330
1F
100
AcDbEntity
  8
0
  6
Continuous
 62
     7
370
    25
100
AcDbLine
 10
97.2866948986
 20
257.309998188
 30
0.0
 11
97.2866948986
 21
261.5099977589
 31
0.0
  0
ARC
  5
1FB
330
1F
100
AcDbEntity
  8
0
  6
Continuous
 62
     7
370
    25
100
AcDbCircle
 10
97.0866948941
 20
261.51
 30
0.0
 40
0.1999999999999886
100
AcDbArc
 50
0.0
 51
90.0
  0
LINE
  5
1FC
330
1F
100
AcDbEntity
  8
0
  6
Continuous
 62
     7
370
    25
100
AcDbLine
 10
97.0866948658
 20
261.7100011444
 30
0.0
 11
92.8866949225
 21
261.7100011444
 31
0.0
  0
ARC
  5
1FD
330
1F
100
AcDbEntity
  8
0
  6
Continuous
 62
     7
370
    25
100
AcDbCircle
 10
92.8866948941
 20
261.51
 30
0.0
 40
0.1999999999999886
100
AcDbArc
 50
90.0
 51
180.0
  0
LINE
  5
1FE
330
1F
100
AcDbEntity
  8
0
  6
Continuous
 62
     7
370
    25
100
AcDbLine
 10
92.6866948897
 20
261.5099977589
 30
0.0
 11
92.6866948897
 21
257.309998188
 31
0.0
  0
ARC
  5
1FF
330
1F
100
AcDbEntity
  8
0
  6
Continuous
 62
     7
370
    25
100
AcDbCircle
 10
92.8866948941
 20
257.31
 30
0.0
 40
0.2000000000000455
100
AcDbArc
 50
180.0
 51
270.0
  0
LINE
  5
200
330
1F
100
AcDbEntity
  8
0
  6
Continuous
 62
     7
370
    25
100
AcDbLine
 10
92.8866949225
 20
257.1100007629
 30
0.0
 11
97.0866948658
 21
257.1100007629
 31
0.0
  0
ARC
  5
201
330
1F
100
AcDbEntity
  8
0
  6
Continuous
 62
     7
370
    25
100
AcDbCircle
 10
97.0866948941
 20
257.31
 30
0.0
 40
0.2000000000000455
100
AcDbArc
 50
270.0
 51
0.0
  0
LINE
  5
202
330
1F
100
AcDbEntity
  8
0
  6
Continuous
 62
     7
370
    25
100
AcDbLine
 10
75.9366942862
 20
261.9099985695
 30
0.0
 11
75.9366942862
 21
262.2100006676
 31
0.0
  0
LINE
  5
203
330
1F
100
AcDbEntity
  8
0
  6
Continuous
 62
     7
370
    25
100
AcDbLine
 10
114.0366955021
 20
261.9099985695
 30
0.0
 11
114.0366955021
 21
262.2100006676
 31
0.0
  0
LINE
  5
204
330
1F
100
AcDbEntity
  8
0
  6
Continuous
 62
     7
370
    25
100
AcDbLine
 10
114.0366955021
 20
262.2100006676
 30
0.0
 11
75.9366942862
 21
262.2100006676
 31
0.0
  0
LINE
  5
205
330
1F
100
AcDbEntity
  8
0
  6
Continuous
 62
     7
370
    25
100
AcDbLine
 10
114.0366955021
 20
261.9099985695
 30
0.0
 11
75.9366942862
 21
261.9099985695
 31
0.0
  0
LINE
  5
206
330
1F
100
AcDbEntity
  8
0
  6
Continuous
 62
     7
370
    25
100
AcDbLine
 10
117.1366943339
 20
262.2100006676
 30
0.0
 11
117.1366943339
 21
261.9099985695
 31
0.0
  0
LINE
  5
207
330
1F
100
AcDbEntity
  8
0
  6
Continuous
 62
     7
370
    25
100
AcDbLine
 10
130.586695514
 20
261.9099985695
 30
0.0
 11
130.586695514
 21
262.2100006676
 31
0.0
  0
LINE
  5
208
330
1F
100
AcDbEntity
  8
0
  6
Continuous
 62
     7
370
    25
100
AcDbLine
 10
130.586695514
 20
262.2100006676
 30
0.0
 11
117.1366943339
 21
262.2100006676
 31
0.0
  0
LINE
  5
209
330
1F
100
AcDbEntity
  8
0
  6
Continuous
 62
     7
370
    25
100
AcDbLine
 10
130.586695514
 20
261.9099985695
 30
0.0
 11
117.1366943339
 21
261.9099985695
 31
0.0
  0
LINE
  5
20A
330
1F
100
AcDbEntity
  8
0
  6
Continuous
 62
     7
370
    25
100
AcDbLine
 10
72.8366954544
 20
262.2100006676
 30
0.0
 11
72.8366954544
 21
261.9099985695
 31
0.0
  0
LINE
  5
20B
330
1F
100
AcDbEntity
  8
0
  6
Continuous
 62
     7
370
    25
100
AcDbLine
 10
59.3866942743
 20
262.2100006676
 30
0.0
 11
59.3866942743
 21
261.9099985695
 31
0.0
  0
LINE
  5
20C
330
1F
100
AcDbEntity
  8
0
  6
Continuous
 62
     7
370
    25
100
AcDbLine
 10
72.8366954544
 20
262.2100006676
 30
0.0
 11
59.3866942743
 21
262.2100006676
 31
0.0
  0
LINE
  5
20D
330
1F
100
AcDbEntity
  8
0
  6
Continuous
 62
     7
370
    25
100
AcDbLine
 10
72.8366954544
 20
261.9099985695
 30
0.0
 11
59.3866942743
 21
261.9099985695
 31
0.0
  0
LINE
  5
20E
330
1F
100
AcDbEntity
  8
0
  6
Continuous
 62
     7
370
    25
100
AcDbLine
 10
114.5366950253
 20
262.2100006676
 30
0.0
 11
114.0366955021
 21
262.2100006676
 31
0.0
  0
LINE
  5
20F
330
1F
100
AcDbEntity
  8
0
  6
Continuous
 62
     7
370
    25
100
AcDbLine
 10
114.5366950253
 20
261.9099985695
 30
0.0
 11
114.0366955021
 21
261.9099985695
 31
0.0
  0
LINE
  5
210
330
1F
100
AcDbEntity
  8
0
  6
Continuous
 62
     7
370
    25
100
AcDbLine
 10
72.8366954544
 20
262.2100006676
 30
0.0
 11
73.3366949776
 21
262.2100006676
 31
0.0
  0
LINE
  5
211
330
1F
100
AcDbEntity
  8
0
  6
Continuous
 62
     7
370
    25
100
AcDbLine
 10
72.8366954544
 20
261.9099985695
 30
0.0
 11
73.3366949776
 21
261.9099985695
 31
0.0
  0
LINE
  5
212
330
1F
100
AcDbEntity
  8
0
  6
Continuous
 62
     7
370
    25
100
AcDbLine
 10
117.1366943339
 20
262.2100006676
 30
0.0
 11
116.6366948107
 21
262.2100006676
 31
0.0
  0
LINE
  5
213
330
1F
100
AcDbEntity
  8
0
  6
Continuous
 62
     7
370
    25
100
AcDbLine
 10
117.1366943339
 20
261.9099985695
 30
0.0
 11
116.6366948107
 21
261.9099985695
 31
0.0
  0
LINE
  5
214
330
1F
100
AcDbEntity
  8
0
  6
Continuous
 62
     7
370
    25
100
AcDbLine
 10
75.436694763
 20
262.2100006676
 30
0.0
 11
75.9366942862
 21
262.2100006676
 31
0.0
  0
LINE
  5
215
330
1F
100
AcDbEntity
  8
0
  6
Continuous
 62
     7
370
    25
100
AcDbLine
 10
75.436694763
 20
261.9099985695
 30
0.0
 11
75.9366942862
 21
261.9099985695
 31
0.0
  0
LINE
  5
216
330
1F
100
AcDbEntity
  8
0
  6
Continuous
 62
     7
370
    25
100
AcDbLine
 10
116.211195133
 20
261.9099985695
 30
0.0
 11
116.211195133
 21
262.2100006676
 31
0.0
  0
LINE
  5
217
330
1F
100
AcDbEntity
  8
0
  6
Continuous
 62
     7
370
    25
100
AcDbLine
 10
116.6366948107
 20
262.2100006676
 30
0.0
 11
116.211195133
 21
262.2100006676
 31
0.0
  0
LINE
  5
218
330
1F
100
AcDbEntity
  8
0
  6
Continuous
 62
     7
370
    25
100
AcDbLine
 10
116.6366948107
 20
261.9099985695
 30
0.0
 11
116.211195133
 21
261.9099985695
 31
0.0
  0
LINE
  5
219
330
1F
100
AcDbEntity
  8
0
  6
Continuous
 62
     7
370
    25
100
AcDbLine
 10
114.9621947029
 20
261.9099985695
 30
0.0
 11
114.9621947029
 21
262.2100006676
 31
0.0
  0
LINE
  5
21A
330
1F
100
AcDbEntity
  8
0
  6
Continuous
 62
     7
370
    25
100
AcDbLine
 10
116.211195133
 20
262.2100006676
 30
0.0
 11
114.9621947029
 21
262.2100006676
 31
0.0
  0
LINE
  5
21B
330
1F
100
AcDbEntity
  8
0
  6
Continuous
 62
     7
370
    25
100
AcDbLine
 10
116.211195133
 20
261.9099985695
 30
0.0
 11
114.9621947029
 21
261.9099985695
 31
0.0
  0
LINE
  5
21C
330
1F
100
AcDbEntity
  8
0
  6
Continuous
 62
     7
370
    25
100
AcDbLine
 10
114.9621947029
 20
262.2100006676
 30
0.0
 11
114.5366950253
 21
262.2100006676
 31
0.0
  0
LINE
  5
21D
330
1F
100
AcDbEntity
  8
0
  6
Continuous
 62
     7
370
    25
100
AcDbLine
 10
114.9621947029
 20
261.9099985695
 30
0.0
 11
114.5366950253
 21
261.9099985695
 31
0.0
  0
LINE
  5
21E
330
1F
100
AcDbEntity
  8
0
  6
Continuous
 62
     7
370
    25
100
AcDbLine
 10
75.0111950854
 20
261.9099985695
 30
0.0
 11
75.0111950854
 21
262.2100006676
 31
0.0
  0
LINE
  5
21F
330
1F
100
AcDbEntity
  8
0
  6
Continuous
 62
     7
370
    25
100
AcDbLine
 10
75.0111950854
 20
262.2100006676
 30
0.0
 11
75.436694763
 21
262.2100006676
 31
0.0
  0
LINE
  5
220
330
1F
100
AcDbEntity
  8
0
  6
Continuous
 62
     7
370
    25
100
AcDbLine
 10
75.0111950854
 20
261.9099985695
 30
0.0
 11
75.436694763
 21
261.9099985695
 31
0.0
  0
LINE
  5
221
330
1F
100
AcDbEntity
  8
0
  6
Continuous
 62
     7
370
    25
100
AcDbLine
 10
73.7621946553
 20
261.9099985695
 30
0.0
 11
73.7621946553
 21
262.2100006676
 31
0.0
  0
LINE
  5
222
330
1F
100
AcDbEntity
  8
0
  6
Continuous
 62
     7
370
    25
100
AcDbLine
 10
73.7621946553
 20
262.2100006676
 30
0.0
 11
75.0111950854
 21
262.2100006676
 31
0.0
  0
LINE
  5
223
330
1F
100
AcDbEntity
  8
0
  6
Continuous
 62
     7
370
    25
100
AcDbLine
 10
73.7621946553
 20
261.9099985695
 30
0.0
 11
75.0111950854
 21
261.9099985695
 31
0.0
  0
LINE
  5
224
330
1F
100
AcDbEntity
  8
0
  6
Continuous
 62
     7
370
    25
100
AcDbLine
 10
73.3366949776
 20
262.2100006676
 30
0.0
 11
73.7621946553
 21
262.2100006676
 31
0.0
  0
LINE
  5
225
330
1F
100
AcDbEntity
  8
0
  6
Continuous
 62
     7
370
    25
100
AcDbLine
 10
73.3366949776
 20
261.9099985695
 30
0.0
 11
73.7621946553
 21
261.9099985695
 31
0.0
  0
LINE
  5
226
330
1F
100
AcDbEntity
  8
0
  6
Continuous
 62
     7
370
    25
100
AcDbLine
 10
54.9866942981
 20
223.4099995232
 30
0.0
 11
54.9866942981
 21
189.4100006557
 31
0.0
  0
LINE
  5
227
330
1F
100
AcDbEntity
  8
0
  6
Continuous
 62
     7
370
    25
100
AcDbLine
 10
59.1866938689
 20
226.9100021458
 30
0.0
 11
58.9866934636
 21
223.4099995232
 31
0.0
  0
LINE
  5
228
330
1F
100
AcDbEntity
  8
0
  6
Continuous
 62
     7
370
    25
100
AcDbLine
 10
64.9866937021
 20
226.9100021458
 30
0.0
 11
64.9866937021
 21
192.910000298
 31
0.0
  0
LINE
  5
229
330
1F
100
AcDbEntity
  8
0
  6
Continuous
 62
     7
370
    25
100
AcDbLine
 10
58.7866960386
 20
189.4100006557
 30
0.0
 11
58.9988021472
 21
192.910000298
 31
0.0
  0
LINE
  5
22A
330
1F
100
AcDbEntity
  8
0
  6
Continuous
 62
     7
370
    25
100
AcDbLine
 10
58.7866960386
 20
189.4100006557
 30
0.0
 11
54.9866942981
 21
189.4100006557
 31
0.0
  0
LINE
  5
22B
330
1F
100
AcDbEntity
  8
0
  6
Continuous
 62
     7
370
    25
100
AcDbLine
 10
64.9866937021
 20
226.9100021458
 30
0.0
 11
59.1866938689
 21
226.9100021458
 31
0.0
  0
LINE
  5
22C
330
1F
100
AcDbEntity
  8
0
  6
Continuous
 62
     7
370
    25
100
AcDbLine
 10
54.9866942981
 20
223.4099995232
 30
0.0
 11
58.9866934636
 21
223.4099995232
 31
0.0
  0
LINE
  5
22D
330
1F
100
AcDbEntity
  8
0
  6
Continuous
 62
     7
370
    25
100
AcDbLine
 10
58.9988021472
 20
192.910000298
 30
0.0
 11
64.9866937021
 21
192.910000298
 31
0.0
  0
LINE
  5
22E
330
1F
100
AcDbEntity
  8
0
  6
Continuous
 62
     7
370
    25
100
AcDbLine
 10
130.9866963247
 20
223.4099995232
 30
0.0
 11
130.7866959193
 21
226.9100021458
 31
0.0
  0
LINE
  5
22F
330
1F
100
AcDbEntity
  8
0
  6
Continuous
 62
     7
370
    25
100
AcDbLine
 10
134.9866954902
 20
189.4100006557
 30
0.0
 11
134.9866954902
 21
223.4099995232
 31
0.0
  0
LINE
  5
230
330
1F
100
AcDbEntity
  8
0
  6
Continuous
 62
     7
370
    25
100
AcDbLine
 10
134.9866954902
 20
189.4100006557
 30
0.0
 11
131.1866937497
 21
189.4100006557
 31
0.0
  0
LINE
  5
231
330
1F
100
AcDbEntity
  8
0
  6
Continuous
 62
     7
370
    25
100
AcDbLine
 10
130.9745876411
 20
192.910000298
 30
0.0
 11
131.1866937497
 21
189.4100006557
 31
0.0
  0
LINE
  5
232
330
1F
100
AcDbEntity
  8
0
  6
Continuous
 62
     7
370
    25
100
AcDbLine
 10
124.9866960862
 20
192.910000298
 30
0.0
 11
124.9866960862
 21
226.9100021458
 31
0.0
  0
LINE
  5
233
330
1F
100
AcDbEntity
  8
0
  6
Continuous
 62
     7
370
    25
100
AcDbLine
 10
130.7866959193
 20
226.9100021458
 30
0.0
 11
124.9866960862
 21
226.9100021458
 31
0.0
  0
LINE
  5
234
330
1F
100
AcDbEntity
  8
0
  6
Continuous
 62
     7
370
    25
100
AcDbLine
 10
130.9866963247
 20
223.4099995232
 30
0.0
 11
134.9866954902
 21
223.4099995232
 31
0.0
  0
LINE
  5
235
330
1F
100
AcDbEntity
  8
0
  6
Continuous
 62
     7
370
    25
100
AcDbLine
 10
124.9866960862
 20
192.910000298
 30
0.0
 11
130.9745876411
 21
192.910000298
 31
0.0
  0
LINE
  5
236
330
1F
100
AcDbEntity
  8
0
  6
Continuous
 62
     7
370
    25
100
AcDbLine
 10
124.9866960862
 20
226.9100021458
 30
0.0
 11
64.9866937021
 21
226.9100021458
 31
0.0
  0
LINE
  5
237
330
1F
100
AcDbEntity
  8
0
  6
Continuous
 62
     7
370
    25
100
AcDbLine
 10
81.4866943577
 20
192.910000298
 30
0.0
 11
64.9866937021
 21
192.910000298
 31
0.0
  0
LINE
  5
238
330
1F
100
AcDbEntity
  8
0
  6
Continuous
 62
     7
370
    25
100
AcDbLine
 10
124.9866960862
 20
192.910000298
 30
0.0
 11
108.4866954306
 21
192.910000298
 31
0.0
  0
ARC
  5
239
330
1F
100
AcDbEntity
  8
0
  6
Continuous
 62
     7
370
    25
100
AcDbCircle
 10
94.9866948941
 20
202.41
 30
0.0
 40
10.0
100
AcDbArc
 50
0.0
 51
180.0
  0
LINE
  5
23A
330
1F
100
AcDbEntity
  8
0
  6
Continuous
 62
     7
370
    25
100
AcDbLine
 10
104.9866950432
 20
192.910000298
 30
0.0
 11
104.9866950432
 21
202.4099986887
 31
0.0
  0
LINE
  5
23B
330
1F
100
AcDbEntity
  8
0
  6
Continuous
 62
     7
370
    25
100
AcDbLine
 10
108.4866954306
 20
192.910000298
 30
0.0
 11
104.9866950432
 21
192.910000298
 31
0.0
  0
LINE
  5
23C
330
1F
100
AcDbEntity
  8
0
  6
Continuous
 62
     7
370
    25
100
AcDbLine
 10
84.9866947451
 20
202.4099986887
 30
0.0
 11
84.9866947451
 21
192.910000298
 31
0.0
  0
LINE
  5
23D
330
1F
100
AcDbEntity
  8
0
  6
Continuous
 62
     7
370
    25
100
AcDbLine
 10
84.9866947451
 20
192.910000298
 30
0.0
 11
81.4866943577
 21
192.910000298
 31
0.0
  0
LINE
  5
23E
330
1F
100
AcDbEntity
  8
0
  6
Continuous
 62
     7
370
    25
100
AcDbLine
 10
84.9866947451
 20
192.910000298
 30
0.0
 11
104.9866950432
 21
192.910000298
 31
0.0
  0
LINE
  5
23F
330
1F
100
AcDbEntity
  8
0
  6
Continuous
 62
     7
370
    25
100
AcDbLine
 10
108.4872169712
 20
192.7102189398
 30
0.0
 11
108.5175199726
 21
191.9099997616
 31
0.0
  0
LINE
  5
240
330
1F
100
AcDbEntity
  8
0
  6
Continuous
 62
     7
370
    25
100
AcDbLine
 10
108.4872169712
 20
192.7102189398
 30
0.0
 11
100.0866947988
 21
192.7102189398
 31
0.0
  0
LINE
  5
241
330
1F
100
AcDbEntity
  8
0
  6
Continuous
 62
     7
370
    25
100
AcDbLine
 10
100.0866947988
 20
192.910000298
 30
0.0
 11
100.0866947988
 21
192.7102189398
 31
0.0
  0
LINE
  5
242
330
1F
100
AcDbEntity
  8
0
  6
Continuous
 62
     7
370
    25
100
AcDbLine
 10
130.7615129569
 20
189.4100006557
 30
0.0
 11
131.1866937497
 21
189.4100006557
 31
0.0
  0
LINE
  5
243
330
1F
100
AcDbEntity
  8
0
  6
Continuous
 62
     7
370
    25
100
AcDbLine
 10
81.4558698157
 20
191.9099997616
 30
0.0
 11
81.4861728171
 21
192.7102189398
 31
0.0
  0
LINE
  5
244
330
1F
100
AcDbEntity
  8
0
  6
Continuous
 62
     7
370
    25
100
AcDbLine
 10
89.8866949895
 20
192.7102189398
 30
0.0
 11
81.4861728171
 21
192.7102189398
 31
0.0
  0
LINE
  5
245
330
1F
100
AcDbEntity
  8
0
  6
Continuous
 62
     7
370
    25
100
AcDbLine
 10
89.8866949895
 20
192.7102189398
 30
0.0
 11
89.8866949895
 21
192.910000298
 31
0.0
  0
LINE
  5
246
330
1F
100
AcDbEntity
  8
0
  6
Continuous
 62
     7
370
    25
100
AcDbLine
 10
58.7866960386
 20
189.4100006557
 30
0.0
 11
59.2118768314
 21
189.4100006557
 31
0.0
  0
LINE
  5
247
330
1F
100
AcDbEntity
  8
0
  6
Continuous
 62
     7
370
    25
100
AcDbLine
 10
58.9866934636
 20
178.4099999702
 30
0.0
 11
58.9866934636
 21
181.9100003576
 31
0.0
  0
LINE
  5
248
330
1F
100
AcDbEntity
  8
0
  6
Continuous
 62
     7
370
    25
100
AcDbLine
 10
54.9866942981
 20
178.4099999702
 30
0.0
 11
54.9866942981
 21
188.4100001192
 31
0.0
  0
LINE
  5
249
330
1F
100
AcDbEntity
  8
0
  6
Continuous
 62
     7
370
    25
100
AcDbLine
 10
59.1419516423
 20
188.4100001192
 30
0.0
 11
59.3866942743
 21
191.9099997616
 31
0.0
  0
LINE
  5
24A
330
1F
100
AcDbEntity
  8
0
  6
Continuous
 62
     7
370
    25
100
AcDbLine
 10
64.9866937021
 20
181.9100003576
 30
0.0
 11
64.9866937021
 21
191.9099997616
 31
0.0
  0
LINE
  5
24B
330
1F
100
AcDbEntity
  8
0
  6
Continuous
 62
     7
370
    25
100
AcDbLine
 10
64.9866937021
 20
191.9099997616
 30
0.0
 11
59.3866942743
 21
191.9099997616
 31
0.0
  0
LINE
  5
24C
330
1F
100
AcDbEntity
  8
0
  6
Continuous
 62
     7
370
    25
100
AcDbLine
 10
64.9866937021
 20
181.9100003576
 30
0.0
 11
58.9866934636
 21
181.9100003576
 31
0.0
  0
LINE
  5
24D
330
1F
100
AcDbEntity
  8
0
  6
Continuous
 62
     7
370
    25
100
AcDbLine
 10
54.9866942981
 20
188.4100001192
 30
0.0
 11
59.1419516423
 21
188.4100001192
 31
0.0
  0
LINE
  5
24E
330
1F
100
AcDbEntity
  8
0
  6
Continuous
 62
     7
370
    25
100
AcDbLine
 10
58.9866934636
 20
178.4099999702
 30
0.0
 11
54.9866942981
 21
178.4099999702
 31
0.0
  0
LINE
  5
24F
330
1F
100
AcDbEntity
  8
0
  6
Continuous
 62
     7
370
    25
100
AcDbLine
 10
124.9866960862
 20
191.9099997616
 30
0.0
 11
124.9866960862
 21
181.9100003576
 31
0.0
  0
LINE
  5
250
330
1F
100
AcDbEntity
  8
0
  6
Continuous
 62
     7
370
    25
100
AcDbLine
 10
130.586695514
 20
191.9099997616
 30
0.0
 11
130.8314381459
 21
188.4100001192
 31
0.0
  0
LINE
  5
251
330
1F
100
AcDbEntity
  8
0
  6
Continuous
 62
     7
370
    25
100
AcDbLine
 10
134.9866954902
 20
188.4100001192
 30
0.0
 11
134.9866954902
 21
178.4099999702
 31
0.0
  0
LINE
  5
252
330
1F
100
AcDbEntity
  8
0
  6
Continuous
 62
     7
370
    25
100
AcDbLine
 10
130.9866963247
 20
181.9100003576
 30
0.0
 11
130.9866963247
 21
178.4099999702
 31
0.0
  0
LINE
  5
253
330
1F
100
AcDbEntity
  8
0
  6
Continuous
 62
     7
370
    25
100
AcDbLine
 10
130.586695514
 20
191.9099997616
 30
0.0
 11
124.9866960862
 21
191.9099997616
 31
0.0
  0
LINE
  5
254
330
1F
100
AcDbEntity
  8
0
  6
Continuous
 62
     7
370
    25
100
AcDbLine
 10
130.9866963247
 20
181.9100003576
 30
0.0
 11
124.9866960862
 21
181.9100003576
 31
0.0
  0
LINE
  5
255
330
1F
100
AcDbEntity
  8
0
  6
Continuous
 62
     7
370
    25
100
AcDbLine
 10
130.8314381459
 20
188.4100001192
 30
0.0
 11
134.9866954902
 21
188.4100001192
 31
0.0
  0
LINE
  5
256
330
1F
100
AcDbEntity
  8
0
  6
Continuous
 62
     7
370
    25
100
AcDbLine
 10
134.9866954902
 20
178.4099999702
 30
0.0
 11
130.9866963247
 21
178.4099999702
 31
0.0
  0
LINE
  5
257
330
1F
100
AcDbEntity
  8
0
  6
Continuous
 62
     7
370
    25
100
AcDbLine
 10
124.9866960862
 20
191.9099997616
 30
0.0
 11
64.9866937021
 21
191.9099997616
 31
0.0
  0
LINE
  5
258
330
1F
100
AcDbEntity
  8
0
  6
Continuous
 62
     7
370
    25
100
AcDbLine
 10
124.9866960862
 20
181.9100003576
 30
0.0
 11
64.9866937021
 21
181.9100003576
 31
0.0
  0
LINE
  5
259
330
1F
100
AcDbEntity
  8
0
  6
Continuous
 62
     7
370
    25
100
AcDbLine
 10
58.9866934636
 20
178.4099999702
 30
0.0
 11
59.1866938689
 21
178.4099999702
 31
0.0
  0
LINE
  5
25A
330
1F
100
AcDbEntity
  8
0
  6
Continuous
 62
     7
370
    25
100
AcDbLine
 10
130.7866959193
 20
178.4099999702
 30
0.0
 11
130.9866963247
 21
178.4099999702
 31
0.0
  0
LINE
  5
25B
330
1F
100
AcDbEntity
  8
0
  6
Continuous
 62
     7
370
    25
100
AcDbLine
 10
130.7866959193
 20
180.9099998212
 30
0.0
 11
130.7866959193
 21
172.91
 31
0.0
  0
LINE
  5
25C
330
1F
100
AcDbEntity
  8
0
  6
Continuous
 62
     7
370
    25
100
AcDbLine
 10
114.9866951922
 20
180.9099998212
 30
0.0
 11
114.9866951922
 21
172.91
 31
0.0
  0
LINE
  5
25D
330
1F
100
AcDbEntity
  8
0
  6
Continuous
 62
     7
370
    25
100
AcDbLine
 10
114.9866951922
 20
180.9099998212
 30
0.0
 11
130.7866959193
 21
180.9099998212
 31
0.0
  0
LINE
  5
25E
330
1F
100
AcDbEntity
  8
0
  6
Continuous
 62
     7
370
    25
100
AcDbLine
 10
130.7866959193
 20
172.91
 30
0.0
 11
114.9866951922
 21
172.91
 31
0.0
  0
LINE
  5
25F
330
1F
100
AcDbEntity
  8
0
  6
Continuous
 62
     7
370
    25
100
AcDbLine
 10
59.1866938689
 20
172.91
 30
0.0
 11
59.1866938689
 21
180.9099998212
 31
0.0
  0
LINE
  5
260
330
1F
100
AcDbEntity
  8
0
  6
Continuous
 62
     7
370
    25
100
AcDbLine
 10
74.9866945961
 20
172.91
 30
0.0
 11
74.9866945961
 21
180.9099998212
 31
0.0
  0
LINE
  5
261
330
1F
100
AcDbEntity
  8
0
  6
Continuous
 62
     7
370
    25
100
AcDbLine
 10
59.1866938689
 20
180.9099998212
 30
0.0
 11
74.9866945961
 21
180.9099998212
 31
0.0
  0
LINE
  5
262
330
1F
100
AcDbEntity
  8
0
  6
Continuous
 62
     7
370
    25
100
AcDbLine
 10
74.9866945961
 20
172.91
 30
0.0
 11
59.1866938689
 21
172.91
 31
0.0
  0
LINE
  5
263
330
1F
100
AcDbEntity
  8
0
  6
Continuous
 62
     7
370
    25
100
AcDbLine
 10
114.9866951922
 20
180.9099998212
 30
0.0
 11
74.9866945961
 21
180.9099998212
 31
0.0
  0
LINE
  5
264
330
1F
100
AcDbEntity
  8
0
  6
Continuous
 62
     7
370
    25
100
AcDbLine
 10
114.9866951922
 20
172.91
 30
0.0
 11
74.9866945961
 21
172.91
 31
0.0
  0
LINE
  5
265
330
1F
100
AcDbEntity
  8
0
  6
Continuous
 62
     7
370
    25
100
AcDbLine
 10
134.9866954902
 20
172.91
 30
0.0
 11
134.9866954902
 21
177.4100001788
 31
0.0
  0
LINE
  5
266
330
1F
100
AcDbEntity
  8
0
  6
Continuous
 62
     7
370
    25
100
AcDbLine
 10
134.9866954902
 20
177.4100001788
 30
0.0
 11
130.7866959193
 21
177.4100001788
 31
0.0
  0
LINE
  5
267
330
1F
100
AcDbEntity
  8
0
  6
Continuous
 62
     7
370
    25
100
AcDbLine
 10
134.9866954902
 20
172.91
 30
0.0
 11
130.7866959193
 21
172.91
 31
0.0
  0
LINE
  5
268
330
1F
100
AcDbEntity
  8
0
  6
Continuous
 62
     7
370
    25
100
AcDbLine
 10
54.9866942981
 20
172.91
 30
0.0
 11
54.9866942981
 21
177.4100001788
 31
0.0
  0
LINE
  5
269
330
1F
100
AcDbEntity
  8
0
  6
Continuous
 62
     7
370
    25
100
AcDbLine
 10
59.1866938689
 20
177.4100001788
 30
0.0
 11
54.9866942981
 21
177.4100001788
 31
0.0
  0
LINE
  5
26A
330
1F
100
AcDbEntity
  8
0
  6
Continuous
 62
     7
370
    25
100
AcDbLine
 10
59.1866938689
 20
172.91
 30
0.0
 11
54.9866942981
 21
172.91
 31
0.0
  0
LINE
  5
26B
330
1F
100
AcDbEntity
  8
0
  6
Continuous
 62
     7
370
    25
100
AcDbLine
 10
97.4866949314
 20
261.5099977589
 30
0.0
 11
97.4866949314
 21
261.9099985695
 31
0.0
  0
LINE
  5
26C
330
1F
100
AcDbEntity
  8
0
  6
Continuous
 62
     7
370
    25
100
AcDbLine
 10
124.4866935828
 20
261.5099977589
 30
0.0
 11
124.4866935828
 21
261.9099985695
 31
0.0
  0
LINE
  5
26D
330
1F
100
AcDbEntity
  8
0
  6
Continuous
 62
     7
370
    25
100
AcDbLine
 10
124.4866935828
 20
257.309998188
 30
0.0
 11
124.4866935828
 21
261.5099977589
 31
0.0
  0
LINE
  5
26E
330
1F
100
AcDbEntity
  8
0
  6
Continuous
 62
     7
370
    25
100
AcDbLine
 10
97.4866949314
 20
256.9099973774
 30
0.0
 11
124.4866935828
 21
256.9099973774
 31
0.0
  0
LINE
  5
26F
330
1F
100
AcDbEntity
  8
0
  6
Continuous
 62
     7
370
    25
100
AcDbLine
 10
97.4866949314
 20
256.9099973774
 30
0.0
 11
97.4866949314
 21
257.309998188
 31
0.0
  0
LINE
  5
270
330
1F
100
AcDbEntity
  8
0
  6
Continuous
 62
     7
370
    25
100
AcDbLine
 10
124.4866935828
 20
256.9099973774
 30
0.0
 11
124.4866935828
 21
257.309998188
 31
0.0
  0
LINE
  5
271
330
1F
100
AcDbEntity
  8
0
  6
Continuous
 62
     7
370
    25
100
AcDbLine
 10
65.4866962054
 20
256.9099973774
 30
0.0
 11
92.4866948569
 21
256.9099973774
 31
0.0
  0
LINE
  5
272
330
1F
100
AcDbEntity
  8
0
  6
Continuous
 62
     7
370
    25
100
AcDbLine
 10
65.4866962054
 20
256.9099973774
 30
0.0
 11
65.4866962054
 21
257.309998188
 31
0.0
  0
LINE
  5
273
330
1F
100
AcDbEntity
  8
0
  6
Continuous
 62
     7
370
    25
100
AcDbLine
 10
92.4866948569
 20
256.9099973774
 30
0.0
 11
92.4866948569
 21
257.309998188
 31
0.0
  0
LINE
  5
274
330
1F
100
AcDbEntity
  8
0
  6
Continuous
 62
     7
370
    25
100
AcDbLine
 10
65.4866962054
 20
257.309998188
 30
0.0
 11
65.4866962054
 21
261.5099977589
 31
0.0
  0
LINE
  5
275
330
1F
100
AcDbEntity
  8
0
  6
Continuous
 62
     7
370
    25
100
AcDbLine
 10
65.4866962054
 20
261.5099977589
 30
0.0
 11
65.4866962054
 21
261.9099985695
 31
0.0
  0
LINE
  5
276
330
1F
100
AcDbEntity
  8
0
  6
Continuous
 62
     7
370
    25
100
AcDbLine
 10
92.4866948569
 20
261.5099977589
 30
0.0
 11
92.4866948569
 21
261.9099985695
 31
0.0
  0
LINE
  5
277
330
1F
100
AcDbEntity
  8
0
  6
PHANTOM
 62
     8
370
    18
100
AcDbLine
 10
81.4866943577
 20
227.9100011921
 30
0.0
 11
81.4866943577
 21
237.4099980927
 31
0.0
  0
LINE
  5
278
330
1F
100
AcDbEntity
  8
0
  6
PHANTOM
 62
     8
370
    18
100
AcDbLine
 10
108.4866954306
 20
237.4099980927
 30
0.0
 11
108.4866954306
 21
227.9100011921
 31
0.0
  0
ARC
  5
279
330
1F
100
AcDbEntity
  8
0
  6
PHANTOM
 62
     8
370
    18
100
AcDbCircle
 10
94.9866948941
 20
237.41
 30
0.0
 40
13.5
100
AcDbArc
 50
0.0
 51
180.0
  0
LINE
  5
27A
330
1F
100
AcDbEntity
  8
0
  6
PHANTOM
 62
     8
370
    18
100
AcDbLine
 10
108.4866954306
 20
237.4099980927
 30
0.0
 11
104.9866950432
 21
237.4099980927
 31
0.0
  0
LINE
  5
27B
330
1F
100
AcDbEntity
  8
0
  6
PHANTOM
 62
     8
370
    18
100
AcDbLine
 10
81.4866943577
 20
237.4099980927
 30
0.0
 11
84.9866947451
 21
237.4099980927
 31
0.0
  0
LINE
  5
27C
330
1F
100
AcDbEntity
  8
0
  6
PHANTOM
 62
     8
370
    18
100
AcDbLine
 10
114.5366950253
 20
261.9099985695
 30
0.0
 11
114.5366950253
 21
262.2100006676
 31
0.0
  0
LINE
  5
27D
330
1F
100
AcDbEntity
  8
0
  6
PHANTOM
 62
     8
370
    18
100
AcDbLine
 10
73.3366949776
 20
261.9099985695
 30
0.0
 11
73.3366949776
 21
262.2100006676
 31
0.0
  0
LINE
  5
27E
330
1F
100
AcDbEntity
  8
0
  6
PHANTOM
 62
     8
370
    18
100
AcDbLine
 10
116.6366948107
 20
261.9099985695
 30
0.0
 11
116.6366948107
 21
262.2100006676
 31
0.0
  0
LINE
  5
27F
330
1F
100
AcDbEntity
  8
0
  6
PHANTOM
 62
     8
370
    18
100
AcDbLine
 10
75.436694763
 20
261.9099985695
 30
0.0
 11
75.436694763
 21
262.2100006676
 31
0.0
  0
LINE
  5
280
330
1F
100
AcDbEntity
  8
0
  6
PHANTOM
 62
     8
370
    18
100
AcDbLine
 10
81.4866943577
 20
192.910000298
 30
0.0
 11
81.4866943577
 21
202.4099986887
 31
0.0
  0
LINE
  5
281
330
1F
100
AcDbEntity
  8
0
  6
PHANTOM
 62
     8
370
    18
100
AcDbLine
 10
108.4866954306
 20
202.4099986887
 30
0.0
 11
108.4866954306
 21
192.910000298
 31
0.0
  0
ARC
  5
282
330
1F
100
AcDbEntity
  8
0
  6
PHANTOM
 62
     8
370
    18
100
AcDbCircle
 10
94.9866948941
 20
202.41
 30
0.0
 40
13.5
100
AcDbArc
 50
0.0
 51
180.0
  0
LINE
  5
283
330
1F
100
AcDbEntity
  8
0
  6
PHANTOM
 62
     8
370
    18
100
AcDbLine
 10
108.4866954306
 20
202.4099986887
 30
0.0
 11
104.9866950432
 21
202.4099986887
 31
0.0
  0
LINE
  5
284
330
1F
100
AcDbEntity
  8
0
  6
PHANTOM
 62
     8
370
    18
100
AcDbLine
 10
81.4866943577
 20
202.4099986887
 30
0.0
 11
84.9866947451
 21
202.4099986887
 31
0.0
  0
LINE
  5
285
330
1F
100
AcDbEntity
  8
0
  6
PHANTOM
 62
     8
370
    18
100
AcDbLine
 10
97.4866949314
 20
261.5099977589
 30
0.0
 11
124.4866935828
 21
261.5099977589
 31
0.0
  0
LINE
  5
286
330
1F
100
AcDbEntity
  8
0
  6
PHANTOM
 62
     8
370
    18
100
AcDbLine
 10
97.4866949314
 20
257.309998188
 30
0.0
 11
124.4866935828
 21
257.309998188
 31
0.0
  0
LINE
  5
287
330
1F
100
AcDbEntity
  8
0
  6
PHANTOM
 62
     8
370
    18
100
AcDbLine
 10
65.4866962054
 20
257.309998188
 30
0.0
 11
92.4866948569
 21
257.309998188
 31
0.0
  0
LINE
  5
288
330
1F
100
AcDbEntity
  8
0
  6
PHANTOM
 62
     8
370
    18
100
AcDbLine
 10
65.4866962054
 20
261.5099977589
 30
0.0
 11
92.4866948569
 21
261.5099977589
 31
0.0
  0
HATCH
  5
289
330
1F
100
AcDbEntity
  8
0
  6
Continuous
 62
     7
370
    18
100
AcDbHatch
 10
0.0
 20
0.0
 30
0.0
210
0.0
220
0.0
230
1.0
  2
ANSI34
 70
     0
 71
     0
 91
        1
 92
        0
 93
        4
 72
     1
 10
130.7866948941469
 20
180.9099999999999
 11
114.9866948941469
 21
180.9099999999999
 72
     1
 10
114.9866948941469
 20
180.9099999999999
 11
114.9866948941469
 21
172.9099999999999
 72
     1
 10
114.9866948941469
 20
172.9099999999999
 11
130.7866948941469
 21
172.9099999999999
 72
     1
 10
130.7866948941469
 20
172.9099999999999
 11
130.7866948941469
 21
180.9099999999999
 97
        0
 75
     0
 76
     1
 52
0.0
 41
1.0
 77
     0
 78
     4
 53
45.0
 43
0.0
 44
0.0
 45
-13.47038418160373
 46
13.47038418160373
 79
     0
 53
45.0
 43
4.49013
 44
0.0
 45
-13.47038418160373
 46
13.47038418160373
 79
     0
 53
45.0
 43
8.98026
 44
0.0
 45
-13.47038418160373
 46
13.47038418160373
 79
     0
 53
45.0
 43
13.4704
 44
0.0
 45
-13.47038418160373
 46
13.47038418160373
 79
     0
 98
        1
 10
0.0
 20
0.0
  0
HATCH
  5
28A
330
1F
100
AcDbEntity
  8
0
  6
Continuous
 62
     7
370
    18
100
AcDbHatch
 10
0.0
 20
0.0
 30
0.0
210
0.0
220
0.0
230
1.0
  2
ANSI34
 70
     0
 71
     0
 91
        1
 92
        0
 93
        4
 72
     1
 10
59.18669489414687
 20
172.9099999999999
 11
74.98669489414686
 21
172.9099999999999
 72
     1
 10
74.98669489414686
 20
172.9099999999999
 11
74.98669489414686
 21
180.9099999999999
 72
     1
 10
74.98669489414686
 20
180.9099999999999
 11
59.18669489414687
 21
180.9099999999999
 72
     1
 10
59.18669489414687
 20
180.9099999999999
 11
59.18669489414687
 21
172.9099999999999
 97
        0
 75
     0
 76
     1
 52
0.0
 41
1.0
 77
     0
 78
     4
 53
45.0
 43
0.0
 44
0.0
 45
-13.47038418160373
 46
13.47038418160373
 79
     0
 53
45.0
 43
4.49013
 44
0.0
 45
-13.47038418160373
 46
13.47038418160373
 79
     0
 53
45.0
 43
8.98026
 44
0.0
 45
-13.47038418160373
 46
13.47038418160373
 79
     0
 53
45.0
 43
13.4704
 44
0.0
 45
-13.47038418160373
 46
13.47038418160373
 79
     0
 98
        1
 10
0.0
 20
0.0
  0
HATCH
  5
28B
330
1F
100
AcDbEntity
  8
0
  6
Continuous
 62
     7
370
    18
100
AcDbHatch
 10
0.0
 20
0.0
 30
0.0
210
0.0
220
0.0
230
1.0
  2
ANSI34
 70
     0
 71
     0
 91
        1
 92
        0
 93
        8
 72
     1
 10
124.9866948941469
 20
181.9099999999999
 11
130.9866948941469
 21
181.9099999999999
 72
     1
 10
130.9866948941469
 20
181.9099999999999
 11
130.9866948941469
 21
178.4099999999999
 72
     1
 10
130.9866948941469
 20
178.4099999999999
 11
134.9866948941469
 21
178.4099999999999
 72
     1
 10
134.9866948941469
 20
178.4099999999999
 11
134.9866948941469
 21
188.4099999999999
 72
     1
 10
134.9866948941469
 20
188.4099999999999
 11
130.8314387359491
 21
188.4099999999999
 72
     1
 10
130.8314387359491
 20
188.4099999999999
 11
130.5866948941469
 21
191.9099999999999
 72
     1
 10
130.5866948941469
 20
191.9099999999999
 11
124.9866948941469
 21
191.9099999999999
 72
     1
 10
124.9866948941469
 20
191.9099999999999
 11
124.9866948941469
 21
181.9099999999999
 97
        0
 75
     0
 76
     1
 52
0.0
 41
1.0
 77
     0
 78
     4
 53
45.0
 43
0.0
 44
0.0
 45
-13.47038418160373
 46
13.47038418160373
 79
     0
 53
45.0
 43
4.49013
 44
0.0
 45
-13.47038418160373
 46
13.47038418160373
 79
     0
 53
45.0
 43
8.98026
 44
0.0
 45
-13.47038418160373
 46
13.47038418160373
 79
     0
 53
45.0
 43
13.4704
 44
0.0
 45
-13.47038418160373
 46
13.47038418160373
 79
     0
 98
        1
 10
0.0
 20
0.0
  0
HATCH
  5
28C
330
1F
100
AcDbEntity
  8
0
  6
Continuous
 62
     7
370
    18
100
AcDbHatch
 10
0.0
 20
0.0
 30
0.0
210
0.0
220
0.0
230
1.0
  2
ANSI34
 70
     0
 71
     0
 91
        1
 92
        0
 93
        8
 72
     1
 10
58.98669489414685
 20
181.9099999999999
 11
64.98669489414685
 21
181.9099999999999
 72
     1
 10
64.98669489414685
 20
181.9099999999999
 11
64.98669489414685
 21
191.9099999999999
 72
     1
 10
64.98669489414685
 20
191.9099999999999
 11
59.38669489414685
 21
191.9099999999999
 72
     1
 10
59.38669489414685
 20
191.9099999999999
 11
59.14195105234457
 21
188.4099999999999
 72
     1
 10
59.14195105234457
 20
188.4099999999999
 11
54.98669489414684
 21
188.4099999999999
 72
     1
 10
54.98669489414684
 20
188.4099999999999
 11
54.98669489414684
 21
178.4099999999999
 72
     1
 10
54.98669489414684
 20
178.4099999999999
 11
58.98669489414685
 21
178.4099999999999
 72
     1
 10
58.98669489414685
 20
178.4099999999999
 11
58.98669489414685
 21
181.9099999999999
 97
        0
 75
     0
 76
     1
 52
0.0
 41
1.0
 77
     0
 78
     4
 53
45.0
 43
0.0
 44
0.0
 45
-13.47038418160373
 46
13.47038418160373
 79
     0
 53
45.0
 43
4.49013
 44
0.0
 45
-13.47038418160373
 46
13.47038418160373
 79
     0
 53
45.0
 43
8.98026
 44
0.0
 45
-13.47038418160373
 46
13.47038418160373
 79
     0
 53
45.0
 43
13.4704
 44
0.0
 45
-13.47038418160373
 46
13.47038418160373
 79
     0
 98
        1
 10
0.0
 20
0.0
  0
HATCH
  5
28D
330
1F
100
AcDbEntity
  8
0
  6
Continuous
 62
     7
370
    18
100
AcDbHatch
 10
0.0
 20
0.0
 30
0.0
210
0.0
220
0.0
230
1.0
  2
ANSI34
 70
     0
 71
     0
 91
        1
 92
        0
 93
        8
 72
     1
 10
124.9866948941469
 20
226.9099999999999
 11
124.9866948941469
 21
192.9099999999999
 72
     1
 10
124.9866948941469
 20
192.9099999999999
 11
130.9745877380929
 21
192.9099999999999
 72
     1
 10
130.9745877380929
 20
192.9099999999999
 11
131.1866948941469
 21
189.4099999999999
 72
     1
 10
131.1866948941469
 20
189.4099999999999
 11
134.9866948941469
 21
189.4099999999999
 72
     1
 10
134.9866948941469
 20
189.4099999999999
 11
134.9866948941469
 21
223.4099999999999
 72
     1
 10
134.9866948941469
 20
223.4099999999999
 11
130.9866948941469
 21
223.4099999999999
 72
     1
 10
130.9866948941469
 20
223.4099999999999
 11
130.7866948941468
 21
226.9099999999999
 72
     1
 10
130.7866948941468
 20
226.9099999999999
 11
124.9866948941469
 21
226.9099999999999
 97
        0
 75
     0
 76
     1
 52
0.0
 41
1.0
 77
     0
 78
     4
 53
45.0
 43
0.0
 44
0.0
 45
-13.47038418160373
 46
13.47038418160373
 79
     0
 53
45.0
 43
4.49013
 44
0.0
 45
-13.47038418160373
 46
13.47038418160373
 79
     0
 53
45.0
 43
8.98026
 44
0.0
 45
-13.47038418160373
 46
13.47038418160373
 79
     0
 53
45.0
 43
13.4704
 44
0.0
 45
-13.47038418160373
 46
13.47038418160373
 79
     0
 98
        1
 10
0.0
 20
0.0
  0
HATCH
  5
28E
330
1F
100
AcDbEntity
  8
0
  6
Continuous
 62
     7
370
    18
100
AcDbHatch
 10
0.0
 20
0.0
 30
0.0
210
0.0
220
0.0
230
1.0
  2
ANSI34
 70
     0
 71
     0
 91
        1
 92
        0
 93
        8
 72
     1
 10
54.98669489414686
 20
189.4099999999999
 11
58.78669489414686
 21
189.4099999999999
 72
     1
 10
58.78669489414686
 20
189.4099999999999
 11
58.99880205020084
 21
192.9099999999999
 72
     1
 10
58.99880205020084
 20
192.9099999999999
 11
64.98669489414685
 21
192.9099999999999
 72
     1
 10
64.98669489414685
 20
192.9099999999999
 11
64.98669489414685
 21
226.9099999999999
 72
     1
 10
64.98669489414685
 20
226.9099999999999
 11
59.18669489414686
 21
226.9099999999999
 72
     1
 10
59.18669489414686
 20
226.9099999999999
 11
58.98669489414685
 21
223.4099999999999
 72
     1
 10
58.98669489414685
 20
223.4099999999999
 11
54.98669489414686
 21
223.4099999999999
 72
     1
 10
54.98669489414686
 20
223.4099999999999
 11
54.98669489414686
 21
189.4099999999999
 97
        0
 75
     0
 76
     1
 52
0.0
 41
1.0
 77
     0
 78
     4
 53
45.0
 43
0.0
 44
0.0
 45
-13.47038418160373
 46
13.47038418160373
 79
     0
 53
45.0
 43
4.49013
 44
0.0
 45
-13.47038418160373
 46
13.47038418160373
 79
     0
 53
45.0
 43
8.98026
 44
0.0
 45
-13.47038418160373
 46
13.47038418160373
 79
     0
 53
45.0
 43
13.4704
 44
0.0
 45
-13.47038418160373
 46
13.47038418160373
 79
     0
 98
        1
 10
0.0
 20
0.0
  0
HATCH
  5
28F
330
1F
100
AcDbEntity
  8
0
  6
Continuous
 62
     7
370
    18
100
AcDbHatch
 10
0.0
 20
0.0
 30
0.0
210
0.0
220
0.0
230
1.0
  2
DIN 201 Stahl und Stahlguss
 70
     0
 71
     0
 91
        1
 92
        0
 93
        4
 72
     1
 10
72.8366948941468
 20
262.2099999999999
 11
59.38669489414679
 21
262.2099999999999
 72
     1
 10
59.38669489414679
 20
262.2099999999999
 11
59.38669489414679
 21
261.9099999999999
 72
     1
 10
59.38669489414679
 20
261.9099999999999
 11
72.8366948941468
 21
261.9099999999999
 72
     1
 10
72.8366948941468
 20
261.9099999999999
 11
72.8366948941468
 21
262.2099999999999
 97
        0
 75
     0
 76
     2
 52
0.0
 41
1.0
 77
     0
 78
     4
 53
45.00000209717174
 43
0.0
 44
0.0
 45
-13.47038467465416
 46
13.47038368855329
 79
     0
 53
45.00000209717174
 43
4.490128
 44
0.0
 45
-13.47038467465416
 46
13.47038368855329
 79
     0
 53
45.00000209717174
 43
8.980256
 44
0.0
 45
-13.47038467465416
 46
13.47038368855329
 79
     0
 53
45.00000209717174
 43
13.47038
 44
0.0
 45
-13.47038467465416
 46
13.47038368855329
 79
     0
 98
        1
 10
0.0
 20
0.0
  0
HATCH
  5
290
330
1F
100
AcDbEntity
  8
0
  6
Continuous
 62
     7
370
    18
100
AcDbHatch
 10
0.0
 20
0.0
 30
0.0
210
0.0
220
0.0
230
1.0
  2
DIN 201 Stahl und Stahlguss
 70
     0
 71
     0
 91
        1
 92
        0
 93
        4
 72
     1
 10
75.9366948941468
 20
261.9099999999999
 11
114.0366948941469
 21
261.9099999999999
 72
     1
 10
114.0366948941469
 20
261.9099999999999
 11
114.0366948941469
 21
262.2099999999999
 72
     1
 10
114.0366948941469
 20
262.2099999999999
 11
75.9366948941468
 21
262.2099999999999
 72
     1
 10
75.9366948941468
 20
262.2099999999999
 11
75.9366948941468
 21
261.9099999999999
 97
        0
 75
     0
 76
     2
 52
0.0
 41
1.0
 77
     0
 78
     4
 53
45.00000209717174
 43
0.0
 44
0.0
 45
-13.47038467465416
 46
13.47038368855329
 79
     0
 53
45.00000209717174
 43
4.490128
 44
0.0
 45
-13.47038467465416
 46
13.47038368855329
 79
     0
 53
45.00000209717174
 43
8.980256
 44
0.0
 45
-13.47038467465416
 46
13.47038368855329
 79
     0
 53
45.00000209717174
 43
13.47038
 44
0.0
 45
-13.47038467465416
 46
13.47038368855329
 79
     0
 98
        1
 10
0.0
 20
0.0
  0
HATCH
  5
291
330
1F
100
AcDbEntity
  8
0
  6
Continuous
 62
     7
370
    18
100
AcDbHatch
 10
0.0
 20
0.0
 30
0.0
210
0.0
220
0.0
230
1.0
  2
DIN 201 Stahl und Stahlguss
 70
     0
 71
     0
 91
        1
 92
        0
 93
        4
 72
     1
 10
117.1366948941469
 20
261.9099999999999
 11
130.5866948941469
 21
261.9099999999999
 72
     1
 10
130.5866948941469
 20
261.9099999999999
 11
130.5866948941469
 21
262.2099999999999
 72
     1
 10
130.5866948941469
 20
262.2099999999999
 11
117.1366948941469
 21
262.2099999999999
 72
     1
 10
117.1366948941469
 20
262.2099999999999
 11
117.1366948941469
 21
261.9099999999999
 97
        0
 75
     0
 76
     2
 52
0.0
 41
1.0
 77
     0
 78
     4
 53
45.00000209717174
 43
0.0
 44
0.0
 45
-13.47038467465416
 46
13.47038368855329
 79
     0
 53
45.00000209717174
 43
4.490128
 44
0.0
 45
-13.47038467465416
 46
13.47038368855329
 79
     0
 53
45.00000209717174
 43
8.980256
 44
0.0
 45
-13.47038467465416
 46
13.47038368855329
 79
     0
 53
45.00000209717174
 43
13.47038
 44
0.0
 45
-13.47038467465416
 46
13.47038368855329
 79
     0
 98
        1
 10
0.0
 20
0.0
  0
HATCH
  5
292
330
1F
100
AcDbEntity
  8
0
  6
Continuous
 62
     7
370
    18
100
AcDbHatch
 10
0.0
 20
0.0
 30
0.0
210
0.0
220
0.0
230
1.0
  2
DIN 201 Stahl und Stahlguss
 70
     0
 71
     0
 91
        2
 92
        0
 93
        8
 72
     1
 10
92.88669489414686
 20
256.9099999999999
 11
97.08669489414685
 21
256.9099999999999
 72
     2
 10
97.08669489414686
 20
257.3099999999999
 40
0.4
 50
269.9999999999987
 51
360.0000000000008
 73
     1
 72
     1
 10
97.48669489414685
 20
257.3099999999999
 11
97.48669489414685
 21
261.5099999999999
 72
     2
 10
97.08669489414686
 20
261.5099999999999
 40
0.4
 50
0.0
 51
90.00000000000203
 73
     1
 72
     1
 10
97.08669489414685
 20
261.9099999999999
 11
92.88669489414686
 21
261.9099999999999
 72
     2
 10
92.88669489414684
 20
261.5099999999999
 40
0.4
 50
89.99999999999797
 51
180.0
 73
     1
 72
     1
 10
92.48669489414685
 20
261.5099999999999
 11
92.48669489414685
 21
257.3099999999999
 72
     2
 10
92.88669489414684
 20
257.3099999999999
 40
0.4
 50
180.0
 51
270.0000000000028
 73
     1
 97
        0
 92
        0
 93
        8
 72
     2
 10
97.08669489414686
 20
257.3099999999999
 40
0.2000000000000002
 50
0.0
 51
90.00000000000408
 73
     0
 72
     1
 10
97.08669489414685
 20
257.11
 11
92.88669489414684
 21
257.11
 72
     2
 10
92.88669489414684
 20
257.3099999999999
 40
0.2000000000000002
 50
90.0
 51
180.0
 73
     0
 72
     1
 10
92.68669489414685
 20
257.3099999999999
 11
92.68669489414685
 21
261.5099999999999
 72
     2
 10
92.88669489414684
 20
261.5099999999999
 40
0.2
 50
180.0
 51
270.0000000000049
 73
     0
 72
     1
 10
92.88669489414686
 20
261.7099999999999
 11
97.08669489414686
 21
261.7099999999999
 72
     2
 10
97.08669489414686
 20
261.5099999999999
 40
0.2
 50
270.0000000000008
 51
360.0000000000008
 73
     0
 72
     1
 10
97.28669489414685
 20
261.5099999999999
 11
97.28669489414685
 21
257.3099999999999
 97
        0
 75
     0
 76
     2
 52
90.0
 41
1.0
 77
     0
 78
     4
 53
135.0000020971719
 43
0.0
 44
0.0
 45
-13.47038368855324
 46
-13.4703846746542
 79
     0
 53
135.0000020971719
 43
-0.0000000000000157
 44
4.490128
 45
-13.47038368855324
 46
-13.4703846746542
 79
     0
 53
135.0000020971719
 43
-0.0000000000000314
 44
8.980256
 45
-13.47038368855324
 46
-13.4703846746542
 79
     0
 53
135.0000020971719
 43
-0.000000000000047
 44
13.47038
 45
-13.47038368855324
 46
-13.4703846746542
 79
     0
 98
        1
 10
0.0
 20
0.0
  0
HATCH
  5
293
330
1F
100
AcDbEntity
  8
0
  6
Continuous
 62
     7
370
    18
100
AcDbHatch
 10
0.0
 20
0.0
 30
0.0
210
0.0
220
0.0
230
1.0
  2
ANSI34
 70
     0
 71
     0
 91
        1
 92
        0
 93
        8
 72
     1
 10
124.9866948941469
 20
261.9099999999999
 11
124.9866948941469
 21
227.9099999999999
 72
     1
 10
124.9866948941469
 20
227.9099999999999
 11
130.9745877380929
 21
227.9099999999999
 72
     1
 10
130.9745877380929
 20
227.9099999999999
 11
131.1866948941469
 21
224.4099999999999
 72
     1
 10
131.1866948941469
 20
224.4099999999999
 11
134.9866948941469
 21
224.4099999999999
 72
     1
 10
134.9866948941469
 20
224.4099999999999
 11
134.9866948941469
 21
258.4099999999999
 72
     1
 10
134.9866948941469
 20
258.4099999999999
 11
130.9866948941469
 21
258.4099999999999
 72
     1
 10
130.9866948941469
 20
258.4099999999999
 11
130.7866948941468
 21
261.9099999999999
 72
     1
 10
130.7866948941468
 20
261.9099999999999
 11
124.9866948941469
 21
261.9099999999999
 97
        0
 75
     0
 76
     1
 52
90.0
 41
1.0
 77
     0
 78
     4
 53
135.0000000000002
 43
0.0
 44
0.0
 45
-13.47038418160369
 46
-13.47038418160378
 79
     0
 53
135.0000000000002
 43
-0.0000000000000157
 44
4.49013
 45
-13.47038418160369
 46
-13.47038418160378
 79
     0
 53
135.0000000000002
 43
-0.0000000000000314
 44
8.98026
 45
-13.47038418160369
 46
-13.47038418160378
 79
     0
 53
135.0000000000002
 43
-0.000000000000047
 44
13.4704
 45
-13.47038418160369
 46
-13.47038418160378
 79
     0
 98
        1
 10
0.0
 20
0.0
  0
HATCH
  5
294
330
1F
100
AcDbEntity
  8
0
  6
Continuous
 62
     7
370
    18
100
AcDbHatch
 10
0.0
 20
0.0
 30
0.0
210
0.0
220
0.0
230
1.0
  2
ANSI34
 70
     0
 71
     0
 91
        1
 92
        0
 93
        8
 72
     1
 10
54.98669489414686
 20
224.4099999999999
 11
58.78669489414686
 21
224.4099999999999
 72
     1
 10
58.78669489414686
 20
224.4099999999999
 11
58.99880205020084
 21
227.9099999999999
 72
     1
 10
58.99880205020084
 20
227.9099999999999
 11
64.98669489414685
 21
227.9099999999999
 72
     1
 10
64.98669489414685
 20
227.9099999999999
 11
64.98669489414685
 21
261.9099999999999
 72
     1
 10
64.98669489414685
 20
261.9099999999999
 11
59.18669489414686
 21
261.9099999999999
 72
     1
 10
59.18669489414686
 20
261.9099999999999
 11
58.98669489414685
 21
258.4099999999999
 72
     1
 10
58.98669489414685
 20
258.4099999999999
 11
54.98669489414686
 21
258.4099999999999
 72
     1
 10
54.98669489414686
 20
258.4099999999999
 11
54.98669489414686
 21
224.4099999999999
 97
        0
 75
     0
 76
     1
 52
90.0
 41
1.0
 77
     0
 78
     4
 53
135.0000000000002
 43
0.0
 44
0.0
 45
-13.47038418160369
 46
-13.47038418160378
 79
     0
 53
135.0000000000002
 43
-0.0000000000000157
 44
4.49013
 45
-13.47038418160369
 46
-13.47038418160378
 79
     0
 53
135.0000000000002
 43
-0.0000000000000314
 44
8.98026
 45
-13.47038418160369
 46
-13.47038418160378
 79
     0
 53
135.0000000000002
 43
-0.000000000000047
 44
13.4704
 45
-13.47038418160369
 46
-13.47038418160378
 79
     0
 98
        1
 10
0.0
 20
0.0
  0
INSERT
  5
29A
330
1F
100
AcDbEntity
  8
O-TEKST
100
AcDbBlockReference
  2
SW_NOTE_1
 10
74.224717013
 20
152.5940969664
 30
0.0
  0
LINE
  5
29B
330
1F
100
AcDbEntity
  8
0
  6
Continuous
 62
     7
370
    25
100
AcDbLine
 10
130.586695514
 20
392.9499985695
 30
0.0
 11
130.586695514
 21
393.2500006676
 31
0.0
  0
LINE
  5
29C
330
1F
100
AcDbEntity
  8
0
  6
Continuous
 62
     7
370
    25
100
AcDbLine
 10
130.586695514
 20
393.2500006676
 30
0.0
 11
128.5866944412
 21
393.2500006676
 31
0.0
  0
LINE
  5
29D
330
1F
100
AcDbEntity
  8
0
  6
Continuous
 62
     7
370
    25
100
AcDbLine
 10
128.5866944412
 20
393.2500006676
 30
0.0
 11
61.3866953471
 21
393.2500006676
 31
0.0
  0
LINE
  5
29E
330
1F
100
AcDbEntity
  8
0
  6
Continuous
 62
     7
370
    25
100
AcDbLine
 10
59.3866942743
 20
392.9499985695
 30
0.0
 11
59.3866942743
 21
393.2500006676
 31
0.0
  0
LINE
  5
29F
330
1F
100
AcDbEntity
  8
0
  6
Continuous
 62
     7
370
    25
100
AcDbLine
 10
61.3866953471
 20
393.2500006676
 30
0.0
 11
59.3866942743
 21
393.2500006676
 31
0.0
  0
ARC
  5
2A0
330
1F
100
AcDbEntity
  8
0
  6
Continuous
 62
     7
370
    25
100
AcDbCircle
 10
94.9866948941
 20
368.45
 30
0.0
 40
16.0
100
AcDbArc
 50
0.0
 51
180.0
  0
LINE
  5
2A1
330
1F
100
AcDbEntity
  8
0
  6
Continuous
 62
     7
370
    25
100
AcDbLine
 10
78.9866952518
 20
355.4499985695
 30
0.0
 11
78.9866952518
 21
368.4499980927
 31
0.0
  0
LINE
  5
2A2
330
1F
100
AcDbEntity
  8
0
  6
Continuous
 62
     7
370
    25
100
AcDbLine
 10
54.9866942981
 20
355.4499985695
 30
0.0
 11
78.9866952518
 21
355.4499985695
 31
0.0
  0
LINE
  5
2A3
330
1F
100
AcDbEntity
  8
0
  6
Continuous
 62
     7
370
    25
100
AcDbLine
 10
54.9866942981
 20
389.4500019073
 30
0.0
 11
54.9866942981
 21
355.4499985695
 31
0.0
  0
LINE
  5
2A4
330
1F
100
AcDbEntity
  8
0
  6
Continuous
 62
     7
370
    25
100
AcDbLine
 10
54.9866942981
 20
389.4500019073
 30
0.0
 11
134.9866954902
 21
389.4500019073
 31
0.0
  0
LINE
  5
2A5
330
1F
100
AcDbEntity
  8
0
  6
Continuous
 62
     7
370
    25
100
AcDbLine
 10
134.9866954902
 20
389.4500019073
 30
0.0
 11
134.9866954902
 21
355.4499985695
 31
0.0
  0
LINE
  5
2A6
330
1F
100
AcDbEntity
  8
0
  6
Continuous
 62
     7
370
    25
100
AcDbLine
 10
110.9866945365
 20
368.4499980927
 30
0.0
 11
110.9866945365
 21
355.4499985695
 31
0.0
  0
LINE
  5
2A7
330
1F
100
AcDbEntity
  8
0
  6
Continuous
 62
     7
370
    25
100
AcDbLine
 10
110.9866945365
 20
355.4499985695
 30
0.0
 11
134.9866954902
 21
355.4499985695
 31
0.0
  0
CIRCLE
  5
2A8
330
1F
100
AcDbEntity
  8
0
  6
Continuous
 62
     7
370
    25
100
AcDbCircle
 10
74.9866948941
 20
384.45
 30
0.0
 40
2.0
  0
CIRCLE
  5
2A9
330
1F
100
AcDbEntity
  8
0
  6
Continuous
 62
     7
370
    25
100
AcDbCircle
 10
114.9866948941
 20
384.45
 30
0.0
 40
2.0
  0
LINE
  5
2AA
330
1F
100
AcDbEntity
  8
0
  6
Continuous
 62
     7
370
    25
100
AcDbLine
 10
108.4872169712
 20
358.7502183437
 30
0.0
 11
108.61219152
 21
355.4499985695
 31
0.0
  0
LINE
  5
2AB
330
1F
100
AcDbEntity
  8
0
  6
Continuous
 62
     7
370
    25
100
AcDbLine
 10
108.4872169712
 20
368.4499980927
 30
0.0
 11
108.4872169712
 21
358.7502183437
 31
0.0
  0
LINE
  5
2AC
330
1F
100
AcDbEntity
  8
0
  6
Continuous
 62
     7
370
    25
100
AcDbLine
 10
110.9866945365
 20
355.4499985695
 30
0.0
 11
108.61219152
 21
355.4499985695
 31
0.0
  0
ARC
  5
2AD
330
1F
100
AcDbEntity
  8
0
  6
Continuous
 62
     7
370
    25
100
AcDbCircle
 10
94.9866948941
 20
368.45
 30
0.0
 40
13.50052259236269
100
AcDbArc
 50
0.0
 51
180.0
  0
LINE
  5
2AE
330
1F
100
AcDbEntity
  8
0
  6
Continuous
 62
     7
370
    25
100
AcDbLine
 10
81.3611982682
 20
355.4499985695
 30
0.0
 11
78.9866952518
 21
355.4499985695
 31
0.0
  0
LINE
  5
2AF
330
1F
100
AcDbEntity
  8
0
  6
Continuous
 62
     7
370
    25
100
AcDbLine
 10
81.4861728171
 20
358.7502183437
 30
0.0
 11
81.4861728171
 21
368.4499980927
 31
0.0
  0
LINE
  5
2B0
330
1F
100
AcDbEntity
  8
0
  6
Continuous
 62
     7
370
    25
100
AcDbLine
 10
81.3611982682
 20
355.4499985695
 30
0.0
 11
81.4861728171
 21
358.7502183437
 31
0.0
  0
LINE
  5
2B1
330
1F
100
AcDbEntity
  8
0
  6
Continuous
 62
     7
370
    25
100
AcDbLine
 10
58.9866934636
 20
389.4500019073
 30
0.0
 11
59.1866938689
 21
392.9499985695
 31
0.0
  0
LINE
  5
2B2
330
1F
100
AcDbEntity
  8
0
  6
Continuous
 62
     7
370
    25
100
AcDbLine
 10
59.1866938689
 20
392.9499985695
 30
0.0
 11
130.7866959193
 21
392.9499985695
 31
0.0
  0
LINE
  5
2B3
330
1F
100
AcDbEntity
  8
0
  6
Continuous
 62
     7
370
    25
100
AcDbLine
 10
130.9866963247
 20
389.4500019073
 30
0.0
 11
130.7866959193
 21
392.9499985695
 31
0.0
  0
LINE
  5
2B4
330
1F
100
AcDbEntity
  8
0
  6
Continuous
 62
     7
370
    25
100
AcDbLine
 10
89.8866949895
 20
358.7502183437
 30
0.0
 11
89.8866949895
 21
359.8482551098
 31
0.0
  0
LINE
  5
2B5
330
1F
100
AcDbEntity
  8
0
  6
Continuous
 62
     7
370
    25
100
AcDbLine
 10
100.0866947988
 20
359.8482551098
 30
0.0
 11
100.0866947988
 21
358.7502183437
 31
0.0
  0
ARC
  5
2B6
330
1F
100
AcDbEntity
  8
0
  6
Continuous
 62
     7
370
    25
100
AcDbCircle
 10
94.9866948941
 20
368.45
 30
0.0
 40
9.999999999999975
100
AcDbArc
 50
300.6638297424
 51
239.3361702576
  0
LINE
  5
2B7
330
1F
100
AcDbEntity
  8
0
  6
Continuous
 62
     7
370
    25
100
AcDbLine
 10
81.4861728171
 20
358.7502183437
 30
0.0
 11
89.8866949895
 21
358.7502183437
 31
0.0
  0
LINE
  5
2B8
330
1F
100
AcDbEntity
  8
0
  6
Continuous
 62
     7
370
    25
100
AcDbLine
 10
100.0866947988
 20
358.7502183437
 30
0.0
 11
108.4872169712
 21
358.7502183437
 31
0.0
  0
LINE
  5
2B9
330
1F
100
AcDbEntity
  8
0
  6
Continuous
 62
     7
370
    25
100
AcDbLine
 10
89.8866949895
 20
358.9500011921
 30
0.0
 11
100.0866947988
 21
358.9500011921
 31
0.0
  0
ARC
  5
2BA
330
1F
100
AcDbEntity
  8
0
  6
Continuous
 62
     7
370
    25
100
AcDbCircle
 10
94.9866948941
 20
333.45
 30
0.0
 40
16.0
100
AcDbArc
 50
0.0
 51
180.0
  0
LINE
  5
2BB
330
1F
100
AcDbEntity
  8
0
  6
Continuous
 62
     7
370
    25
100
AcDbLine
 10
78.9866952518
 20
320.4500006557
 30
0.0
 11
78.9866952518
 21
333.4499986887
 31
0.0
  0
LINE
  5
2BC
330
1F
100
AcDbEntity
  8
0
  6
Continuous
 62
     7
370
    25
100
AcDbLine
 10
54.9866942981
 20
320.4500006557
 30
0.0
 11
78.9866952518
 21
320.4500006557
 31
0.0
  0
LINE
  5
2BD
330
1F
100
AcDbEntity
  8
0
  6
Continuous
 62
     7
370
    25
100
AcDbLine
 10
54.9866942981
 20
354.4499995232
 30
0.0
 11
54.9866942981
 21
320.4500006557
 31
0.0
  0
LINE
  5
2BE
330
1F
100
AcDbEntity
  8
0
  6
Continuous
 62
     7
370
    25
100
AcDbLine
 10
110.9866945365
 20
333.4499986887
 30
0.0
 11
110.9866945365
 21
320.4500006557
 31
0.0
  0
LINE
  5
2BF
330
1F
100
AcDbEntity
  8
0
  6
Continuous
 62
     7
370
    25
100
AcDbLine
 10
110.9866945365
 20
320.4500006557
 30
0.0
 11
134.9866954902
 21
320.4500006557
 31
0.0
  0
LINE
  5
2C0
330
1F
100
AcDbEntity
  8
0
  6
Continuous
 62
     7
370
    25
100
AcDbLine
 10
134.9866954902
 20
354.4499995232
 30
0.0
 11
134.9866954902
 21
320.4500006557
 31
0.0
  0
LINE
  5
2C1
330
1F
100
AcDbEntity
  8
0
  6
Continuous
 62
     7
370
    25
100
AcDbLine
 10
54.9866942981
 20
354.4499995232
 30
0.0
 11
134.9866954902
 21
354.4499995232
 31
0.0
  0
CIRCLE
  5
2C2
330
1F
100
AcDbEntity
  8
0
  6
Continuous
 62
     7
370
    25
100
AcDbCircle
 10
74.9866948941
 20
349.45
 30
0.0
 40
2.0
  0
CIRCLE
  5
2C3
330
1F
100
AcDbEntity
  8
0
  6
Continuous
 62
     7
370
    25
100
AcDbCircle
 10
114.9866948941
 20
349.45
 30
0.0
 40
2.0
  0
LINE
  5
2C4
330
1F
100
AcDbEntity
  8
0
  6
Continuous
 62
     7
370
    25
100
AcDbLine
 10
108.4872169712
 20
323.7502189398
 30
0.0
 11
108.61219152
 21
320.4500006557
 31
0.0
  0
LINE
  5
2C5
330
1F
100
AcDbEntity
  8
0
  6
Continuous
 62
     7
370
    25
100
AcDbLine
 10
108.4872169712
 20
333.4499986887
 30
0.0
 11
108.4872169712
 21
323.7502189398
 31
0.0
  0
LINE
  5
2C6
330
1F
100
AcDbEntity
  8
0
  6
Continuous
 62
     7
370
    25
100
AcDbLine
 10
110.9866945365
 20
320.4500006557
 30
0.0
 11
108.61219152
 21
320.4500006557
 31
0.0
  0
ARC
  5
2C7
330
1F
100
AcDbEntity
  8
0
  6
Continuous
 62
     7
370
    25
100
AcDbCircle
 10
94.9866948941
 20
333.45
 30
0.0
 40
13.50052259236269
100
AcDbArc
 50
0.0
 51
180.0
  0
LINE
  5
2C8
330
1F
100
AcDbEntity
  8
0
  6
Continuous
 62
     7
370
    25
100
AcDbLine
 10
81.3611982682
 20
320.4500006557
 30
0.0
 11
78.9866952518
 21
320.4500006557
 31
0.0
  0
LINE
  5
2C9
330
1F
100
AcDbEntity
  8
0
  6
Continuous
 62
     7
370
    25
100
AcDbLine
 10
81.4861728171
 20
323.7502189398
 30
0.0
 11
81.4861728171
 21
333.4499986887
 31
0.0
  0
LINE
  5
2CA
330
1F
100
AcDbEntity
  8
0
  6
Continuous
 62
     7
370
    25
100
AcDbLine
 10
81.3611982682
 20
320.4500006557
 30
0.0
 11
81.4861728171
 21
323.7502189398
 31
0.0
  0
LINE
  5
2CB
330
1F
100
AcDbEntity
  8
0
  6
Continuous
 62
     7
370
    25
100
AcDbLine
 10
58.9866934636
 20
354.4499995232
 30
0.0
 11
59.0438364366
 21
355.4499985695
 31
0.0
  0
LINE
  5
2CC
330
1F
100
AcDbEntity
  8
0
  6
Continuous
 62
     7
370
    25
100
AcDbLine
 10
81.4558698157
 20
357.9500021458
 30
0.0
 11
108.5175199726
 21
357.9500021458
 31
0.0
  0
LINE
  5
2CD
330
1F
100
AcDbEntity
  8
0
  6
Continuous
 62
     7
370
    25
100
AcDbLine
 10
130.9866963247
 20
354.4499995232
 30
0.0
 11
130.9295533517
 21
355.4499985695
 31
0.0
  0
LINE
  5
2CE
330
1F
100
AcDbEntity
  8
0
  6
Continuous
 62
     7
370
    25
100
AcDbLine
 10
89.8866949895
 20
323.7502189398
 30
0.0
 11
89.8866949895
 21
324.8482557058
 31
0.0
  0
LINE
  5
2CF
330
1F
100
AcDbEntity
  8
0
  6
Continuous
 62
     7
370
    25
100
AcDbLine
 10
100.0866947988
 20
324.8482557058
 30
0.0
 11
100.0866947988
 21
323.7502189398
 31
0.0
  0
ARC
  5
2D0
330
1F
100
AcDbEntity
  8
0
  6
Continuous
 62
     7
370
    25
100
AcDbCircle
 10
94.9866948941
 20
333.45
 30
0.0
 40
10.00000000000002
100
AcDbArc
 50
300.6638297424
 51
239.3361702576
  0
LINE
  5
2D1
330
1F
100
AcDbEntity
  8
0
  6
Continuous
 62
     7
370
    25
100
AcDbLine
 10
81.4861728171
 20
323.7502189398
 30
0.0
 11
89.8866949895
 21
323.7502189398
 31
0.0
  0
LINE
  5
2D2
330
1F
100
AcDbEntity
  8
0
  6
Continuous
 62
     7
370
    25
100
AcDbLine
 10
100.0866947988
 20
323.7502189398
 30
0.0
 11
108.4872169712
 21
323.7502189398
 31
0.0
  0
LINE
  5
2D3
330
1F
100
AcDbEntity
  8
0
  6
Continuous
 62
     7
370
    25
100
AcDbLine
 10
89.8866949895
 20
323.950000298
 30
0.0
 11
100.0866947988
 21
323.950000298
 31
0.0
  0
CIRCLE
  5
2D4
330
1F
100
AcDbEntity
  8
0
  6
Continuous
 62
     7
370
    25
100
AcDbCircle
 10
114.9866948941
 20
384.45
 30
0.0
 40
0.5
  0
CIRCLE
  5
2D5
330
1F
100
AcDbEntity
  8
0
  6
Continuous
 62
     7
370
    25
100
AcDbCircle
 10
114.9866948941
 20
349.45
 30
0.0
 40
0.5
  0
CIRCLE
  5
2D6
330
1F
100
AcDbEntity
  8
0
  6
Continuous
 62
     7
370
    25
100
AcDbCircle
 10
74.9866948941
 20
349.45
 30
0.0
 40
0.5
  0
CIRCLE
  5
2D7
330
1F
100
AcDbEntity
  8
0
  6
Continuous
 62
     7
370
    25
100
AcDbCircle
 10
74.9866948941
 20
384.45
 30
0.0
 40
0.5
  0
LINE
  5
2D8
330
1F
100
AcDbEntity
  8
0
  6
Continuous
 62
     7
370
    25
100
AcDbLine
 10
54.9866942981
 20
309.4499999702
 30
0.0
 11
54.9866942981
 21
319.4500001192
 31
0.0
  0
LINE
  5
2D9
330
1F
100
AcDbEntity
  8
0
  6
Continuous
 62
     7
370
    25
100
AcDbLine
 10
134.9866954902
 20
319.4500001192
 30
0.0
 11
54.9866942981
 21
319.4500001192
 31
0.0
  0
LINE
  5
2DA
330
1F
100
AcDbEntity
  8
0
  6
Continuous
 62
     7
370
    25
100
AcDbLine
 10
54.9866942981
 20
309.4499999702
 30
0.0
 11
134.9866954902
 21
309.4499999702
 31
0.0
  0
LINE
  5
2DB
330
1F
100
AcDbEntity
  8
0
  6
Continuous
 62
     7
370
    25
100
AcDbLine
 10
134.9866954902
 20
309.4499999702
 30
0.0
 11
134.9866954902
 21
319.4500001192
 31
0.0
  0
LINE
  5
2DC
330
1F
100
AcDbEntity
  8
0
  6
Continuous
 62
     7
370
    25
100
AcDbLine
 10
130.8314381459
 20
319.4500001192
 30
0.0
 11
130.7615129569
 21
320.4500006557
 31
0.0
  0
LINE
  5
2DD
330
1F
100
AcDbEntity
  8
0
  6
Continuous
 62
     7
370
    25
100
AcDbLine
 10
59.1419516423
 20
319.4500001192
 30
0.0
 11
59.2118768314
 21
320.4500006557
 31
0.0
  0
LINE
  5
2DE
330
1F
100
AcDbEntity
  8
0
  6
Continuous
 62
     7
370
    25
100
AcDbLine
 10
81.4558698157
 20
322.9499997616
 30
0.0
 11
108.5175199726
 21
322.9499997616
 31
0.0
  0
LINE
  5
2DF
330
1F
100
AcDbEntity
  8
0
  6
Continuous
 62
     7
370
    25
100
AcDbLine
 10
134.9866954902
 20
308.4500001788
 30
0.0
 11
134.9866954902
 21
303.95
 31
0.0
  0
LINE
  5
2E0
330
1F
100
AcDbEntity
  8
0
  6
Continuous
 62
     7
370
    25
100
AcDbLine
 10
99.9866949687
 20
303.95
 30
0.0
 11
99.9866949687
 21
308.4500001788
 31
0.0
  0
LINE
  5
2E1
330
1F
100
AcDbEntity
  8
0
  6
Continuous
 62
     7
370
    25
100
AcDbLine
 10
134.9866954902
 20
308.4500001788
 30
0.0
 11
99.9866949687
 21
308.4500001788
 31
0.0
  0
LINE
  5
2E2
330
1F
100
AcDbEntity
  8
0
  6
Continuous
 62
     7
370
    25
100
AcDbLine
 10
134.9866954902
 20
303.95
 30
0.0
 11
99.9866949687
 21
303.95
 31
0.0
  0
LINE
  5
2E3
330
1F
100
AcDbEntity
  8
0
  6
Continuous
 62
     7
370
    25
100
AcDbLine
 10
54.9866942981
 20
303.95
 30
0.0
 11
54.9866942981
 21
308.4500001788
 31
0.0
  0
LINE
  5
2E4
330
1F
100
AcDbEntity
  8
0
  6
Continuous
 62
     7
370
    25
100
AcDbLine
 10
89.9866948196
 20
308.4500001788
 30
0.0
 11
54.9866942981
 21
308.4500001788
 31
0.0
  0
LINE
  5
2E5
330
1F
100
AcDbEntity
  8
0
  6
Continuous
 62
     7
370
    25
100
AcDbLine
 10
89.9866948196
 20
303.95
 30
0.0
 11
89.9866948196
 21
308.4500001788
 31
0.0
  0
LINE
  5
2E6
330
1F
100
AcDbEntity
  8
0
  6
Continuous
 62
     7
370
    25
100
AcDbLine
 10
89.9866948196
 20
303.95
 30
0.0
 11
54.9866942981
 21
303.95
 31
0.0
  0
LINE
  5
2E7
330
1F
100
AcDbEntity
  8
0
  6
Continuous
 62
     7
370
    25
100
AcDbLine
 10
59.1866938689
 20
308.4500001788
 30
0.0
 11
59.1866938689
 21
309.4499999702
 31
0.0
  0
LINE
  5
2E8
330
1F
100
AcDbEntity
  8
0
  6
Continuous
 62
     7
370
    25
100
AcDbLine
 10
130.7866959193
 20
308.4500001788
 30
0.0
 11
130.7866959193
 21
309.4499999702
 31
0.0
  0
LINE
  5
2E9
330
1F
100
AcDbEntity
  8
0
  6
Continuous
 62
     7
370
    25
100
AcDbLine
 10
99.9866949687
 20
303.95
 30
0.0
 11
89.9866948196
 21
303.95
 31
0.0
  0
LINE
  5
2EA
330
1F
100
AcDbEntity
  8
0
  6
PHANTOM
 62
     8
370
    18
100
AcDbLine
 10
128.5866944412
 20
392.9499985695
 30
0.0
 11
128.5866944412
 21
393.2500006676
 31
0.0
  0
LINE
  5
2EB
330
1F
100
AcDbEntity
  8
0
  6
PHANTOM
 62
     8
370
    18
100
AcDbLine
 10
61.3866953471
 20
392.9499985695
 30
0.0
 11
61.3866953471
 21
393.2500006676
 31
0.0
  0
LINE
  5
2EC
330
1F
100
AcDbEntity
  8
0
  6
PHANTOM
 62
     8
370
    18
100
AcDbLine
 10
108.4872169712
 20
368.4499980927
 30
0.0
 11
110.9866945365
 21
368.4499980927
 31
0.0
  0
LINE
  5
2ED
330
1F
100
AcDbEntity
  8
0
  6
PHANTOM
 62
     8
370
    18
100
AcDbLine
 10
81.4861728171
 20
368.4499980927
 30
0.0
 11
78.9866952518
 21
368.4499980927
 31
0.0
  0
LINE
  5
2EE
330
1F
100
AcDbEntity
  8
0
  6
PHANTOM
 62
     8
370
    18
100
AcDbLine
 10
108.4872169712
 20
333.4499986887
 30
0.0
 11
110.9866945365
 21
333.4499986887
 31
0.0
  0
LINE
  5
2EF
330
1F
100
AcDbEntity
  8
0
  6
PHANTOM
 62
     8
370
    18
100
AcDbLine
 10
81.4861728171
 20
333.4499986887
 30
0.0
 11
78.9866952518
 21
333.4499986887
 31
0.0
  0
LINE
  5
2F0
330
1F
100
AcDbEntity
  8
0
  6
Continuous
 62
     7
370
    25
100
AcDbLine
 10
403.2494207364
 20
50.9199993801
 30
0.0
 11
403.5494228344
 21
50.9199993801
 31
0.0
  0
LINE
  5
2F1
330
1F
100
AcDbEntity
  8
0
  6
Continuous
 62
     7
370
    25
100
AcDbLine
 10
403.5494228344
 20
50.9199993801
 30
0.0
 11
403.5494228344
 21
52.920000453
 31
0.0
  0
LINE
  5
2F2
330
1F
100
AcDbEntity
  8
0
  6
Continuous
 62
     7
370
    25
100
AcDbLine
 10
403.5494228344
 20
52.920000453
 30
0.0
 11
403.5494228344
 21
120.119999547
 31
0.0
  0
LINE
  5
2F3
330
1F
100
AcDbEntity
  8
0
  6
Continuous
 62
     7
370
    25
100
AcDbLine
 10
403.2494207364
 20
122.1200006199
 30
0.0
 11
403.5494228344
 21
122.1200006199
 31
0.0
  0
LINE
  5
2F4
330
1F
100
AcDbEntity
  8
0
  6
Continuous
 62
     7
370
    25
100
AcDbLine
 10
403.5494228344
 20
120.119999547
 30
0.0
 11
403.5494228344
 21
122.1200006199
 31
0.0
  0
LINE
  5
2F5
330
1F
100
AcDbEntity
  8
0
  6
Continuous
 62
     7
370
    25
100
AcDbLine
 10
365.7494207364
 20
126.520000596
 30
0.0
 11
365.7494207364
 21
119.5200013113
 31
0.0
  0
LINE
  5
2F6
330
1F
100
AcDbEntity
  8
0
  6
Continuous
 62
     7
370
    25
100
AcDbLine
 10
399.7494240742
 20
126.520000596
 30
0.0
 11
365.7494207364
 21
126.520000596
 31
0.0
  0
LINE
  5
2F7
330
1F
100
AcDbEntity
  8
0
  6
Continuous
 62
     7
370
    25
100
AcDbLine
 10
399.7494240742
 20
126.520000596
 30
0.0
 11
399.7494240742
 21
46.519999404
 31
0.0
  0
LINE
  5
2F8
330
1F
100
AcDbEntity
  8
0
  6
Continuous
 62
     7
370
    25
100
AcDbLine
 10
378.7494202595
 20
53.5199986887
 30
0.0
 11
365.7494207364
 21
53.5199986887
 31
0.0
  0
ARC
  5
2F9
330
1F
100
AcDbEntity
  8
0
  6
Continuous
 62
     7
370
    25
100
AcDbCircle
 10
378.7494221669
 20
69.52
 30
0.0
 40
16.00000000000001
100
AcDbArc
 50
270.0
 51
90.0
  0
LINE
  5
2FA
330
1F
100
AcDbEntity
  8
0
  6
Continuous
 62
     7
370
    25
100
AcDbLine
 10
365.7494207364
 20
85.5200000224
 30
0.0
 11
378.7494202595
 21
85.5200000224
 31
0.0
  0
LINE
  5
2FB
330
1F
100
AcDbEntity
  8
0
  6
Continuous
 62
     7
370
    25
100
AcDbLine
 10
365.7494207364
 20
87.5199999776
 30
0.0
 11
365.7494207364
 21
85.5200000224
 31
0.0
  0
LINE
  5
2FC
330
1F
100
AcDbEntity
  8
0
  6
Continuous
 62
     7
370
    25
100
AcDbLine
 10
378.7494202595
 20
87.5199999776
 30
0.0
 11
365.7494207364
 21
87.5199999776
 31
0.0
  0
ARC
  5
2FD
330
1F
100
AcDbEntity
  8
0
  6
Continuous
 62
     7
370
    25
100
AcDbCircle
 10
378.7494221669
 20
103.52
 30
0.0
 40
16.0
100
AcDbArc
 50
270.0
 51
90.0
  0
LINE
  5
2FE
330
1F
100
AcDbEntity
  8
0
  6
Continuous
 62
     7
370
    25
100
AcDbLine
 10
365.7494207364
 20
119.5200013113
 30
0.0
 11
378.7494202595
 21
119.5200013113
 31
0.0
  0
LINE
  5
2FF
330
1F
100
AcDbEntity
  8
0
  6
Continuous
 62
     7
370
    25
100
AcDbLine
 10
365.7494207364
 20
53.5199986887
 30
0.0
 11
365.7494207364
 21
46.519999404
 31
0.0
  0
LINE
  5
300
330
1F
100
AcDbEntity
  8
0
  6
Continuous
 62
     7
370
    25
100
AcDbLine
 10
399.7494240742
 20
46.519999404
 30
0.0
 11
365.7494207364
 21
46.519999404
 31
0.0
  0
LINE
  5
301
330
1F
100
AcDbEntity
  8
0
  6
Continuous
 62
     7
370
    25
100
AcDbLine
 10
369.0496405106
 20
56.0194777441
 30
0.0
 11
365.7494207364
 21
55.8945046854
 31
0.0
  0
LINE
  5
302
330
1F
100
AcDbEntity
  8
0
  6
Continuous
 62
     7
370
    25
100
AcDbLine
 10
378.7494202595
 20
56.0194777441
 30
0.0
 11
369.0496405106
 21
56.0194777441
 31
0.0
  0
LINE
  5
303
330
1F
100
AcDbEntity
  8
0
  6
Continuous
 62
     7
370
    25
100
AcDbLine
 10
365.7494207364
 20
53.5199986887
 30
0.0
 11
365.7494207364
 21
55.8945046854
 31
0.0
  0
ARC
  5
304
330
1F
100
AcDbEntity
  8
0
  6
Continuous
 62
     7
370
    25
100
AcDbCircle
 10
378.7494221669
 20
69.52
 30
0.0
 40
13.50052259236269
100
AcDbArc
 50
270.0
 51
90.0
  0
LINE
  5
305
330
1F
100
AcDbEntity
  8
0
  6
Continuous
 62
     7
370
    25
100
AcDbLine
 10
369.0496405106
 20
83.0205226433
 30
0.0
 11
378.7494202595
 21
83.0205226433
 31
0.0
  0
LINE
  5
306
330
1F
100
AcDbEntity
  8
0
  6
Continuous
 62
     7
370
    25
100
AcDbLine
 10
365.7494207364
 20
83.1454964471
 30
0.0
 11
369.0496405106
 21
83.0205226433
 31
0.0
  0
LINE
  5
307
330
1F
100
AcDbEntity
  8
0
  6
Continuous
 62
     7
370
    25
100
AcDbLine
 10
365.7494207364
 20
83.1454964471
 30
0.0
 11
365.7494207364
 21
85.5200000224
 31
0.0
  0
LINE
  5
308
330
1F
100
AcDbEntity
  8
0
  6
Continuous
 62
     7
370
    25
100
AcDbLine
 10
369.0496405106
 20
90.0194773567
 30
0.0
 11
365.7494207364
 21
89.8945035529
 31
0.0
  0
LINE
  5
309
330
1F
100
AcDbEntity
  8
0
  6
Continuous
 62
     7
370
    25
100
AcDbLine
 10
378.7494202595
 20
90.0194773567
 30
0.0
 11
369.0496405106
 21
90.0194773567
 31
0.0
  0
LINE
  5
30A
330
1F
100
AcDbEntity
  8
0
  6
Continuous
 62
     7
370
    25
100
AcDbLine
 10
365.7494207364
 20
87.5199999776
 30
0.0
 11
365.7494207364
 21
89.8945035529
 31
0.0
  0
ARC
  5
30B
330
1F
100
AcDbEntity
  8
0
  6
Continuous
 62
     7
370
    25
100
AcDbCircle
 10
378.7494221669
 20
103.52
 30
0.0
 40
13.50052259236269
100
AcDbArc
 50
270.0
 51
90.0
  0
LINE
  5
30C
330
1F
100
AcDbEntity
  8
0
  6
Continuous
 62
     7
370
    25
100
AcDbLine
 10
365.7494207364
 20
117.1454953146
 30
0.0
 11
365.7494207364
 21
119.5200013113
 31
0.0
  0
LINE
  5
30D
330
1F
100
AcDbEntity
  8
0
  6
Continuous
 62
     7
370
    25
100
AcDbLine
 10
369.0496405106
 20
117.0205222559
 30
0.0
 11
378.7494202595
 21
117.0205222559
 31
0.0
  0
LINE
  5
30E
330
1F
100
AcDbEntity
  8
0
  6
Continuous
 62
     7
370
    25
100
AcDbLine
 10
365.7494207364
 20
117.1454953146
 30
0.0
 11
369.0496405106
 21
117.0205222559
 31
0.0
  0
LINE
  5
30F
330
1F
100
AcDbEntity
  8
0
  6
Continuous
 62
     7
370
    25
100
AcDbLine
 10
369.0496405106
 20
74.6199997258
 30
0.0
 11
370.1476772767
 21
74.6199997258
 31
0.0
  0
LINE
  5
310
330
1F
100
AcDbEntity
  8
0
  6
Continuous
 62
     7
370
    25
100
AcDbLine
 10
370.1476772767
 20
64.4199999166
 30
0.0
 11
369.0496405106
 21
64.4199999166
 31
0.0
  0
ARC
  5
311
330
1F
100
AcDbEntity
  8
0
  6
Continuous
 62
     7
370
    25
100
AcDbCircle
 10
378.7494221669
 20
69.52
 30
0.0
 40
9.999999999999975
100
AcDbArc
 50
210.6638297424
 51
149.3361702576
  0
LINE
  5
312
330
1F
100
AcDbEntity
  8
0
  6
Continuous
 62
     7
370
    25
100
AcDbLine
 10
369.0496405106
 20
83.0205226433
 30
0.0
 11
369.0496405106
 21
74.6199997258
 31
0.0
  0
LINE
  5
313
330
1F
100
AcDbEntity
  8
0
  6
Continuous
 62
     7
370
    25
100
AcDbLine
 10
369.0496405106
 20
64.4199999166
 30
0.0
 11
369.0496405106
 21
56.0194777441
 31
0.0
  0
LINE
  5
314
330
1F
100
AcDbEntity
  8
0
  6
Continuous
 62
     7
370
    25
100
AcDbLine
 10
399.7494240742
 20
50.5199985695
 30
0.0
 11
403.2494207364
 21
50.7199989748
 31
0.0
  0
LINE
  5
315
330
1F
100
AcDbEntity
  8
0
  6
Continuous
 62
     7
370
    25
100
AcDbLine
 10
403.2494207364
 20
122.3200010252
 30
0.0
 11
399.7494240742
 21
122.5200014305
 31
0.0
  0
LINE
  5
316
330
1F
100
AcDbEntity
  8
0
  6
Continuous
 62
     7
370
    25
100
AcDbLine
 10
403.2494207364
 20
50.7199989748
 30
0.0
 11
403.2494207364
 21
122.3200010252
 31
0.0
  0
LINE
  5
317
330
1F
100
AcDbEntity
  8
0
  6
Continuous
 62
     7
370
    25
100
AcDbLine
 10
369.0496405106
 20
108.6200000834
 30
0.0
 11
370.1476772767
 21
108.6200000834
 31
0.0
  0
LINE
  5
318
330
1F
100
AcDbEntity
  8
0
  6
Continuous
 62
     7
370
    25
100
AcDbLine
 10
370.1476772767
 20
98.4200002742
 30
0.0
 11
369.0496405106
 21
98.4200002742
 31
0.0
  0
ARC
  5
319
330
1F
100
AcDbEntity
  8
0
  6
Continuous
 62
     7
370
    25
100
AcDbCircle
 10
378.7494221669
 20
103.52
 30
0.0
 40
9.999999999999984
100
AcDbArc
 50
210.6638297424
 51
149.3361702576
  0
LINE
  5
31A
330
1F
100
AcDbEntity
  8
0
  6
Continuous
 62
     7
370
    25
100
AcDbLine
 10
369.0496405106
 20
117.0205222559
 30
0.0
 11
369.0496405106
 21
108.6200000834
 31
0.0
  0
LINE
  5
31B
330
1F
100
AcDbEntity
  8
0
  6
Continuous
 62
     7
370
    25
100
AcDbLine
 10
369.0496405106
 20
98.4200002742
 30
0.0
 11
369.0496405106
 21
90.0194773567
 31
0.0
  0
LINE
  5
31C
330
1F
100
AcDbEntity
  8
0
  6
Continuous
 62
     7
370
    25
100
AcDbLine
 10
369.249423359
 20
74.6199997258
 30
0.0
 11
369.249423359
 21
64.4199999166
 31
0.0
  0
LINE
  5
31D
330
1F
100
AcDbEntity
  8
0
  6
Continuous
 62
     7
370
    25
100
AcDbLine
 10
369.249423359
 20
108.6200000834
 30
0.0
 11
369.249423359
 21
98.4200002742
 31
0.0
  0
LINE
  5
31E
330
1F
100
AcDbEntity
  8
0
  6
Continuous
 62
     7
370
    25
100
AcDbLine
 10
330.7494228225
 20
126.520000596
 30
0.0
 11
330.7494228225
 21
119.5200013113
 31
0.0
  0
LINE
  5
31F
330
1F
100
AcDbEntity
  8
0
  6
Continuous
 62
     7
370
    25
100
AcDbLine
 10
364.74942169
 20
126.520000596
 30
0.0
 11
330.7494228225
 21
126.520000596
 31
0.0
  0
LINE
  5
320
330
1F
100
AcDbEntity
  8
0
  6
Continuous
 62
     7
370
    25
100
AcDbLine
 10
364.74942169
 20
126.520000596
 30
0.0
 11
364.74942169
 21
46.519999404
 31
0.0
  0
LINE
  5
321
330
1F
100
AcDbEntity
  8
0
  6
Continuous
 62
     7
370
    25
100
AcDbLine
 10
364.74942169
 20
46.519999404
 30
0.0
 11
330.7494228225
 21
46.519999404
 31
0.0
  0
LINE
  5
322
330
1F
100
AcDbEntity
  8
0
  6
Continuous
 62
     7
370
    25
100
AcDbLine
 10
330.7494228225
 20
53.5199986887
 30
0.0
 11
330.7494228225
 21
46.519999404
 31
0.0
  0
LINE
  5
323
330
1F
100
AcDbEntity
  8
0
  6
Continuous
 62
     7
370
    25
100
AcDbLine
 10
343.7494208556
 20
53.5199986887
 30
0.0
 11
330.7494228225
 21
53.5199986887
 31
0.0
  0
ARC
  5
324
330
1F
100
AcDbEntity
  8
0
  6
Continuous
 62
     7
370
    25
100
AcDbCircle
 10
343.7494221669
 20
69.52
 30
0.0
 40
16.00000000000001
100
AcDbArc
 50
270.0
 51
90.0
  0
LINE
  5
325
330
1F
100
AcDbEntity
  8
0
  6
Continuous
 62
     7
370
    25
100
AcDbLine
 10
330.7494228225
 20
85.5200000224
 30
0.0
 11
343.7494208556
 21
85.5200000224
 31
0.0
  0
LINE
  5
326
330
1F
100
AcDbEntity
  8
0
  6
Continuous
 62
     7
370
    25
100
AcDbLine
 10
330.7494228225
 20
87.5199999776
 30
0.0
 11
330.7494228225
 21
85.5200000224
 31
0.0
  0
LINE
  5
327
330
1F
100
AcDbEntity
  8
0
  6
Continuous
 62
     7
370
    25
100
AcDbLine
 10
343.7494208556
 20
87.5199999776
 30
0.0
 11
330.7494228225
 21
87.5199999776
 31
0.0
  0
ARC
  5
328
330
1F
100
AcDbEntity
  8
0
  6
Continuous
 62
     7
370
    25
100
AcDbCircle
 10
343.7494221669
 20
103.52
 30
0.0
 40
16.0
100
AcDbArc
 50
270.0
 51
90.0
  0
LINE
  5
329
330
1F
100
AcDbEntity
  8
0
  6
Continuous
 62
     7
370
    25
100
AcDbLine
 10
330.7494228225
 20
119.5200013113
 30
0.0
 11
343.7494208556
 21
119.5200013113
 31
0.0
  0
LINE
  5
32A
330
1F
100
AcDbEntity
  8
0
  6
Continuous
 62
     7
370
    25
100
AcDbLine
 10
334.0496411067
 20
56.0194777441
 30
0.0
 11
330.7494228225
 21
55.8945046854
 31
0.0
  0
LINE
  5
32B
330
1F
100
AcDbEntity
  8
0
  6
Continuous
 62
     7
370
    25
100
AcDbLine
 10
343.7494208556
 20
56.0194777441
 30
0.0
 11
334.0496411067
 21
56.0194777441
 31
0.0
  0
LINE
  5
32C
330
1F
100
AcDbEntity
  8
0
  6
Continuous
 62
     7
370
    25
100
AcDbLine
 10
330.7494228225
 20
53.5199986887
 30
0.0
 11
330.7494228225
 21
55.8945046854
 31
0.0
  0
ARC
  5
32D
330
1F
100
AcDbEntity
  8
0
  6
Continuous
 62
     7
370
    25
100
AcDbCircle
 10
343.7494221669
 20
69.52
 30
0.0
 40
13.50052259236269
100
AcDbArc
 50
270.0
 51
90.0
  0
LINE
  5
32E
330
1F
100
AcDbEntity
  8
0
  6
Continuous
 62
     7
370
    25
100
AcDbLine
 10
334.0496411067
 20
83.0205226433
 30
0.0
 11
343.7494208556
 21
83.0205226433
 31
0.0
  0
LINE
  5
32F
330
1F
100
AcDbEntity
  8
0
  6
Continuous
 62
     7
370
    25
100
AcDbLine
 10
330.7494228225
 20
83.1454964471
 30
0.0
 11
334.0496411067
 21
83.0205226433
 31
0.0
  0
LINE
  5
330
330
1F
100
AcDbEntity
  8
0
  6
Continuous
 62
     7
370
    25
100
AcDbLine
 10
330.7494228225
 20
83.1454964471
 30
0.0
 11
330.7494228225
 21
85.5200000224
 31
0.0
  0
LINE
  5
331
330
1F
100
AcDbEntity
  8
0
  6
Continuous
 62
     7
370
    25
100
AcDbLine
 10
334.0496411067
 20
90.0194773567
 30
0.0
 11
330.7494228225
 21
89.8945035529
 31
0.0
  0
LINE
  5
332
330
1F
100
AcDbEntity
  8
0
  6
Continuous
 62
     7
370
    25
100
AcDbLine
 10
343.7494208556
 20
90.0194773567
 30
0.0
 11
334.0496411067
 21
90.0194773567
 31
0.0
  0
LINE
  5
333
330
1F
100
AcDbEntity
  8
0
  6
Continuous
 62
     7
370
    25
100
AcDbLine
 10
330.7494228225
 20
87.5199999776
 30
0.0
 11
330.7494228225
 21
89.8945035529
 31
0.0
  0
ARC
  5
334
330
1F
100
AcDbEntity
  8
0
  6
Continuous
 62
     7
370
    25
100
AcDbCircle
 10
343.7494221669
 20
103.52
 30
0.0
 40
13.50052259236269
100
AcDbArc
 50
270.0
 51
90.0
  0
LINE
  5
335
330
1F
100
AcDbEntity
  8
0
  6
Continuous
 62
     7
370
    25
100
AcDbLine
 10
330.7494228225
 20
117.1454953146
 30
0.0
 11
330.7494228225
 21
119.5200013113
 31
0.0
  0
LINE
  5
336
330
1F
100
AcDbEntity
  8
0
  6
Continuous
 62
     7
370
    25
100
AcDbLine
 10
334.0496411067
 20
117.0205222559
 30
0.0
 11
343.7494208556
 21
117.0205222559
 31
0.0
  0
LINE
  5
337
330
1F
100
AcDbEntity
  8
0
  6
Continuous
 62
     7
370
    25
100
AcDbLine
 10
330.7494228225
 20
117.1454953146
 30
0.0
 11
334.0496411067
 21
117.0205222559
 31
0.0
  0
LINE
  5
338
330
1F
100
AcDbEntity
  8
0
  6
Continuous
 62
     7
370
    25
100
AcDbLine
 10
334.0496411067
 20
74.6199997258
 30
0.0
 11
335.1476778727
 21
74.6199997258
 31
0.0
  0
LINE
  5
339
330
1F
100
AcDbEntity
  8
0
  6
Continuous
 62
     7
370
    25
100
AcDbLine
 10
335.1476778727
 20
64.4199999166
 30
0.0
 11
334.0496411067
 21
64.4199999166
 31
0.0
  0
ARC
  5
33A
330
1F
100
AcDbEntity
  8
0
  6
Continuous
 62
     7
370
    25
100
AcDbCircle
 10
343.7494221669
 20
69.52
 30
0.0
 40
9.999999999999975
100
AcDbArc
 50
210.6638297424
 51
149.3361702576
  0
LINE
  5
33B
330
1F
100
AcDbEntity
  8
0
  6
Continuous
 62
     7
370
    25
100
AcDbLine
 10
334.0496411067
 20
83.0205226433
 30
0.0
 11
334.0496411067
 21
74.6199997258
 31
0.0
  0
LINE
  5
33C
330
1F
100
AcDbEntity
  8
0
  6
Continuous
 62
     7
370
    25
100
AcDbLine
 10
334.0496411067
 20
64.4199999166
 30
0.0
 11
334.0496411067
 21
56.0194777441
 31
0.0
  0
LINE
  5
33D
330
1F
100
AcDbEntity
  8
0
  6
Continuous
 62
     7
370
    25
100
AcDbLine
 10
365.7494207364
 20
122.4628584576
 30
0.0
 11
364.74942169
 21
122.5200014305
 31
0.0
  0
LINE
  5
33E
330
1F
100
AcDbEntity
  8
0
  6
Continuous
 62
     7
370
    25
100
AcDbLine
 10
368.2494243126
 20
55.9891747427
 30
0.0
 11
368.2494243126
 21
83.0508256447
 31
0.0
  0
LINE
  5
33F
330
1F
100
AcDbEntity
  8
0
  6
Continuous
 62
     7
370
    25
100
AcDbLine
 10
368.2494243126
 20
89.9891743553
 30
0.0
 11
368.2494243126
 21
117.0508252573
 31
0.0
  0
LINE
  5
340
330
1F
100
AcDbEntity
  8
0
  6
Continuous
 62
     7
370
    25
100
AcDbLine
 10
364.74942169
 20
50.5199985695
 30
0.0
 11
365.7494207364
 21
50.5771415424
 31
0.0
  0
LINE
  5
341
330
1F
100
AcDbEntity
  8
0
  6
Continuous
 62
     7
370
    25
100
AcDbLine
 10
334.0496411067
 20
108.6200000834
 30
0.0
 11
335.1476778727
 21
108.6200000834
 31
0.0
  0
LINE
  5
342
330
1F
100
AcDbEntity
  8
0
  6
Continuous
 62
     7
370
    25
100
AcDbLine
 10
335.1476778727
 20
98.4200002742
 30
0.0
 11
334.0496411067
 21
98.4200002742
 31
0.0
  0
ARC
  5
343
330
1F
100
AcDbEntity
  8
0
  6
Continuous
 62
     7
370
    25
100
AcDbCircle
 10
343.7494221669
 20
103.52
 30
0.0
 40
9.999999999999984
100
AcDbArc
 50
210.6638297424
 51
149.3361702576
  0
LINE
  5
344
330
1F
100
AcDbEntity
  8
0
  6
Continuous
 62
     7
370
    25
100
AcDbLine
 10
334.0496411067
 20
117.0205222559
 30
0.0
 11
334.0496411067
 21
108.6200000834
 31
0.0
  0
LINE
  5
345
330
1F
100
AcDbEntity
  8
0
  6
Continuous
 62
     7
370
    25
100
AcDbLine
 10
334.0496411067
 20
98.4200002742
 30
0.0
 11
334.0496411067
 21
90.0194773567
 31
0.0
  0
LINE
  5
346
330
1F
100
AcDbEntity
  8
0
  6
Continuous
 62
     7
370
    25
100
AcDbLine
 10
334.2494224649
 20
74.6199997258
 30
0.0
 11
334.2494224649
 21
64.4199999166
 31
0.0
  0
LINE
  5
347
330
1F
100
AcDbEntity
  8
0
  6
Continuous
 62
     7
370
    25
100
AcDbLine
 10
334.2494224649
 20
108.6200000834
 30
0.0
 11
334.2494224649
 21
98.4200002742
 31
0.0
  0
LINE
  5
348
330
1F
100
AcDbEntity
  8
0
  6
Continuous
 62
     7
370
    25
100
AcDbLine
 10
319.7494221371
 20
126.520000596
 30
0.0
 11
329.7494222861
 21
126.520000596
 31
0.0
  0
LINE
  5
349
330
1F
100
AcDbEntity
  8
0
  6
Continuous
 62
     7
370
    25
100
AcDbLine
 10
329.7494222861
 20
46.519999404
 30
0.0
 11
329.7494222861
 21
126.520000596
 31
0.0
  0
LINE
  5
34A
330
1F
100
AcDbEntity
  8
0
  6
Continuous
 62
     7
370
    25
100
AcDbLine
 10
319.7494221371
 20
46.519999404
 30
0.0
 11
329.7494222861
 21
46.519999404
 31
0.0
  0
LINE
  5
34B
330
1F
100
AcDbEntity
  8
0
  6
Continuous
 62
     7
370
    25
100
AcDbLine
 10
319.7494221371
 20
126.520000596
 30
0.0
 11
319.7494221371
 21
46.519999404
 31
0.0
  0
LINE
  5
34C
330
1F
100
AcDbEntity
  8
0
  6
Continuous
 62
     7
370
    25
100
AcDbLine
 10
329.7494222861
 20
50.6752567482
 30
0.0
 11
330.7494228225
 21
50.7451819372
 31
0.0
  0
LINE
  5
34D
330
1F
100
AcDbEntity
  8
0
  6
Continuous
 62
     7
370
    25
100
AcDbLine
 10
329.7494222861
 20
122.3647432518
 30
0.0
 11
330.7494228225
 21
122.2948180628
 31
0.0
  0
LINE
  5
34E
330
1F
100
AcDbEntity
  8
0
  6
Continuous
 62
     7
370
    25
100
AcDbLine
 10
333.2494219285
 20
117.0508252573
 30
0.0
 11
333.2494219285
 21
89.9891743553
 31
0.0
  0
LINE
  5
34F
330
1F
100
AcDbEntity
  8
0
  6
Continuous
 62
     7
370
    25
100
AcDbLine
 10
333.2494219285
 20
83.0508256447
 30
0.0
 11
333.2494219285
 21
55.9891747427
 31
0.0
  0
LINE
  5
350
330
1F
100
AcDbEntity
  8
0
  6
Continuous
 62
     7
370
    25
100
AcDbLine
 10
318.7494223457
 20
46.519999404
 30
0.0
 11
318.7494223457
 21
63.5199995828
 31
0.0
  0
LINE
  5
351
330
1F
100
AcDbEntity
  8
0
  6
Continuous
 62
     7
370
    25
100
AcDbLine
 10
314.2494221669
 20
46.519999404
 30
0.0
 11
318.7494223457
 21
46.519999404
 31
0.0
  0
LINE
  5
352
330
1F
100
AcDbEntity
  8
0
  6
Continuous
 62
     7
370
    25
100
AcDbLine
 10
314.2494221669
 20
46.519999404
 30
0.0
 11
314.2494221669
 21
63.5199995828
 31
0.0
  0
LINE
  5
353
330
1F
100
AcDbEntity
  8
0
  6
Continuous
 62
     7
370
    25
100
AcDbLine
 10
314.2494221669
 20
63.5199995828
 30
0.0
 11
318.7494223457
 21
63.5199995828
 31
0.0
  0
LINE
  5
354
330
1F
100
AcDbEntity
  8
0
  6
Continuous
 62
     7
370
    25
100
AcDbLine
 10
314.2494221669
 20
126.520000596
 30
0.0
 11
318.7494223457
 21
126.520000596
 31
0.0
  0
LINE
  5
355
330
1F
100
AcDbEntity
  8
0
  6
Continuous
 62
     7
370
    25
100
AcDbLine
 10
318.7494223457
 20
109.5200004172
 30
0.0
 11
318.7494223457
 21
126.520000596
 31
0.0
  0
LINE
  5
356
330
1F
100
AcDbEntity
  8
0
  6
Continuous
 62
     7
370
    25
100
AcDbLine
 10
314.2494221669
 20
109.5200004172
 30
0.0
 11
318.7494223457
 21
109.5200004172
 31
0.0
  0
LINE
  5
357
330
1F
100
AcDbEntity
  8
0
  6
Continuous
 62
     7
370
    25
100
AcDbLine
 10
314.2494221669
 20
109.5200004172
 30
0.0
 11
314.2494221669
 21
126.520000596
 31
0.0
  0
LINE
  5
358
330
1F
100
AcDbEntity
  8
0
  6
Continuous
 62
     7
370
    25
100
AcDbLine
 10
318.7494223457
 20
122.3200010252
 30
0.0
 11
319.7494221371
 21
122.3200010252
 31
0.0
  0
LINE
  5
359
330
1F
100
AcDbEntity
  8
0
  6
Continuous
 62
     7
370
    25
100
AcDbLine
 10
318.7494223457
 20
50.7199989748
 30
0.0
 11
319.7494221371
 21
50.7199989748
 31
0.0
  0
LINE
  5
35A
330
1F
100
AcDbEntity
  8
0
  6
Continuous
 62
     7
370
    25
100
AcDbLine
 10
314.2494221669
 20
63.5199995828
 30
0.0
 11
314.2494221669
 21
109.5200004172
 31
0.0
  0
LINE
  5
35B
330
1F
100
AcDbEntity
  8
0
  6
PHANTOM
 62
     8
370
    18
100
AcDbLine
 10
403.2494207364
 20
52.920000453
 30
0.0
 11
403.5494228344
 21
52.920000453
 31
0.0
  0
LINE
  5
35C
330
1F
100
AcDbEntity
  8
0
  6
PHANTOM
 62
     8
370
    18
100
AcDbLine
 10
403.2494207364
 20
120.119999547
 30
0.0
 11
403.5494228344
 21
120.119999547
 31
0.0
  0
LINE
  5
35D
330
1F
100
AcDbEntity
  8
0
  6
PHANTOM
 62
     8
370
    18
100
AcDbLine
 10
378.7494202595
 20
56.0194777441
 30
0.0
 11
378.7494202595
 21
53.5199986887
 31
0.0
  0
LINE
  5
35E
330
1F
100
AcDbEntity
  8
0
  6
PHANTOM
 62
     8
370
    18
100
AcDbLine
 10
378.7494202595
 20
83.0205226433
 30
0.0
 11
378.7494202595
 21
85.5200000224
 31
0.0
  0
LINE
  5
35F
330
1F
100
AcDbEntity
  8
0
  6
PHANTOM
 62
     8
370
    18
100
AcDbLine
 10
378.7494202595
 20
90.0194773567
 30
0.0
 11
378.7494202595
 21
87.5199999776
 31
0.0
  0
LINE
  5
360
330
1F
100
AcDbEntity
  8
0
  6
PHANTOM
 62
     8
370
    18
100
AcDbLine
 10
378.7494202595
 20
117.0205222559
 30
0.0
 11
378.7494202595
 21
119.5200013113
 31
0.0
  0
LINE
  5
361
330
1F
100
AcDbEntity
  8
0
  6
PHANTOM
 62
     8
370
    18
100
AcDbLine
 10
343.7494208556
 20
56.0194777441
 30
0.0
 11
343.7494208556
 21
53.5199986887
 31
0.0
  0
LINE
  5
362
330
1F
100
AcDbEntity
  8
0
  6
PHANTOM
 62
     8
370
    18
100
AcDbLine
 10
343.7494208556
 20
83.0205226433
 30
0.0
 11
343.7494208556
 21
85.5200000224
 31
0.0
  0
LINE
  5
363
330
1F
100
AcDbEntity
  8
0
  6
PHANTOM
 62
     8
370
    18
100
AcDbLine
 10
343.7494208556
 20
90.0194773567
 30
0.0
 11
343.7494208556
 21
87.5199999776
 31
0.0
  0
LINE
  5
364
330
1F
100
AcDbEntity
  8
0
  6
PHANTOM
 62
     8
370
    18
100
AcDbLine
 10
343.7494208556
 20
117.0205222559
 30
0.0
 11
343.7494208556
 21
119.5200013113
 31
0.0
  0
LINE
  5
365
330
1F
100
AcDbEntity
  8
0
  6
Continuous
 62
     7
370
    25
100
AcDbLine
 10
319.5297231118
 20
320.6681292936
 30
0.0
 11
319.5297231118
 21
320.9130932503
 31
0.0
  0
LINE
  5
366
330
1F
100
AcDbEntity
  8
0
  6
Continuous
 62
     7
370
    25
100
AcDbLine
 10
220.4945757674
 20
320.9130932503
 30
0.0
 11
220.4945757674
 21
320.6681292936
 31
0.0
  0
LINE
  5
367
330
1F
100
AcDbEntity
  8
0
  6
Continuous
 62
     7
370
    25
100
AcDbLine
 10
256.1199928857
 20
288.8022673754
 30
0.0
 11
256.1907047608
 21
288.843088472
 31
0.0
  0
LINE
  5
368
330
1F
100
AcDbEntity
  8
0
  6
Continuous
 62
     7
370
    25
100
AcDbLine
 10
255.690745146
 20
289.7091351795
 30
0.0
 11
255.6200332709
 21
289.6683140829
 31
0.0
  0
LINE
  5
369
330
1F
100
AcDbEntity
  8
0
  6
Continuous
 62
     7
370
    25
100
AcDbLine
 10
256.2938170257
 20
289.09309924
 30
0.0
 11
256.3261605172
 21
289.1627682481
 31
0.0
  0
LINE
  5
36A
330
1F
100
AcDbEntity
  8
0
  6
Continuous
 62
     7
370
    25
100
AcDbLine
 10
256.0353219744
 20
289.6665689162
 30
0.0
 11
255.9588149076
 21
289.6734007645
 31
0.0
  0
SPLINE
  5
36B
330
1F
100
AcDbEntity
  8
0
  6
Continuous
 62
     7
370
    25
100
AcDbSpline
210
0.0
220
0.0
230
1.0
 70
     8
 71
     3
 72
     9
 73
     5
 74
     0
 42
0.000000001
 43
0.00000001
 40
0.0
 40
0.0
 40
0.0
 40
0.0
 40
0.3995292317774029
 40
1.0
 40
1.0
 40
1.0
 40
1.0
 10
256.0422266818222
 20
289.6710244116559
 30
0.0
 10
256.0402941992594
 20
289.6697851638364
 30
0.0
 10
256.0354573002065
 20
289.6666833937506
 30
0.0
 10
256.0351363984961
 20
289.6669149864857
 30
0.0
 10
256.0349437063995
 20
289.6670540511533
 30
0.0
  0
LINE
  5
36C
330
1F
100
AcDbEntity
  8
0
  6
Continuous
 62
     7
370
    25
100
AcDbLine
 10
256.3333486622
 20
289.167352092
 30
0.0
 11
256.7405103996
 21
289.4024015598
 31
0.0
  0
LINE
  5
36D
330
1F
100
AcDbEntity
  8
0
  6
Continuous
 62
     7
370
    25
100
AcDbLine
 10
256.4493747215
 20
289.9051644464
 30
0.0
 11
256.0428852263
 21
289.6705030558
 31
0.0
  0
LINE
  5
36E
330
1F
100
AcDbEntity
  8
0
  6
Continuous
 62
     7
370
    25
100
AcDbLine
 10
256.1199928857
 20
260.2233370126
 30
0.0
 11
256.1907047608
 21
260.2641581092
 31
0.0
  0
LINE
  5
36F
330
1F
100
AcDbEntity
  8
0
  6
Continuous
 62
     7
370
    25
100
AcDbLine
 10
255.690745146
 20
261.1302072502
 30
0.0
 11
255.6200332709
 21
261.0893861536
 31
0.0
  0
LINE
  5
370
330
1F
100
AcDbEntity
  8
0
  6
Continuous
 62
     7
370
    25
100
AcDbLine
 10
256.2938170257
 20
260.5141713107
 30
0.0
 11
256.3261605172
 21
260.5838403188
 31
0.0
  0
LINE
  5
371
330
1F
100
AcDbEntity
  8
0
  6
Continuous
 62
     7
370
    25
100
AcDbLine
 10
256.0353219744
 20
261.0876434203
 30
0.0
 11
255.9588149076
 21
261.0944728352
 31
0.0
  0
SPLINE
  5
372
330
1F
100
AcDbEntity
  8
0
  6
Continuous
 62
     7
370
    25
100
AcDbSpline
210
0.0
220
0.0
230
1.0
 70
     8
 71
     3
 72
     9
 73
     5
 74
     0
 42
0.000000001
 43
0.00000001
 40
0.0
 40
0.0
 40
0.0
 40
0.0
 40
0.399550382511509
 40
1.0
 40
1.0
 40
1.0
 40
1.0
 10
256.0422266818222
 20
261.0920964823509
 30
0.0
 10
256.0402941951579
 20
261.0908584170793
 30
0.0
 10
256.0354575418874
 20
261.0877597708867
 30
0.0
 10
256.035136484928
 20
261.0879871554145
 30
0.0
 10
256.0349437063995
 20
261.088123688367
 30
0.0
  0
LINE
  5
373
330
1F
100
AcDbEntity
  8
0
  6
Continuous
 62
     7
370
    25
100
AcDbLine
 10
256.3333486622
 20
260.5884217292
 30
0.0
 11
256.7405103996
 21
260.823471197
 31
0.0
  0
LINE
  5
374
330
1F
100
AcDbEntity
  8
0
  6
Continuous
 62
     7
370
    25
100
AcDbLine
 10
256.4493747215
 20
261.3262365171
 30
0.0
 11
256.0428852263
 21
261.0915751265
 31
0.0
  0
LINE
  5
375
330
1F
100
AcDbEntity
  8
0
  6
Continuous
 62
     7
370
    25
100
AcDbLine
 10
227.8357222704
 20
276.5514988841
 30
0.0
 11
227.9064341455
 21
276.5923199807
 31
0.0
  0
LINE
  5
376
330
1F
100
AcDbEntity
  8
0
  6
Continuous
 62
     7
370
    25
100
AcDbLine
 10
227.4064745307
 20
277.4583691217
 30
0.0
 11
227.3357626557
 21
277.4175480251
 31
0.0
  0
LINE
  5
377
330
1F
100
AcDbEntity
  8
0
  6
Continuous
 62
     7
370
    25
100
AcDbLine
 10
228.0095464104
 20
276.8423331822
 30
0.0
 11
228.0418899019
 21
276.9120021903
 31
0.0
  0
LINE
  5
378
330
1F
100
AcDbEntity
  8
0
  6
Continuous
 62
     7
370
    25
100
AcDbLine
 10
227.7510503054
 20
277.4158059001
 30
0.0
 11
227.6745442923
 21
277.4226347067
 31
0.0
  0
SPLINE
  5
379
330
1F
100
AcDbEntity
  8
0
  6
Continuous
 62
     7
370
    25
100
AcDbSpline
210
0.0
220
0.0
230
1.0
 70
     8
 71
     3
 72
     9
 73
     5
 74
     0
 42
0.000000001
 43
0.00000001
 40
0.0
 40
0.0
 40
0.0
 40
0.0
 40
0.399550382511509
 40
1.0
 40
1.0
 40
1.0
 40
1.0
 10
227.757955012892
 20
277.4202589621137
 30
0.0
 10
227.7560225262276
 20
277.4190208968423
 30
0.0
 10
227.7511858729571
 20
277.4159222506496
 30
0.0
 10
227.7508648159977
 20
277.4161496351772
 30
0.0
 10
227.7506720374693
 20
277.4162861681299
 30
0.0
  0
LINE
  5
37A
330
1F
100
AcDbEntity
  8
0
  6
Continuous
 62
     7
370
    25
100
AcDbLine
 10
228.0490769933
 20
276.916584209
 30
0.0
 11
228.4562387307
 21
277.1516336768
 31
0.0
  0
LINE
  5
37B
330
1F
100
AcDbEntity
  8
0
  6
Continuous
 62
     7
370
    25
100
AcDbLine
 10
228.1651030525
 20
277.6543989969
 30
0.0
 11
227.7586135574
 21
277.4197376063
 31
0.0
  0
LINE
  5
37C
330
1F
100
AcDbEntity
  8
0
  6
Continuous
 62
     7
370
    25
100
AcDbLine
 10
227.8357222704
 20
305.1304292469
 30
0.0
 11
227.9064341455
 21
305.1712503435
 31
0.0
  0
LINE
  5
37D
330
1F
100
AcDbEntity
  8
0
  6
Continuous
 62
     7
370
    25
100
AcDbLine
 10
227.4064745307
 20
306.037297051
 30
0.0
 11
227.3357626557
 21
305.9964759544
 31
0.0
  0
LINE
  5
37E
330
1F
100
AcDbEntity
  8
0
  6
Continuous
 62
     7
370
    25
100
AcDbLine
 10
228.0095464104
 20
305.4212611115
 30
0.0
 11
228.0418899019
 21
305.4909301196
 31
0.0
  0
LINE
  5
37F
330
1F
100
AcDbEntity
  8
0
  6
Continuous
 62
     7
370
    25
100
AcDbLine
 10
227.7510503054
 20
305.9947313959
 30
0.0
 11
227.6745442923
 21
306.001562636
 31
0.0
  0
SPLINE
  5
380
330
1F
100
AcDbEntity
  8
0
  6
Continuous
 62
     7
370
    25
100
AcDbSpline
210
0.0
220
0.0
230
1.0
 70
     8
 71
     3
 72
     9
 73
     5
 74
     0
 42
0.000000001
 43
0.00000001
 40
0.0
 40
0.0
 40
0.0
 40
0.0
 40
0.3995292317774029
 40
1.0
 40
1.0
 40
1.0
 40
1.0
 10
227.757955012892
 20
305.9991868914187
 30
0.0
 10
227.7560225303292
 20
305.9979476435992
 30
0.0
 10
227.7511856312763
 20
305.9948458735134
 30
0.0
 10
227.7508647295658
 20
305.9950774662485
 30
0.0
 10
227.7506720374693
 20
305.9952165309161
 30
0.0
  0
LINE
  5
381
330
1F
100
AcDbEntity
  8
0
  6
Continuous
 62
     7
370
    25
100
AcDbLine
 10
228.0490769933
 20
305.4955145718
 30
0.0
 11
228.4562387307
 21
305.7305640396
 31
0.0
  0
LINE
  5
382
330
1F
100
AcDbEntity
  8
0
  6
Continuous
 62
     7
370
    25
100
AcDbLine
 10
228.1651030525
 20
306.2333269262
 30
0.0
 11
227.7586135574
 21
305.9986655356
 31
0.0
  0
LINE
  5
383
330
1F
100
AcDbEntity
  8
0
  6
Continuous
 62
     7
370
    25
100
AcDbLine
 10
255.0568410686
 20
329.9548130502
 30
0.0
 11
255.3577147761
 21
329.7811223559
 31
0.0
  0
LWPOLYLINE
  5
384
330
1F
100
AcDbEntity
  8
0
  6
Continuous
 62
     7
370
    25
100
AcDbPolyline
 90
       12
 70
   128
 43
0.0
 10
254.3497343032
 20
329.5466090034
 10
254.2644479491
 20
329.6123789045
 10
254.2147142069
 20
329.6893553895
 10
254.2045610805
 20
329.7713029635
 10
254.2348126725
 20
329.8515818113
 10
254.3030170241
 20
329.9236888649
 10
254.4036488153
 20
329.9817823613
 10
254.5285554295
 20
330.0211558954
 10
254.6676175403
 20
330.0386197678
 10
254.8095702828
 20
330.0327584926
 10
254.9429119138
 20
330.0040478144
 10
255.0568410686
 20
329.9548130502
  0
LINE
  5
385
330
1F
100
AcDbEntity
  8
0
  6
Continuous
 62
     7
370
    25
100
AcDbLine
 10
254.6506080107
 20
329.3729183092
 30
0.0
 11
254.3497343032
 21
329.5466090034
 31
0.0
  0
LWPOLYLINE
  5
386
330
1F
100
AcDbEntity
  8
0
  6
Continuous
 62
     7
370
    25
100
AcDbPolyline
 90
        9
 70
   128
 43
0.0
 10
255.5337846845
 20
328.8630712678
 10
255.3550260706
 20
328.8632457656
 10
255.1807968269
 20
328.8863305983
 10
255.0197966888
 20
328.9311728444
 10
254.8800642785
 20
328.9955335516
 10
254.7685761836
 20
329.0761993551
 10
254.6908987186
 20
329.1691427565
 10
254.6509102826
 20
329.2697231579
 10
254.6506080107
 20
329.3729183092
  0
LINE
  5
387
330
1F
100
AcDbEntity
  8
0
  6
Continuous
 62
     7
370
    25
100
AcDbLine
 10
255.834658392
 20
328.6893805735
 30
0.0
 11
255.5337846845
 21
328.8630712678
 31
0.0
  0
LWPOLYLINE
  5
388
330
1F
100
AcDbEntity
  8
0
  6
Continuous
 62
     7
370
    25
100
AcDbPolyline
 90
       12
 70
   128
 43
0.0
 10
256.5417651574
 20
329.0975846203
 10
256.6270515115
 20
329.0318147192
 10
256.6767852537
 20
328.9548382342
 10
256.6869383801
 20
328.8728906602
 10
256.6566867881
 20
328.7926118124
 10
256.5884824365
 20
328.7205047588
 10
256.4878506453
 20
328.6624112624
 10
256.3629440311
 20
328.6230377283
 10
256.2238819203
 20
328.6055738559
 10
256.0819291778
 20
328.6114351311
 10
255.9485875468
 20
328.6401458093
 10
255.834658392
 20
328.6893805735
  0
LINE
  5
389
330
1F
100
AcDbEntity
  8
0
  6
Continuous
 62
     7
370
    25
100
AcDbLine
 10
256.2408914499
 20
329.2712753145
 30
0.0
 11
256.5417651574
 21
329.0975846203
 31
0.0
  0
LWPOLYLINE
  5
38A
330
1F
100
AcDbEntity
  8
0
  6
Continuous
 62
     7
370
    25
100
AcDbPolyline
 90
        9
 70
   128
 43
0.0
 10
255.3577147761
 20
329.7811223559
 10
255.53647339
 20
329.7809478581
 10
255.7107026337
 20
329.7578630254
 10
255.8717027718
 20
329.7130207793
 10
256.0114351821
 20
329.6486600721
 10
256.122923277
 20
329.5679942686
 10
256.200600742
 20
329.4750508672
 10
256.240589178
 20
329.3744704658
 10
256.2408914499
 20
329.2712753145
  0
LWPOLYLINE
  5
38B
330
1F
100
AcDbEntity
  8
0
  6
Continuous
 62
     7
370
    25
100
AcDbPolyline
 90
       12
 70
   128
 43
0.0
 10
284.1896404872
 20
313.1368059271
 10
284.0757113324
 20
313.1860406914
 10
283.9423697014
 20
313.2147513696
 10
283.8004169589
 20
313.2206126447
 10
283.6613548481
 20
313.2031487724
 10
283.5364482339
 20
313.1637752383
 10
283.4358164427
 20
313.1056817418
 10
283.3676120911
 20
313.0335746883
 10
283.3373604991
 20
312.9532958405
 10
283.3475136255
 20
312.8713482665
 10
283.3972473677
 20
312.7943717815
 10
283.4825337218
 20
312.7286018804
  0
LINE
  5
38C
330
1F
100
AcDbEntity
  8
0
  6
Continuous
 62
     7
370
    25
100
AcDbLine
 10
283.4825337218
 20
312.7286018804
 30
0.0
 11
283.7834074293
 21
312.5549111861
 31
0.0
  0
LWPOLYLINE
  5
38D
330
1F
100
AcDbEntity
  8
0
  6
Continuous
 62
     7
370
    25
100
AcDbPolyline
 90
        9
 70
   128
 43
0.0
 10
283.7834074293
 20
312.5549111861
 10
283.7837097012
 20
312.4517160349
 10
283.8236981372
 20
312.3511356334
 10
283.9013756022
 20
312.2581922321
 10
284.0128636971
 20
312.1775264286
 10
284.1525961074
 20
312.1131657214
 10
284.3135962455
 20
312.0683234753
 10
284.4878254892
 20
312.0452386426
 10
284.6665841031
 20
312.0450641447
  0
LINE
  5
38E
330
1F
100
AcDbEntity
  8
0
  6
Continuous
 62
     7
370
    25
100
AcDbLine
 10
284.6665841031
 20
312.0450641447
 30
0.0
 11
284.9674578106
 21
311.8713734505
 31
0.0
  0
LWPOLYLINE
  5
38F
330
1F
100
AcDbEntity
  8
0
  6
Continuous
 62
     7
370
    25
100
AcDbPolyline
 90
       12
 70
   128
 43
0.0
 10
284.9674578106
 20
311.8713734505
 10
285.0813869654
 20
311.8221386863
 10
285.2147285964
 20
311.793428008
 10
285.3566813389
 20
311.7875667329
 10
285.4957434497
 20
311.8050306053
 10
285.6206500639
 20
311.8444041394
 10
285.7212818551
 20
311.9024976358
 10
285.7894862067
 20
311.9746046894
 10
285.8197377987
 20
312.0548835372
 10
285.8095846723
 20
312.1368311111
 10
285.7598509301
 20
312.2138075962
 10
285.674564576
 20
312.2795774973
  0
LINE
  5
390
330
1F
100
AcDbEntity
  8
0
  6
Continuous
 62
     7
370
    25
100
AcDbLine
 10
285.674564576
 20
312.2795774973
 30
0.0
 11
285.3736908685
 21
312.4532681915
 31
0.0
  0
LWPOLYLINE
  5
391
330
1F
100
AcDbEntity
  8
0
  6
Continuous
 62
     7
370
    25
100
AcDbPolyline
 90
        9
 70
   128
 43
0.0
 10
285.3736908685
 20
312.4532681915
 10
285.3733885966
 20
312.5564633428
 10
285.3334001606
 20
312.6570437442
 10
285.2557226956
 20
312.7499871456
 10
285.1442346007
 20
312.8306529491
 10
285.0045021904
 20
312.8950136563
 10
284.8435020523
 20
312.9398559024
 10
284.6692728086
 20
312.9629407351
 10
284.4905141947
 20
312.9631152329
  0
LINE
  5
392
330
1F
100
AcDbEntity
  8
0
  6
Continuous
 62
     7
370
    25
100
AcDbLine
 10
284.4905141947
 20
312.9631152329
 30
0.0
 11
284.1896404872
 21
313.1368059271
 31
0.0
  0
LINE
  5
393
330
1F
100
AcDbEntity
  8
0
  6
Continuous
 62
     7
370
    25
100
AcDbLine
 10
271.4263637606
 20
349.1608139875
 30
0.0
 11
318.9439388157
 21
321.7295018001
 31
0.0
  0
LWPOLYLINE
  5
394
330
1F
100
AcDbEntity
  8
0
  6
Continuous
 62
     7
370
    25
100
AcDbPolyline
 90
       12
 70
   128
 43
0.0
 10
318.9439388157
 20
321.7295018001
 10
319.1308074053
 20
321.6050044507
 10
319.2850838369
 20
321.4664219676
 10
319.4036239557
 20
321.3165767306
 10
319.4840190693
 20
321.1585161794
 10
319.5246296651
 20
320.9954592865
 10
319.5246296651
 20
320.8307272142
 10
319.4840190693
 20
320.6676703213
 10
319.4036239557
 20
320.5096097701
 10
319.2850838369
 20
320.3597645331
 10
319.1308074053
 20
320.22118205
 10
318.9439388157
 20
320.0966847006
  0
LINE
  5
395
330
1F
100
AcDbEntity
  8
0
  6
Continuous
 62
     7
370
    25
100
AcDbLine
 10
318.9439388157
 20
320.0966847006
 30
0.0
 11
271.4263637606
 21
292.6653725132
 31
0.0
  0
ARC
  5
396
330
1F
100
AcDbEntity
  8
0
  6
Continuous
 62
     7
370
    25
100
AcDbCircle
 10
270.0121494396
 20
295.3810630695
 30
0.0
 40
3.061858478703446
100
AcDbArc
 50
242.4914468753
 51
297.5085531247
  0
LINE
  5
397
330
1F
100
AcDbEntity
  8
0
  6
Continuous
 62
     7
370
    25
100
AcDbLine
 10
268.5979351186
 20
292.6653725132
 30
0.0
 11
221.0803600635
 21
320.0966847006
 31
0.0
  0
LWPOLYLINE
  5
398
330
1F
100
AcDbEntity
  8
0
  6
Continuous
 62
     7
370
    25
100
AcDbPolyline
 90
       12
 70
   128
 43
0.0
 10
221.0803600635
 20
320.0966847006
 10
220.8934914739
 20
320.22118205
 10
220.7392150423
 20
320.3597645331
 10
220.6206749235
 20
320.5096097701
 10
220.5402798099
 20
320.6676703213
 10
220.4996692141
 20
320.8307272142
 10
220.4996692141
 20
320.9954592865
 10
220.5402798099
 20
321.1585161794
 10
220.6206749235
 20
321.3165767306
 10
220.7392150423
 20
321.4664219676
 10
220.8934914739
 20
321.6050044507
 10
221.0803600635
 20
321.7295018001
  0
LINE
  5
399
330
1F
100
AcDbEntity
  8
0
  6
Continuous
 62
     7
370
    25
100
AcDbLine
 10
221.0803600635
 20
321.7295018001
 30
0.0
 11
268.5979351186
 21
349.1608139875
 31
0.0
  0
ARC
  5
39A
330
1F
100
AcDbEntity
  8
0
  6
Continuous
 62
     7
370
    25
100
AcDbCircle
 10
270.0121494396
 20
346.4451234312
 30
0.0
 40
3.061858478703699
100
AcDbArc
 50
62.4914468753
 51
117.5085531247
  0
ARC
  5
39B
330
1F
100
AcDbEntity
  8
0
  6
Continuous
 62
     7
370
    25
100
AcDbCircle
 10
270.0121494396
 20
295.1360991128
 30
0.0
 40
3.061858478704102
100
AcDbArc
 50
242.4914468753
 51
297.5085531247
  0
LINE
  5
39C
330
1F
100
AcDbEntity
  8
0
  6
Continuous
 62
     7
370
    25
100
AcDbLine
 10
318.9439388157
 20
319.8517207438
 30
0.0
 11
271.4263637606
 21
292.4204085564
 31
0.0
  0
LINE
  5
39D
330
1F
100
AcDbEntity
  8
0
  6
Continuous
 62
     7
370
    25
100
AcDbLine
 10
268.5979351186
 20
292.4204085564
 30
0.0
 11
221.0803600635
 21
319.8517207438
 31
0.0
  0
LWPOLYLINE
  5
39E
330
1F
100
AcDbEntity
  8
0
  6
Continuous
 62
     7
370
    25
100
AcDbPolyline
 90
        3
 70
   128
 43
0.0
 10
285.7737644279
 20
311.9529925609
 10
285.7598509301
 20
311.9688436395
 10
285.674564576
 20
312.0346135406
  0
LINE
  5
39F
330
1F
100
AcDbEntity
  8
0
  6
Continuous
 62
     7
370
    25
100
AcDbLine
 10
283.7834074293
 20
312.4532695412
 30
0.0
 11
283.7834074293
 21
312.5549111861
 31
0.0
  0
LINE
  5
3A0
330
1F
100
AcDbEntity
  8
0
  6
Continuous
 62
     7
370
    25
100
AcDbLine
 10
285.3736908685
 20
312.2083042348
 30
0.0
 11
285.3736908685
 21
312.4532681915
 31
0.0
  0
LINE
  5
3A1
330
1F
100
AcDbEntity
  8
0
  6
Continuous
 62
     7
370
    25
100
AcDbLine
 10
285.674564576
 20
312.0346135406
 30
0.0
 11
285.3736908685
 21
312.2083042348
 31
0.0
  0
LINE
  5
3A2
330
1F
100
AcDbEntity
  8
0
  6
Continuous
 62
     7
370
    25
100
AcDbLine
 10
284.4905141947
 20
312.7181512762
 30
0.0
 11
284.4905141947
 21
312.9631152329
 31
0.0
  0
LWPOLYLINE
  5
3A3
330
1F
100
AcDbEntity
  8
0
  6
Continuous
 62
     7
370
    25
100
AcDbPolyline
 90
        9
 70
   128
 43
0.0
 10
285.3736902429
 20
312.3099472484
 10
285.3733885966
 20
312.3114993861
 10
285.3334001606
 20
312.4120797875
 10
285.2557226956
 20
312.5050231889
 10
285.1442346007
 20
312.5856889923
 10
285.0045021904
 20
312.6500496996
 10
284.8435020523
 20
312.6948919456
 10
284.6692728086
 20
312.7179767783
 10
284.4905141947
 20
312.7181512762
  0
LWPOLYLINE
  5
3A4
330
1F
100
AcDbEntity
  8
0
  6
Continuous
 62
     7
370
    25
100
AcDbPolyline
 90
        8
 70
   128
 43
0.0
 10
284.1896404872
 20
312.8918419704
 10
284.0757113324
 20
312.9410767346
 10
283.9423697014
 20
312.9697874129
 10
283.8004169589
 20
312.975648688
 10
283.6613548481
 20
312.9581848157
 10
283.5364482339
 20
312.9188112816
 10
283.4358164427
 20
312.8607177851
 10
283.3833341991
 20
312.8102209527
  0
LINE
  5
3A5
330
1F
100
AcDbEntity
  8
0
  6
Continuous
 62
     7
370
    25
100
AcDbLine
 10
284.4905141947
 20
312.7181512762
 30
0.0
 11
284.1896404872
 21
312.8918419704
 31
0.0
  0
LWPOLYLINE
  5
3A6
330
1F
100
AcDbEntity
  8
0
  6
Continuous
 62
     7
370
    25
100
AcDbPolyline
 90
        7
 70
   128
 43
0.0
 10
319.5297231118
 20
320.6681292936
 10
319.5246296651
 20
320.5857632574
 10
319.4840190693
 20
320.4227063646
 10
319.4036239557
 20
320.2646458134
 10
319.2850838369
 20
320.1148005763
 10
319.1308074053
 20
319.9762180933
 10
318.9439388157
 20
319.8517207438
  0
LWPOLYLINE
  5
3A7
330
1F
100
AcDbEntity
  8
0
  6
Continuous
 62
     7
370
    25
100
AcDbPolyline
 90
        7
 70
   128
 43
0.0
 10
221.0803600635
 20
319.8517207438
 10
220.8934914739
 20
319.9762180933
 10
220.7392150423
 20
320.1148005763
 10
220.6206749235
 20
320.2646458134
 10
220.5402798099
 20
320.4227063646
 10
220.4996692141
 20
320.5857632574
 10
220.4945757674
 20
320.6681292936
  0
LWPOLYLINE
  5
3A8
330
1F
100
AcDbEntity
  8
0
  6
Continuous
 62
     7
370
    25
100
AcDbPolyline
 90
        3
 70
   128
 43
0.0
 10
256.5417651574
 20
328.8526206636
 10
256.6270515115
 20
328.7868507625
 10
256.6409650093
 20
328.7709996839
  0
LINE
  5
3A9
330
1F
100
AcDbEntity
  8
0
  6
Continuous
 62
     7
370
    25
100
AcDbLine
 10
254.6506080107
 20
329.2712766642
 30
0.0
 11
254.6506080107
 21
329.3729183092
 31
0.0
  0
LINE
  5
3AA
330
1F
100
AcDbEntity
  8
0
  6
Continuous
 62
     7
370
    25
100
AcDbLine
 10
256.2408914499
 20
329.0263113578
 30
0.0
 11
256.2408914499
 21
329.2712753145
 31
0.0
  0
LINE
  5
3AB
330
1F
100
AcDbEntity
  8
0
  6
Continuous
 62
     7
370
    25
100
AcDbLine
 10
256.2408914499
 20
329.0263113578
 30
0.0
 11
256.5417651574
 21
328.8526206636
 31
0.0
  0
LINE
  5
3AC
330
1F
100
AcDbEntity
  8
0
  6
Continuous
 62
     7
370
    25
100
AcDbLine
 10
255.3577147761
 20
329.5361583992
 30
0.0
 11
255.3577147761
 21
329.7811223559
 31
0.0
  0
LWPOLYLINE
  5
3AD
330
1F
100
AcDbEntity
  8
0
  6
Continuous
 62
     7
370
    25
100
AcDbPolyline
 90
        9
 70
   128
 43
0.0
 10
255.3577147761
 20
329.5361583992
 10
255.53647339
 20
329.5359839013
 10
255.7107026337
 20
329.5128990686
 10
255.8717027718
 20
329.4680568226
 10
256.0114351821
 20
329.4036961154
 10
256.122923277
 20
329.3230303119
 10
256.200600742
 20
329.2300869105
 10
256.240589178
 20
329.1295065091
 10
256.2408908243
 20
329.1279543714
  0
ARC
  5
3AE
330
1F
100
AcDbEntity
  8
0
  6
Continuous
 62
     7
370
    25
100
AcDbCircle
 10
254.7117263078
 20
329.0956971264
 30
0.0
 40
0.7044762854394667
100
AcDbArc
 50
60.6667532551
 51
130.8937756336
  0
LINE
  5
3AF
330
1F
100
AcDbEntity
  8
0
  6
Continuous
 62
     7
370
    25
100
AcDbLine
 10
255.0568410686
 20
329.7098490934
 30
0.0
 11
255.3577147761
 21
329.5361583992
 31
0.0
  0
LINE
  5
3B0
330
1F
100
AcDbEntity
  8
0
  6
Continuous
 62
     7
370
    25
100
AcDbLine
 10
270.0121494396
 20
288.419545984
 30
0.0
 11
320.9238397081
 21
317.8102391775
 31
0.0
  0
LINE
  5
3B1
330
1F
100
AcDbEntity
  8
0
  6
Continuous
 62
     7
370
    25
100
AcDbLine
 10
219.1004591711
 20
317.8102391775
 30
0.0
 11
270.0121494396
 21
288.419545984
 31
0.0
  0
LINE
  5
3B2
330
1F
100
AcDbEntity
  8
0
  6
Continuous
 62
     7
370
    25
100
AcDbLine
 10
326.5806927775
 20
317.8102391775
 30
0.0
 11
270.0121494396
 21
350.466564137
 31
0.0
  0
LINE
  5
3B3
330
1F
100
AcDbEntity
  8
0
  6
Continuous
 62
     7
370
    25
100
AcDbLine
 10
270.0121494396
 20
285.153914218
 30
0.0
 11
326.5806927775
 21
317.8102391775
 31
0.0
  0
LINE
  5
3B4
330
1F
100
AcDbEntity
  8
0
  6
Continuous
 62
     7
370
    25
100
AcDbLine
 10
213.4436061017
 20
317.8102391775
 30
0.0
 11
270.0121494396
 21
285.153914218
 31
0.0
  0
LINE
  5
3B5
330
1F
100
AcDbEntity
  8
0
  6
Continuous
 62
     7
370
    25
100
AcDbLine
 10
270.0121494396
 20
350.466564137
 30
0.0
 11
213.4436061017
 21
317.8102391775
 31
0.0
  0
LINE
  5
3B6
330
1F
100
AcDbEntity
  8
0
  6
Continuous
 62
     7
370
    25
100
AcDbLine
 10
299.0035278739
 20
284.7429205801
 30
0.0
 11
299.0035278739
 21
274.1278904149
 31
0.0
  0
LINE
  5
3B7
330
1F
100
AcDbEntity
  8
0
  6
Continuous
 62
     7
370
    25
100
AcDbLine
 10
297.5893143431
 20
273.3114823213
 30
0.0
 11
299.0035278739
 21
274.1278904149
 31
0.0
  0
LINE
  5
3B8
330
1F
100
AcDbEntity
  8
0
  6
Continuous
 62
     7
370
    25
100
AcDbLine
 10
297.5893143431
 20
273.3114823213
 30
0.0
 11
297.5893143431
 21
283.9265124865
 31
0.0
  0
LWPOLYLINE
  5
3B9
330
1F
100
AcDbEntity
  8
0
  6
Continuous
 62
     7
370
    25
100
AcDbPolyline
 90
       68
 70
   128
 43
0.0
 10
297.5893143431
 20
283.9265124865
 10
297.5768793106
 20
284.5317048512
 10
297.5396016743
 20
285.1212077373
 10
297.4775633573
 20
285.6937300234
 10
297.3909006781
 20
286.2480071229
 10
297.2798041537
 20
286.7828252051
 10
297.1445179725
 20
287.2970111569
 10
296.985339599
 20
287.7894226212
 10
296.8026189178
 20
288.2589913049
 10
296.5967576412
 20
288.7046788343
 10
296.3682081892
 20
289.1255053104
 10
296.1174728996
 20
289.5205439861
 10
295.8451032375
 20
289.8889305435
 10
295.5516976881
 20
290.2298570106
 10
295.2379012301
 20
290.5425617235
 10
294.9044034911
 20
290.826372064
 10
294.5519380898
 20
291.0806554102
 10
294.1812794745
 20
291.3048562474
 10
293.7932421331
 20
291.4984811108
 10
293.3886798026
 20
291.6611029964
 10
292.9684815181
 20
291.792368814
 10
292.5335702957
 20
291.8919840257
 10
292.0849033955
 20
291.959727399
 10
291.6234660003
 20
291.9954619583
 10
291.1502727954
 20
291.9990969611
 10
290.6663637542
 20
291.9706341349
 10
290.1728036115
 20
291.9101284374
 10
289.6706760682
 20
291.8177187794
 10
289.1610853718
 20
291.6936046029
 10
288.6451521014
 20
291.5380580484
 10
288.1240094806
 20
291.3514218263
 10
287.5988039036
 20
291.1341095207
 10
287.070690194
 20
290.8865931187
 10
286.5408284439
 20
290.609420653
 10
286.0103829599
 20
290.3032009932
 10
285.4805212098
 20
289.9686081039
 10
284.9524075003
 20
289.6063773957
 10
284.4272019232
 20
289.2173002494
 10
283.9060593024
 20
288.8022380091
 10
283.3901260321
 20
288.3621006892
 10
282.8805358624
 20
287.8978542753
 10
282.3784077923
 20
287.4105195078
 10
281.8848481765
 20
286.9011730984
 10
281.4009391353
 20
286.3709264381
 10
280.9277459304
 20
285.82095419
 10
280.4663085351
 20
285.2524553544
 10
280.0176405814
 20
284.6666915963
 10
279.5827293589
 20
284.0649385755
 10
279.1625316013
 20
283.4485224495
 10
278.7579703245
 20
282.8188034478
 10
278.3699327196
 20
282.1771600543
 10
277.9992743677
 20
281.5250060412
 10
277.646808703
 20
280.8637746527
 10
277.3133112274
 20
280.1949161708
 10
276.9995131889
 20
279.5199088669
 10
276.7061079029
 20
278.8402237152
 10
276.4337381091
 20
278.1573657636
 10
276.1830044
 20
277.4728351969
 10
275.9544546846
 20
276.7881309883
 10
275.7485926177
 20
276.1047606319
 10
275.565871278
 20
275.4242267601
 10
275.4066931679
 20
274.7480320098
 10
275.2714081062
 20
274.0776486041
 10
275.1603111209
 20
273.4145609391
 10
275.073648771
 20
272.7602254301
 10
275.0116107173
 20
272.1160753799
 10
274.9743318298
 20
271.4835319287
 10
274.9618964021
 20
270.8639821529
  0
LINE
  5
3BA
330
1F
100
AcDbEntity
  8
0
  6
Continuous
 62
     7
370
    25
100
AcDbLine
 10
274.9618964021
 20
270.8639821529
 30
0.0
 11
274.9618964021
 21
260.2489519878
 31
0.0
  0
LINE
  5
3BB
330
1F
100
AcDbEntity
  8
0
  6
Continuous
 62
     7
370
    25
100
AcDbLine
 10
270.0121494396
 20
257.3915238884
 30
0.0
 11
274.9618964021
 21
260.2489519878
 31
0.0
  0
LINE
  5
3BC
330
1F
100
AcDbEntity
  8
0
  6
Continuous
 62
     7
370
    25
100
AcDbLine
 10
270.0121494396
 20
285.153914218
 30
0.0
 11
270.0121494396
 21
257.3915238884
 31
0.0
  0
LINE
  5
3BD
330
1F
100
AcDbEntity
  8
0
  6
Continuous
 62
     7
370
    25
100
AcDbLine
 10
326.5806927775
 20
317.8102391775
 30
0.0
 11
326.5806927775
 21
290.0478488479
 31
0.0
  0
LINE
  5
3BE
330
1F
100
AcDbEntity
  8
0
  6
Continuous
 62
     7
370
    25
100
AcDbLine
 10
321.6309458149
 20
287.1904207485
 30
0.0
 11
326.5806927775
 21
290.0478488479
 31
0.0
  0
LINE
  5
3BF
330
1F
100
AcDbEntity
  8
0
  6
Continuous
 62
     7
370
    25
100
AcDbLine
 10
321.6309458149
 20
287.1904207485
 30
0.0
 11
321.6309458149
 21
297.8054509136
 31
0.0
  0
LWPOLYLINE
  5
3C0
330
1F
100
AcDbEntity
  8
0
  6
Continuous
 62
     7
370
    25
100
AcDbPolyline
 90
       68
 70
   128
 43
0.0
 10
321.6309458149
 20
297.8054509136
 10
321.6185103873
 20
298.4106430502
 10
321.5812314998
 20
299.0001452141
 10
321.5191934461
 20
299.5726676522
 10
321.4325310962
 20
300.1269449418
 10
321.3214341109
 20
300.6617627578
 10
321.1861490492
 20
301.175949356
 10
321.026970939
 20
301.6683609723
 10
320.8442495994
 20
302.1379292759
 10
320.6383875325
 20
302.583616349
 10
320.4098378171
 20
303.0044426731
 10
320.1591041079
 20
303.3994822611
 10
319.8867343141
 20
303.7678687425
 10
319.5933290282
 20
304.1087953618
 10
319.2795309896
 20
304.4214991622
 10
318.9460335141
 20
304.7053096548
 10
318.5935678494
 20
304.9595928489
 10
318.2229094975
 20
305.1837938382
 10
317.8348718926
 20
305.3774185495
 10
317.4303106158
 20
305.5400410434
 10
317.0101128582
 20
305.6713071651
 10
316.5752016357
 20
305.7709223768
 10
316.1265336819
 20
305.8386651419
 10
315.6650962867
 20
305.8743997011
 10
315.1919030817
 20
305.8780347039
 10
314.7079940406
 20
305.8495718777
 10
314.2144344248
 20
305.7890664843
 10
313.7123063546
 20
305.6966565223
 10
313.202716185
 20
305.5725426499
 10
312.6867829146
 20
305.4169960954
 10
312.1656402938
 20
305.2303598732
 10
311.6404347168
 20
305.0130475676
 10
311.1123210072
 20
304.7655311656
 10
310.5824592571
 20
304.4883587
 10
310.0520137732
 20
304.1821390402
 10
309.5221520231
 20
303.8475461509
 10
308.9940383135
 20
303.4853154427
 10
308.4688327365
 20
303.0962382964
 10
307.9476901156
 20
302.6811760561
 10
307.4317568453
 20
302.2410387362
 10
306.9221661488
 20
301.7767920181
 10
306.4200386055
 20
301.2894575548
 10
305.9264784629
 20
300.7801108412
 10
305.4425694217
 20
300.2498641809
 10
304.9693762168
 20
299.6998919328
 10
304.5079388215
 20
299.1313930973
 10
304.0592719214
 20
298.5456299474
 10
303.624360699
 20
297.9438769266
 10
303.2041624145
 20
297.3274604965
 10
302.799600084
 20
296.6977408865
 10
302.4115627426
 20
296.056097645
 10
302.0409041272
 20
295.4039434799
 10
301.6884387259
 20
294.7427122434
 10
301.354940987
 20
294.0738536095
 10
301.0411445289
 20
293.398847218
 10
300.7477389796
 20
292.7191619142
 10
300.4753693175
 20
292.0363040387
 10
300.2246340278
 20
291.3517725596
 10
299.9960845758
 20
290.667068503
 10
299.7902232992
 20
289.9836986029
 10
299.6075026181
 20
289.3031651112
 10
299.4483242445
 20
288.6269702088
 10
299.3130380633
 20
287.9565861569
 10
299.201941539
 20
287.293498758
 10
299.1152788598
 20
286.6391630589
 10
299.0532405427
 20
285.9950128566
 10
299.0159629064
 20
285.3624701277
 10
299.0035278739
 20
284.7429205801
  0
LWPOLYLINE
  5
3C1
330
1F
100
AcDbEntity
  8
0
  6
Continuous
 62
     7
370
    25
100
AcDbPolyline
 90
       68
 70
   128
 43
0.0
 10
230.4141695246
 20
290.8659812819
 10
230.4266038985
 20
291.4711740267
 10
230.4638817324
 20
292.0606767988
 10
230.5259197861
 20
292.633199237
 10
230.6125831896
 20
293.1874759183
 10
230.7236791213
 20
293.7222943426
 10
230.8589652367
 20
294.2364803325
 10
231.0181444004
 20
294.7288913406
 10
231.2008646865
 20
295.1984602524
 10
231.4067256997
 20
295.6441479338
 10
231.6352754151
 20
296.0649742578
 10
231.8860101779
 20
296.4600132376
 10
232.1583799717
 20
296.828399719
 10
232.4517863113
 20
297.16932573
 10
232.7655822425
 20
297.482030747
 10
233.0990802449
 20
297.7658409354
 10
233.4515453828
 20
298.0201244337
 10
233.8222042615
 20
298.2443251188
 10
234.2102413395
 20
298.4379501343
 10
234.61480367
 20
298.6005720199
 10
235.0350019545
 20
298.7318378375
 10
235.4699131769
 20
298.8314530492
 10
235.9185806039
 20
298.8991961184
 10
236.3800179991
 20
298.9349306776
 10
236.8532112041
 20
298.9385656804
 10
237.3371197184
 20
298.9101031584
 10
237.8306801245
 20
298.8495973088
 10
238.3328076678
 20
298.7571876509
 10
238.8423981008
 20
298.6330736264
 10
239.3583316346
 20
298.4775269198
 10
239.8794738603
 20
298.2908909258
 10
240.4046793056
 20
298.0735786962
 10
240.9327934761
 20
297.8260620281
 10
241.462655325
 20
297.5488895054
 10
241.9931002163
 20
297.2426701878
 10
242.5229620652
 20
296.9080772415
 10
243.0510762357
 20
296.5458462671
 10
243.5762816811
 20
296.1567691969
 10
244.0974239068
 20
295.7417071847
 10
244.6133574405
 20
295.3015697127
 10
245.1229478736
 20
294.8373231467
 10
245.6250754169
 20
294.3499886834
 10
246.1186358229
 20
293.8406418178
 10
246.6025443373
 20
293.3103954616
 10
247.0757375422
 20
292.7604232135
 10
247.5371749374
 20
292.1919243779
 10
247.9858423644
 20
291.6061609239
 10
248.4207535868
 20
291.0044079031
 10
248.8409518713
 20
290.387991473
 10
249.2455142018
 20
289.758271863
 10
249.6335512798
 20
289.1166287736
 10
250.0042101586
 20
288.4644744564
 10
250.3566752965
 20
287.803243372
 10
250.6901732988
 20
287.134384586
 10
251.0039692301
 20
286.4593784986
 10
251.2973755696
 20
285.7796927387
 10
251.5697453635
 20
285.0968347871
 10
251.8204801263
 20
284.4123036121
 10
252.0490298417
 20
283.7275994035
 10
252.2548908549
 20
283.0442296554
 10
252.4376111409
 20
282.3636963919
 10
252.5967903047
 20
281.6875010332
 10
252.73207642
 20
281.0171170193
 10
252.8431723517
 20
280.3540299626
 10
252.9298357553
 20
279.6996938454
 10
252.991873809
 20
279.0555437951
 10
253.0291516428
 20
278.4230009521
 10
253.0415860168
 20
277.8034517847
  0
LINE
  5
3C2
330
1F
100
AcDbEntity
  8
0
  6
Continuous
 62
     7
370
    25
100
AcDbLine
 10
230.4141695246
 20
280.2509511167
 30
0.0
 11
230.4141695246
 21
290.8659812819
 31
0.0
  0
LINE
  5
3C3
330
1F
100
AcDbEntity
  8
0
  6
Continuous
 62
     7
370
    25
100
AcDbLine
 10
213.4436061017
 20
290.0478488479
 30
0.0
 11
230.4141695246
 21
280.2509511167
 31
0.0
  0
LINE
  5
3C4
330
1F
100
AcDbEntity
  8
0
  6
Continuous
 62
     7
370
    25
100
AcDbLine
 10
213.4436061017
 20
317.8102391775
 30
0.0
 11
213.4436061017
 21
290.0478488479
 31
0.0
  0
LINE
  5
3C5
330
1F
100
AcDbEntity
  8
0
  6
Continuous
 62
     7
370
    25
100
AcDbLine
 10
253.0415860168
 20
267.1884216195
 30
0.0
 11
270.0121494396
 21
257.3915238884
 31
0.0
  0
LINE
  5
3C6
330
1F
100
AcDbEntity
  8
0
  6
Continuous
 62
     7
370
    25
100
AcDbLine
 10
253.0415860168
 20
277.8034517847
 30
0.0
 11
253.0415860168
 21
267.1884216195
 31
0.0
  0
LWPOLYLINE
  5
3C7
330
1F
100
AcDbEntity
  8
0
  6
Continuous
 62
     7
370
    25
100
AcDbPolyline
 90
       48
 70
   128
 43
0.0
 10
226.1715286689
 20
306.3798608463
 10
226.1841474353
 20
306.5902462185
 10
226.2217771953
 20
306.7823043484
 10
226.2837467604
 20
306.9526167403
 10
226.3689508293
 20
307.0981371802
 10
226.4758679009
 20
307.2162690009
 10
226.602591884
 20
307.3049101041
 10
226.7468594928
 20
307.3624760811
 10
226.9060966085
 20
307.3879318526
 10
227.0774625335
 20
307.3808342583
 10
227.2578984604
 20
307.3413089439
 10
227.4441854235
 20
307.2700509747
 10
227.6329980364
 20
307.1683424832
 10
227.8209677124
 20
307.0379918382
 10
228.0047395623
 20
306.8813300001
 10
228.1810335076
 20
306.7011509058
 10
228.3467053934
 20
306.5006713226
 10
228.4987975646
 20
306.2834627151
 10
228.6345968179
 20
306.0534080563
 10
228.7516786557
 20
305.814608143
 10
228.8479547017
 20
305.5713298888
 10
228.9217064183
 20
305.3279089874
 10
228.97161777
 20
305.0886921214
 10
228.9967973509
 20
304.8579463164
 10
228.9967973509
 20
304.6397895892
 10
228.97161777
 20
304.4381155096
 10
228.9217064183
 20
304.2565250636
 10
228.8479547017
 20
304.0982560817
 10
228.7516786557
 20
303.9661357841
 10
228.6345968179
 20
303.8625156835
 10
228.4987975646
 20
303.7892515051
 10
228.3467053934
 20
303.7476447806
 10
228.1810335076
 20
303.7384458852
 10
228.0047395623
 20
303.7618114476
 10
227.8209677124
 20
303.817328071
 10
227.6329980364
 20
303.9040025945
 10
227.4441854235
 20
304.0202925057
 10
227.2578984604
 20
304.1641168858
 10
227.0774625335
 20
304.3329135913
 10
226.9060966085
 20
304.5236708826
 10
226.7468594928
 20
304.7329827814
 10
226.602591884
 20
304.9571165941
 10
226.4758679009
 20
305.1920652268
 10
226.3689508293
 20
305.4336457378
 10
226.2837467604
 20
305.6775407018
 10
226.2217771953
 20
305.9194016304
 10
226.1841474353
 20
306.1549061565
 10
226.1715286689
 20
306.3798608463
  0
LWPOLYLINE
  5
3C8
330
1F
100
AcDbEntity
  8
0
  6
Continuous
 62
     7
370
    25
100
AcDbPolyline
 90
       48
 70
   128
 43
0.0
 10
254.4558003378
 20
290.0516983665
 10
254.4684180506
 20
290.262084347
 10
254.5060478106
 20
290.4541424769
 10
254.5680173756
 20
290.6244548688
 10
254.6532214446
 20
290.7699753087
 10
254.7601395699
 20
290.8881065211
 10
254.8868624993
 20
290.9767482326
 10
255.0311301081
 20
291.0343142096
 10
255.1903682774
 20
291.0597693728
 10
255.3617342025
 20
291.0526717785
 10
255.5421701293
 20
291.0131464642
 10
255.7284570924
 20
290.9418884949
 10
255.9172697054
 20
290.8401800034
 10
256.1052383277
 20
290.7098299667
 10
256.2890101776
 20
290.5531681286
 10
256.4653051765
 20
290.372988426
 10
256.6309770623
 20
290.1725088428
 10
256.7830692335
 20
289.9553002353
 10
256.9188674331
 20
289.7252461848
 10
257.0359503246
 20
289.4864456633
 10
257.132225317
 20
289.2431680173
 10
257.2059770335
 20
288.9997471159
 10
257.2558883852
 20
288.7605302499
 10
257.2810690199
 20
288.5297838367
 10
257.2810690199
 20
288.3116271094
 10
257.2558883852
 20
288.1099536381
 10
257.2059770335
 20
287.9283631921
 10
257.132225317
 20
287.7700942102
 10
257.0359503246
 20
287.6379733044
 10
256.9188674331
 20
287.534353812
 10
256.7830692335
 20
287.4610890253
 10
256.6309770623
 20
287.4194823009
 10
256.4653051765
 20
287.4102834055
 10
256.2890101776
 20
287.4336495761
 10
256.1052383277
 20
287.4891661995
 10
255.9172697054
 20
287.5758401147
 10
255.7284570924
 20
287.6921300259
 10
255.5421701293
 20
287.8359544061
 10
255.3617342025
 20
288.0047511115
 10
255.1903682774
 20
288.1955084028
 10
255.0311301081
 20
288.4048209099
 10
254.8868624993
 20
288.6289547226
 10
254.7601395699
 20
288.8639027471
 10
254.6532214446
 20
289.1054838663
 10
254.5680173756
 20
289.3493788303
 10
254.5060478106
 20
289.5912397589
 10
254.4684180506
 20
289.826744285
 10
254.4558003378
 20
290.0516983665
  0
LINE
  5
3C9
330
1F
100
AcDbEntity
  8
0
  6
Continuous
 62
     7
370
    25
100
AcDbLine
 10
270.0121494396
 20
288.419545984
 30
0.0
 11
270.0121494396
 21
291.4407180534
 31
0.0
  0
LINE
  5
3CA
330
1F
100
AcDbEntity
  8
0
  6
Continuous
 62
     7
370
    25
100
AcDbLine
 10
270.0121494396
 20
291.4407180534
 30
0.0
 11
320.6409964224
 21
320.6681292936
 31
0.0
  0
LINE
  5
3CB
330
1F
100
AcDbEntity
  8
0
  6
Continuous
 62
     7
370
    25
100
AcDbLine
 10
320.6409964224
 20
320.6681292936
 30
0.0
 11
320.9238397081
 21
317.8102391775
 31
0.0
  0
LINE
  5
3CC
330
1F
100
AcDbEntity
  8
0
  6
Continuous
 62
     7
370
    25
100
AcDbLine
 10
219.1004591711
 20
317.8102391775
 30
0.0
 11
219.3833024568
 21
320.6681292936
 31
0.0
  0
LINE
  5
3CD
330
1F
100
AcDbEntity
  8
0
  6
Continuous
 62
     7
370
    25
100
AcDbLine
 10
219.3833024568
 20
320.6681292936
 30
0.0
 11
270.0121494396
 21
291.4407180534
 31
0.0
  0
LINE
  5
3CE
330
1F
100
AcDbEntity
  8
0
  6
Continuous
 62
     7
370
    25
100
AcDbLine
 10
219.3833024568
 20
320.6681292936
 30
0.0
 11
220.7094108983
 21
321.4336754018
 31
0.0
  0
LINE
  5
3CF
330
1F
100
AcDbEntity
  8
0
  6
Continuous
 62
     7
370
    25
100
AcDbLine
 10
269.1103733615
 20
349.3749562849
 30
0.0
 11
270.0121494396
 21
349.8955405338
 31
0.0
  0
LINE
  5
3D0
330
1F
100
AcDbEntity
  8
0
  6
Continuous
 62
     7
370
    25
100
AcDbLine
 10
270.0121494396
 20
349.8955405338
 30
0.0
 11
270.9139255177
 21
349.3749562849
 31
0.0
  0
LINE
  5
3D1
330
1F
100
AcDbEntity
  8
0
  6
Continuous
 62
     7
370
    25
100
AcDbLine
 10
319.3148879809
 20
321.4336754018
 30
0.0
 11
320.6409964224
 21
320.6681292936
 31
0.0
  0
LWPOLYLINE
  5
3D2
330
1F
100
AcDbEntity
  8
0
  6
Continuous
 62
     7
370
    25
100
AcDbPolyline
 90
       22
 70
   128
 43
0.0
 10
292.9934904043
 20
284.5390315657
 10
292.9808329155
 20
285.0992123809
 10
292.9428936395
 20
285.6432944396
 10
292.8797737289
 20
286.1698322445
 10
292.7916401906
 20
286.6774329162
 10
292.6787266761
 20
287.1647469151
 10
292.5413329549
 20
287.6304872059
 10
292.3798230704
 20
288.0734135915
 10
292.1946256033
 20
288.4923523331
 10
291.9862313011
 20
288.8861947821
 10
291.7551928143
 20
289.2538972272
 10
291.5021233795
 20
289.5944801347
 10
291.2276933951
 20
289.9070407723
 10
290.9326306843
 20
290.190753361
 10
290.6177183885
 20
290.4448678588
 10
290.2837910151
 20
290.6687028128
 10
289.9317336479
 20
290.8616692373
 10
289.5624808934
 20
291.0232602723
 10
289.1770116121
 20
291.1530384076
 10
288.7763473383
 20
291.2506637725
 10
288.361551753
 20
291.3158743638
 10
288.0949049744
 20
291.3401414202
  0
SPLINE
  5
3D3
330
1F
100
AcDbEntity
  8
0
  6
Continuous
 62
     7
370
    25
100
AcDbSpline
210
0.0
220
0.0
230
1.0
 70
     8
 71
     3
 72
    27
 73
    23
 74
     0
 42
0.000000001
 43
0.00000001
 40
0.0
 40
0.0
 40
0.0
 40
0.0
 40
0.0176667052623036
 40
0.0721291727408446
 40
0.1250564400838258
 40
0.1795190377283273
 40
0.2324465925309772
 40
0.286908947909894
 40
0.3398366904093769
 40
0.3942988037778491
 40
0.4472265783515418
 40
0.501689072937751
 40
0.5546163747898444
 40
0.6090792873953865
 40
0.6620065257083206
 40
0.7164688532413883
 40
0.7693961314924705
 40
0.8238591821449677
 40
0.8767866823834071
 40
0.9312491229939192
 40
0.984176872685867
 40
1.0
 40
1.0
 40
1.0
 40
1.0
 10
256.9021793884551
 20
287.5289031212358
 30
0.0
 10
256.8845478774867
 20
287.5167738777618
 30
0.0
 10
256.8125623951093
 20
287.4672529124903
 30
0.0
 10
256.6592592065531
 20
287.4318815822878
 30
0.0
 10
256.446953989858
 20
287.4254899501975
 30
0.0
 10
256.2193983412909
 20
287.4742488797943
 30
0.0
 10
255.9813707401204
 20
287.5733587897695
 30
0.0
 10
255.7431197078707
 20
287.7192966000912
 30
0.0
 10
255.5073159268874
 20
287.9102924883917
 30
0.0
 10
255.2849329566204
 20
288.1376235132793
 30
0.0
 10
255.0783030621103
 20
288.3989557855801
 30
0.0
 10
254.8968828147789
 20
288.6821247192187
 30
0.0
 10
254.7424848078347
 20
288.9841812839824
 30
0.0
 10
254.6223200782306
 20
289.2911682588834
 30
0.0
 10
254.5377032586751
 20
289.5999804392612
 30
0.0
 10
254.492557905463
 20
289.8962837866853
 30
0.0
 10
254.4872063942557
 20
290.1770686754893
 30
0.0
 10
254.5220846410157
 20
290.4289867841475
 30
0.0
 10
254.5961887512739
 20
290.6507614357499
 30
0.0
 10
254.7087911038354
 20
290.8273872888953
 30
0.0
 10
254.815308594692
 20
290.939613298727
 30
0.0
 10
254.8909880987034
 20
290.9745118526734
 30
0.0
 10
254.9084058609079
 20
290.9825438122094
 30
0.0
  0
LWPOLYLINE
  5
3D4
330
1F
100
AcDbEntity
  8
0
  6
Continuous
 62
     7
370
    25
100
AcDbPolyline
 90
       89
 70
   128
 43
0.0
 10
287.0534236838
 20
274.0862298402
 10
287.4071853642
 20
274.5493112459
 10
287.7470554432
 20
275.0280996431
 10
288.071841692
 20
275.5209236463
 10
288.380405092
 20
276.0260501152
 10
288.671662996
 20
276.5417054479
 10
288.9445938697
 20
277.0660831845
 10
289.1982399261
 20
277.5973406612
 10
289.4317113397
 20
278.1336209112
 10
289.6441894081
 20
278.6730398884
 10
289.8349291858
 20
279.2137025891
 10
290.0032610645
 20
279.7537136986
 10
290.1485939349
 20
280.2911794154
 10
290.2704194005
 20
280.8242147519
 10
290.3683086172
 20
281.3509465762
 10
290.4419196686
 20
281.8695324707
 10
290.4909928249
 20
282.3781531285
 10
290.5153573912
 20
282.8750163066
 10
290.5149269665
 20
283.3583881578
 10
290.4897031313
 20
283.8265710246
 10
290.4397743941
 20
284.2779174317
 10
290.365316191
 20
284.7108495544
 10
290.2665898325
 20
285.1238440089
 10
290.1439409228
 20
285.5154552749
 10
289.9978004135
 20
285.8843114369
 10
289.8286809155
 20
286.2291169222
 10
289.6371751189
 20
286.5486613224
 10
289.4239552659
 20
286.8418239564
 10
289.1897694632
 20
287.1075717412
 10
288.9354390474
 20
287.3449820061
 10
288.6618554243
 20
287.5532163333
 10
288.3699795422
 20
287.731544588
 10
288.0608350425
 20
287.8793409655
 10
287.7355056262
 20
287.9960873367
 10
287.395132946
 20
288.081376899
 10
287.0409113382
 20
288.1349062676
 10
286.6740830812
 20
288.1564873396
 10
286.2959352343
 20
288.1460454689
 10
285.9077943696
 20
288.1036212917
 10
285.5110207768
 20
288.0293625145
 10
285.1070084626
 20
287.9235239136
 10
284.6971725077
 20
287.7864843708
 10
284.2829522269
 20
287.6187194968
 10
283.865799579
 20
287.4208144076
 10
283.4471791672
 20
287.1934734585
 10
283.0285587554
 20
286.937485568
 10
282.6114061076
 20
286.653756462
 10
282.1971858268
 20
286.3432727795
 10
281.7873509255
 20
286.007126409
 10
281.3833375577
 20
285.6465017128
 10
280.9865650185
 20
285.2626560589
 10
280.5984231002
 20
284.8569417244
 10
280.2202752533
 20
284.4307833844
 10
279.8534469963
 20
283.985671422
 10
279.4992259153
 20
283.5231667944
 10
279.1588532351
 20
283.0448913005
 10
278.8335238188
 20
282.5525275804
 10
278.5243787923
 20
282.047800257
 10
278.2325023833
 20
281.5324789777
 10
277.9589198139
 20
281.0083723312
 10
277.7045899249
 20
280.4773187227
 10
277.4704030685
 20
279.9411851571
 10
277.2571842693
 20
279.4018447292
 10
277.065677419
 20
278.8611918344
 10
276.8965589747
 20
278.3211257412
 10
276.7504168848
 20
277.7835384262
 10
276.6277695556
 20
277.2503206557
 10
276.5290426703
 20
276.7233388699
 10
276.4545839404
 20
276.2044388316
 10
276.4046546763
 20
275.6954456274
 10
276.3794318948
 20
275.1981405487
 10
276.379001997
 20
274.7142720439
 10
276.4033649828
 20
274.2455386828
 10
276.4524386658
 20
273.7935769893
 10
276.5260502441
 20
273.3599809098
 10
276.6239384071
 20
272.9462689612
 10
276.7457638727
 20
272.5538903133
 10
276.8910967431
 20
272.184222357
 10
277.0594291487
 20
271.838563402
 10
277.2501689263
 20
271.5181241609
 10
277.4626480484
 20
271.2240277479
 10
277.6961184084
 20
270.9573072462
 10
277.9497644648
 20
270.7189032726
 10
278.2226958653
 20
270.5096451194
 10
278.5139537693
 20
270.3302690048
 10
278.8225171693
 20
270.1814022542
 10
279.1473028912
 20
270.0635681679
 10
279.4871729703
 20
269.9771854114
 10
279.8409346506
 20
269.9225485477
  0
LINE
  5
3D5
330
1F
100
AcDbEntity
  8
0
  6
Continuous
 62
     7
370
    25
100
AcDbLine
 10
279.8409346506
 20
269.9225485477
 30
0.0
 11
279.8409346506
 21
269.0259567153
 31
0.0
  0
LINE
  5
3D6
330
1F
100
AcDbEntity
  8
0
  6
Continuous
 62
     7
370
    25
100
AcDbLine
 10
274.9618985095
 20
266.2093491042
 30
0.0
 11
279.8409346506
 21
269.0259567153
 31
0.0
  0
LINE
  5
3D7
330
1F
100
AcDbEntity
  8
0
  6
Continuous
 62
     7
370
    25
100
AcDbLine
 10
292.9934904043
 20
276.6187655344
 30
0.0
 11
292.9934904043
 21
284.5390315657
 31
0.0
  0
LINE
  5
3D8
330
1F
100
AcDbEntity
  8
0
  6
Continuous
 62
     7
370
    25
100
AcDbLine
 10
287.0534236838
 20
273.1896380077
 30
0.0
 11
292.9934904043
 21
276.6187655344
 31
0.0
  0
LINE
  5
3D9
330
1F
100
AcDbEntity
  8
0
  6
Continuous
 62
     7
370
    25
100
AcDbLine
 10
287.0534236838
 20
273.1896380077
 30
0.0
 11
287.0534236838
 21
274.0862298402
 31
0.0
  0
LINE
  5
3DA
330
1F
100
AcDbEntity
  8
0
  6
Continuous
 62
     7
370
    25
100
AcDbLine
 10
286.3463154697
 20
274.4944347233
 30
0.0
 11
287.0534236838
 21
274.0862298402
 31
0.0
  0
LWPOLYLINE
  5
3DB
330
1F
100
AcDbEntity
  8
0
  6
Continuous
 62
     7
370
    25
100
AcDbPolyline
 90
       31
 70
   128
 43
0.0
 10
286.3463154697
 20
274.4944347233
 10
286.70007715
 20
274.9575161291
 10
287.039947229
 20
275.4363045263
 10
287.3647334778
 20
275.9291285295
 10
287.6732968778
 20
276.4342549984
 10
287.9645547818
 20
276.9499103311
 10
288.2374856555
 20
277.4742880677
 10
288.4911317119
 20
278.0055455444
 10
288.7246031255
 20
278.5418257944
 10
288.937081194
 20
279.0812447715
 10
289.1278209716
 20
279.6219074723
 10
289.2961528504
 20
280.1619185817
 10
289.4414857207
 20
280.6993842986
 10
289.5633111864
 20
281.2324196351
 10
289.661200403
 20
281.7591514593
 10
289.7348114545
 20
282.2777373539
 10
289.7838846107
 20
282.7863580117
 10
289.808249177
 20
283.2832211898
 10
289.8078187523
 20
283.766593041
 10
289.7825949171
 20
284.2347759077
 10
289.7326661799
 20
284.6861223149
 10
289.6582079768
 20
285.1190544376
 10
289.5594816183
 20
285.5320488921
 10
289.4368327087
 20
285.9236601581
 10
289.2906921993
 20
286.29251632
 10
289.1215727013
 20
286.6373218053
 10
288.9300669047
 20
286.9568662056
 10
288.7168470518
 20
287.2500288396
 10
288.482661249
 20
287.5157766244
 10
288.2283308332
 20
287.7531868893
 10
288.0807057011
 20
287.8709803215
  0
ARC
  5
3DC
330
1F
100
AcDbEntity
  8
0
  6
Continuous
 62
     7
370
    25
100
AcDbCircle
 10
279.4972521433
 20
273.8931328181
 30
0.0
 40
3.580869327763285
100
AcDbArc
 50
247.146772151
 51
264.1749695055
  0
LINE
  5
3DD
330
1F
100
AcDbEntity
  8
0
  6
Continuous
 62
     7
370
    25
100
AcDbLine
 10
279.1338264364
 20
270.3307534309
 30
0.0
 11
279.8409346506
 21
269.9225485477
 31
0.0
  0
LINE
  5
3DE
330
1F
100
AcDbEntity
  8
0
  6
Continuous
 62
     7
370
    25
100
AcDbLine
 10
286.3463154697
 20
273.7609737401
 30
0.0
 11
286.3463154697
 21
274.4944347233
 31
0.0
  0
LINE
  5
3DF
330
1F
100
AcDbEntity
  8
0
  6
Continuous
 62
     7
370
    25
100
AcDbLine
 10
279.7690921863
 20
269.964023559
 30
0.0
 11
286.3463154697
 21
273.7609737401
 31
0.0
  0
LWPOLYLINE
  5
3E0
330
1F
100
AcDbEntity
  8
0
  6
Continuous
 62
     7
370
    25
100
AcDbPolyline
 90
       22
 70
   128
 43
0.0
 10
235.0099935951
 20
291.4785002851
 10
235.0226502937
 20
292.0386815564
 10
235.0605898331
 20
292.5827634631
 10
235.1237100071
 20
293.1093011159
 10
235.211843282
 20
293.6169019396
 10
235.3247567965
 20
294.1042159386
 10
235.4621502543
 20
294.5699563815
 10
235.6236601388
 20
295.012882767
 10
235.8088581327
 20
295.4318212046
 10
236.0172521715
 20
295.8256638056
 10
236.2482906583
 20
296.1933662507
 10
236.5013603565
 20
296.5339490061
 10
236.7757900775
 20
296.8465097957
 10
237.0708527883
 20
297.1302223844
 10
237.3857650841
 20
297.3843368823
 10
237.7196929844
 20
297.6081715321
 10
238.0717498247
 20
297.8011382608
 10
238.4410025792
 20
297.9627292958
 10
238.8264718604
 20
298.0925074311
 10
239.2271361343
 20
298.190132796
 10
239.6419322464
 20
298.2553430832
 10
239.9085784982
 20
298.2796104437
  0
LINE
  5
3E1
330
1F
100
AcDbEntity
  8
0
  6
Continuous
 62
     7
370
    25
100
AcDbLine
 10
240.9500597887
 20
280.1291070312
 30
0.0
 11
240.9500597887
 21
281.0256988637
 31
0.0
  0
LINE
  5
3E2
330
1F
100
AcDbEntity
  8
0
  6
Continuous
 62
     7
370
    25
100
AcDbLine
 10
235.0099935951
 20
283.5582342538
 30
0.0
 11
240.9500597887
 21
280.1291070312
 31
0.0
  0
LINE
  5
3E3
330
1F
100
AcDbEntity
  8
0
  6
Continuous
 62
     7
370
    25
100
AcDbLine
 10
235.0099935951
 20
283.5582342538
 30
0.0
 11
235.0099935951
 21
291.4785002851
 31
0.0
  0
LINE
  5
3E4
330
1F
100
AcDbEntity
  8
0
  6
Continuous
 62
     7
370
    25
100
AcDbLine
 10
248.162548822
 20
275.9654257388
 30
0.0
 11
253.0415854899
 21
273.1488178236
 31
0.0
  0
LINE
  5
3E5
330
1F
100
AcDbEntity
  8
0
  6
Continuous
 62
     7
370
    25
100
AcDbLine
 10
248.162548822
 20
276.8620175712
 30
0.0
 11
248.162548822
 21
275.9654257388
 31
0.0
  0
LWPOLYLINE
  5
3E6
330
1F
100
AcDbEntity
  8
0
  6
Continuous
 62
     7
370
    25
100
AcDbPolyline
 90
       89
 70
   128
 43
0.0
 10
240.9500597887
 20
281.0256988637
 10
240.5962981084
 20
281.4887802694
 10
240.2564280294
 20
281.9675686666
 10
239.9316417806
 20
282.4603926698
 10
239.6230783806
 20
282.9655191387
 10
239.3318204766
 20
283.4811744714
 10
239.0588901297
 20
284.0055519039
 10
238.8052440734
 20
284.5368093806
 10
238.5717721329
 20
285.0730899347
 10
238.3592940645
 20
285.6125089119
 10
238.1685542868
 20
286.1531716126
 10
238.0002229349
 20
286.6931824179
 10
237.8548895377
 20
287.2306484389
 10
237.7330640721
 20
287.7636837754
 10
237.6351748554
 20
288.2904155997
 10
237.5615638039
 20
288.8090014942
 10
237.5124906477
 20
289.317622152
 10
237.4881260814
 20
289.8144853301
 10
237.488557033
 20
290.2978568772
 10
237.5137803413
 20
290.766040048
 10
237.5637090785
 20
291.2173864552
 10
237.6381672816
 20
291.6503185779
 10
237.7368936401
 20
292.0633130324
 10
237.8595425498
 20
292.4549242984
 10
238.0056830591
 20
292.8237804604
 10
238.1748025571
 20
293.1685859457
 10
238.3663083537
 20
293.4881303459
 10
238.5795282067
 20
293.7812929799
 10
238.8137140094
 20
294.0470407647
 10
239.0680449521
 20
294.2844507255
 10
239.3416280483
 20
294.4926853567
 10
239.6335039304
 20
294.6710136115
 10
239.9426484301
 20
294.818809989
 10
240.2679778464
 20
294.9355563602
 10
240.6083505266
 20
295.0208459225
 10
240.9625721344
 20
295.0743752911
 10
241.3294003914
 20
295.0959563631
 10
241.7075485017
 20
295.0855143403
 10
242.0956896298
 20
295.0430900111
 10
242.4924628275
 20
294.968831462
 10
242.8964756685
 20
294.8629925569
 10
243.3063110966
 20
294.7259533183
 10
243.7205314433
 20
294.5581884063
 10
244.1376836301
 20
294.3602835831
 10
244.5563043054
 20
294.1329424819
 10
244.9749249806
 20
293.8769544395
 10
245.3920771674
 20
293.5932255995
 10
245.8062975141
 20
293.2827418791
 10
246.2161329422
 20
292.9465952044
 10
246.6201457832
 20
292.5859708123
 10
247.0169189809
 20
292.2021247783
 10
247.405060109
 20
291.7964108999
 10
247.7832082193
 20
291.3702524079
 10
248.1500364763
 20
290.9251404455
 10
248.5042580841
 20
290.4626355137
 10
248.8446307643
 20
289.9843600198
 10
249.1699601807
 20
289.4919962998
 10
249.4791046803
 20
288.9872692805
 10
249.7709805625
 20
288.4719483053
 10
250.0445636587
 20
287.9478413547
 10
250.2988946013
 20
287.4167871379
 10
250.5330804041
 20
286.8806541806
 10
250.746300257
 20
286.3413131444
 10
250.9378060536
 20
285.8006608578
 10
251.1069255516
 20
285.2605941564
 10
251.253066061
 20
284.7230077538
 10
251.3757149706
 20
284.1897890709
 10
251.4744413291
 20
283.6628075893
 10
251.5488995322
 20
283.1439078551
 10
251.5988282694
 20
282.634914955
 10
251.6240515778
 20
282.1376095722
 10
251.6244825293
 20
281.6537404591
 10
251.600117963
 20
281.1850080104
 10
251.5510448068
 20
280.7330460128
 10
251.4774337553
 20
280.2994496292
 10
251.3795445387
 20
279.8857382888
 10
251.257719073
 20
279.493359641
 10
251.1123856758
 20
279.1236919887
 10
250.9440543239
 20
278.7780324255
 10
250.7533145463
 20
278.4575931844
 10
250.5408364779
 20
278.1634961632
 10
250.3073645374
 20
277.8967765738
 10
250.053718481
 20
277.6583726002
 10
249.7807881341
 20
277.4491138388
 10
249.4895302301
 20
277.2697377241
 10
249.1809668301
 20
277.1208709736
 10
248.8561805813
 20
277.0030371914
 10
248.5163105023
 20
276.9166544349
 10
248.162548822
 20
276.8620175712
  0
LINE
  5
3E7
330
1F
100
AcDbEntity
  8
0
  6
Continuous
 62
     7
370
    25
100
AcDbLine
 10
248.8696570362
 20
277.2702224544
 30
0.0
 11
248.162548822
 21
276.8620175712
 31
0.0
  0
LWPOLYLINE
  5
3E8
330
1F
100
AcDbEntity
  8
0
  6
Continuous
 62
     7
370
    25
100
AcDbPolyline
 90
       31
 70
   128
 43
0.0
 10
241.6571680029
 20
281.4339037468
 10
241.3034063226
 20
281.8969851526
 10
240.9635362436
 20
282.3757735498
 10
240.6387499948
 20
282.8685975529
 10
240.3301865948
 20
283.3737240219
 10
240.0389286908
 20
283.8893793546
 10
239.7659983439
 20
284.413756787
 10
239.5123522875
 20
284.9450142637
 10
239.278880347
 20
285.4812948179
 10
239.0664022786
 20
286.020713795
 10
238.875662501
 20
286.5613764958
 10
238.7073311491
 20
287.1013873011
 10
238.5619977519
 20
287.6388533221
 10
238.4401722862
 20
288.1718886586
 10
238.3422830696
 20
288.6986204828
 10
238.2686720181
 20
289.2172063774
 10
238.2195988619
 20
289.7258270352
 10
238.1952342956
 20
290.2226902133
 10
238.1956652471
 20
290.7060617603
 10
238.2208885555
 20
291.1742449312
 10
238.2708172927
 20
291.6255913384
 10
238.3452754958
 20
292.0585234611
 10
238.4440018543
 20
292.4715179156
 10
238.5666507639
 20
292.8631291816
 10
238.7127912733
 20
293.2319853435
 10
238.8819107713
 20
293.5767908288
 10
239.0734165679
 20
293.8963352291
 10
239.2866364208
 20
294.1894978631
 10
239.5208222236
 20
294.4552456479
 10
239.7751531662
 20
294.6926556087
 10
239.9227782983
 20
294.8104490408
  0
ARC
  5
3E9
330
1F
100
AcDbEntity
  8
0
  6
Continuous
 62
     7
370
    25
100
AcDbCircle
 10
248.5063299002
 20
280.8322162332
 30
0.0
 40
3.580475706974547
100
AcDbArc
 50
275.8240875422
 51
292.8541708013
  0
LINE
  5
3EA
330
1F
100
AcDbEntity
  8
0
  6
Continuous
 62
     7
370
    25
100
AcDbLine
 10
241.6571680029
 20
281.4339037468
 30
0.0
 11
240.9500597887
 21
281.0256988637
 31
0.0
  0
LINE
  5
3EB
330
1F
100
AcDbEntity
  8
0
  6
Continuous
 62
     7
370
    25
100
AcDbLine
 10
241.6571680029
 20
280.7004427636
 30
0.0
 11
241.6571680029
 21
281.4339037468
 31
0.0
  0
LINE
  5
3EC
330
1F
100
AcDbEntity
  8
0
  6
Continuous
 62
     7
370
    25
100
AcDbLine
 10
241.6571680029
 20
280.7004427636
 30
0.0
 11
248.2343910229
 21
276.9034927345
 31
0.0
  0
LWPOLYLINE
  5
3ED
330
1F
100
AcDbEntity
  8
0
  6
Continuous
 62
     7
370
    25
100
AcDbPolyline
 90
       22
 70
   128
 43
0.0
 10
317.0351206907
 20
298.4179693086
 10
317.0224639921
 20
298.9781505799
 10
316.9845233991
 20
299.5222318783
 10
316.9214042788
 20
300.0487701394
 10
316.8332710038
 20
300.5563709631
 10
316.7203574893
 20
301.0436849621
 10
316.5829629779
 20
301.5094247967
 10
316.421454147
 20
301.9523517905
 10
316.23625668
 20
302.3712905322
 10
316.0278615875
 20
302.7651325249
 10
315.7968231007
 20
303.13283497
 10
315.5437544562
 20
303.4734183337
 10
315.2693236815
 20
303.7859785151
 10
314.9742620244
 20
304.0696917121
 10
314.6593492017
 20
304.3238059058
 10
314.3254218283
 20
304.5476408597
 10
313.973364988
 20
304.7406075884
 10
313.6041122335
 20
304.9021986234
 10
313.2186413717
 20
305.0319758463
 10
312.8179776247
 20
305.1296015153
 10
312.4031820394
 20
305.1948121067
 10
312.1365357876
 20
305.2190794671
  0
LWPOLYLINE
  5
3EE
330
1F
100
AcDbEntity
  8
0
  6
Continuous
 62
     7
370
    25
100
AcDbPolyline
 90
       89
 70
   128
 43
0.0
 10
311.0950544971
 20
287.9651678871
 10
311.4488161774
 20
288.4282492929
 10
311.7886862564
 20
288.9070376901
 10
312.1134719784
 20
289.3998613891
 10
312.4220353784
 20
289.9049878581
 10
312.7132932824
 20
290.4206431907
 10
312.9862246829
 20
290.9450212315
 10
313.2398707393
 20
291.4762787082
 10
313.4733410993
 20
292.0125583499
 10
313.6858202214
 20
292.5519779353
 10
313.876559999
 20
293.0926406361
 10
314.0448924046
 20
293.6326520497
 10
314.190225275
 20
294.1701177665
 10
314.3120507406
 20
294.703153103
 10
314.4099389036
 20
295.229884319
 10
314.4835504819
 20
295.7484705177
 10
314.5326241649
 20
296.2570914796
 10
314.5569871507
 20
296.7539537453
 10
314.5565572529
 20
297.2373259007
 10
314.5313344714
 20
297.7055093757
 10
314.4814052073
 20
298.1568554787
 10
314.4069464774
 20
298.5897872973
 10
314.3082195921
 20
299.0027814476
 10
314.1855722629
 20
299.394393626
 10
314.039430173
 20
299.7632488756
 10
313.8703117287
 20
300.1080549691
 10
313.6788048784
 20
300.4275987611
 10
313.4655860792
 20
300.7207620034
 10
313.2313992227
 20
300.9865091799
 10
312.9770693338
 20
301.223919749
 10
312.7034867644
 20
301.4321546844
 10
312.4116103554
 20
301.610482635
 10
312.1024653289
 20
301.7582787084
 10
311.7771359126
 20
301.8750250796
 10
311.4367632324
 20
301.9603146418
 10
311.0825421514
 20
302.0138443146
 10
310.7157138944
 20
302.0354253866
 10
310.3375660475
 20
302.0249835159
 10
309.9494241292
 20
301.9825587304
 10
309.55265159
 20
301.9083005615
 10
309.1486382222
 20
301.8024613523
 10
308.7388033209
 20
301.6654224178
 10
308.3245830401
 20
301.4976575438
 10
307.9074303923
 20
301.2997524546
 10
307.4888099805
 20
301.0724115054
 10
307.0701895686
 20
300.816423615
 10
306.6530369208
 20
300.532694509
 10
306.23881664
 20
300.2222108265
 10
305.8289806851
 20
299.8860638477
 10
305.4249683709
 20
299.5254397597
 10
305.028194778
 20
299.1415934976
 10
304.6400539134
 20
298.7358797714
 10
304.2619060665
 20
298.3097214314
 10
303.8950778095
 20
297.8646094689
 10
303.5408562017
 20
297.4021045372
 10
303.2004835215
 20
296.9238290433
 10
302.8751541052
 20
296.4314653233
 10
302.5660096055
 20
295.926738304
 10
302.2741337234
 20
295.4114173288
 10
302.0005501003
 20
294.887310074
 10
301.7462196845
 20
294.3562561614
 10
301.5120338818
 20
293.8201232041
 10
301.2988140288
 20
293.2807821679
 10
301.1073082322
 20
292.7401298813
 10
300.9381887342
 20
292.2000631799
 10
300.7920482248
 20
291.6624767773
 10
300.6693993152
 20
291.1292580944
 10
300.5706729567
 20
290.6022766127
 10
300.4962147536
 20
290.0833768786
 10
300.4462860164
 20
289.5743839785
 10
300.4210621812
 20
289.0770782916
 10
300.4206317565
 20
288.5932094826
 10
300.4449963228
 20
288.1244770339
 10
300.494069479
 20
287.6725150363
 10
300.5676805305
 20
287.2389186527
 10
300.6655697471
 20
286.8252073123
 10
300.7873952128
 20
286.4328286645
 10
300.9327280831
 20
286.0631607081
 10
301.1010599619
 20
285.717501449
 10
301.2917997395
 20
285.3970622079
 10
301.504277808
 20
285.1029651866
 10
301.7377492216
 20
284.8362452931
 10
301.991395278
 20
284.5978413195
 10
302.2643261517
 20
284.3885828622
 10
302.5555840557
 20
284.2092067476
 10
302.8641474557
 20
284.0603399971
 10
303.1889337045
 20
283.9425062149
 10
303.5288037835
 20
283.8561234583
 10
303.8825654638
 20
283.8014865947
  0
LINE
  5
3EF
330
1F
100
AcDbEntity
  8
0
  6
Continuous
 62
     7
370
    25
100
AcDbLine
 10
303.8825654638
 20
283.8014865947
 30
0.0
 11
303.8825654638
 21
282.9048947623
 31
0.0
  0
LINE
  5
3F0
330
1F
100
AcDbEntity
  8
0
  6
Continuous
 62
     7
370
    25
100
AcDbLine
 10
299.0035285325
 20
280.088286695
 30
0.0
 11
303.8825654638
 21
282.9048947623
 31
0.0
  0
LINE
  5
3F1
330
1F
100
AcDbEntity
  8
0
  6
Continuous
 62
     7
370
    25
100
AcDbLine
 10
317.0351206907
 20
290.4977032773
 30
0.0
 11
317.0351206907
 21
298.4179693086
 31
0.0
  0
LINE
  5
3F2
330
1F
100
AcDbEntity
  8
0
  6
Continuous
 62
     7
370
    25
100
AcDbLine
 10
311.0950544971
 20
287.0685760547
 30
0.0
 11
317.0351206907
 21
290.4977032773
 31
0.0
  0
LINE
  5
3F3
330
1F
100
AcDbEntity
  8
0
  6
Continuous
 62
     7
370
    25
100
AcDbLine
 10
311.0950544971
 20
287.0685760547
 30
0.0
 11
311.0950544971
 21
287.9651678871
 31
0.0
  0
LINE
  5
3F4
330
1F
100
AcDbEntity
  8
0
  6
Continuous
 62
     7
370
    25
100
AcDbLine
 10
293.2232797639
 20
273.8933764541
 30
0.0
 11
292.9934904043
 21
276.6187655344
 31
0.0
  0
LINE
  5
3F5
330
1F
100
AcDbEntity
  8
0
  6
Continuous
 62
     7
370
    25
100
AcDbLine
 10
293.2232797639
 20
273.8933764541
 30
0.0
 11
297.5893143431
 21
273.3114823213
 31
0.0
  0
SPLINE
  5
3F6
330
1F
100
AcDbEntity
  8
0
  6
Continuous
 62
     7
370
    25
100
AcDbSpline
210
0.0
220
0.0
230
1.0
 70
     8
 71
     3
 72
    27
 73
    23
 74
     0
 42
0.000000001
 43
0.00000001
 40
0.0
 40
0.0
 40
0.0
 40
0.0
 40
0.0176668630101382
 40
0.0721291237915685
 40
0.1250565858620539
 40
0.1795191666607118
 40
0.2324464699101001
 40
0.28690904577855
 40
0.339836539156423
 40
0.3942988572398547
 40
0.4472266154424404
 40
0.5016890931828378
 40
0.5546163786639703
 40
0.6090792744235713
 40
0.6620064963655644
 40
0.7164688070528719
 40
0.7693960636765548
 40
0.8238590628114336
 40
0.8767865466788507
 40
0.9312489704435678
 40
0.9841767037644162
 40
1.0
 40
1.0
 40
1.0
 40
1.0
 10
228.6179087731961
 20
303.8570649927272
 30
0.0
 10
228.600276883673
 20
303.8449360013485
 30
0.0
 10
228.5282905473685
 20
303.7954165410958
 30
0.0
 10
228.3749885126919
 20
303.7600425072856
 30
0.0
 10
228.1626824356844
 20
303.7536527976746
 30
0.0
 10
227.9351270485312
 20
303.8024111972976
 30
0.0
 10
227.6970994308383
 20
303.9015210326926
 30
0.0
 10
227.4588486997555
 20
304.0474584744699
 30
0.0
 10
227.2230447301344
 20
304.2384551396289
 30
0.0
 10
227.0006615262053
 20
304.4657855177417
 30
0.0
 10
226.7940314059281
 20
304.727118297132
 30
0.0
 10
226.612611140125
 20
305.0102871920383
 30
0.0
 10
226.4582131491085
 20
305.3123437605587
 30
0.0
 10
226.3380483734965
 20
305.6193307589837
 30
0.0
 10
226.2534317198784
 20
305.9281428426173
 30
0.0
 10
226.2082857423992
 20
306.2244465484457
 30
0.0
 10
226.2029365381543
 20
306.5052300104665
 30
0.0
 10
226.2378125277503
 20
306.757149620867
 30
0.0
 10
226.3119171632015
 20
306.9789239132371
 30
0.0
 10
226.4245195862933
 20
307.1555494534321
 30
0.0
 10
226.5310366032709
 20
307.2677768006354
 30
0.0
 10
226.606717106235
 20
307.3026739739893
 30
0.0
 10
226.6241352456488
 20
307.3107056837008
 30
0.0
  0
LINE
  5
3F7
330
1F
100
AcDbEntity
  8
0
  6
Continuous
 62
     7
370
    25
100
AcDbLine
 10
287.0534236838
 20
273.1896380077
 30
0.0
 11
287.0448615516
 21
273.3577116707
 31
0.0
  0
LINE
  5
3F8
330
1F
100
AcDbEntity
  8
0
  6
Continuous
 62
     7
370
    25
100
AcDbLine
 10
287.0448615516
 20
273.3577116707
 30
0.0
 11
286.3463154697
 21
273.7609737401
 31
0.0
  0
LINE
  5
3F9
330
1F
100
AcDbEntity
  8
0
  6
Continuous
 62
     7
370
    25
100
AcDbLine
 10
310.3879462829
 20
288.3733727703
 30
0.0
 11
311.0950544971
 21
287.9651678871
 31
0.0
  0
LWPOLYLINE
  5
3FA
330
1F
100
AcDbEntity
  8
0
  6
Continuous
 62
     7
370
    25
100
AcDbPolyline
 90
       31
 70
   128
 43
0.0
 10
310.3879462829
 20
288.3733727703
 10
310.7417079632
 20
288.836454176
 10
311.0815780423
 20
289.3152425733
 10
311.4063637642
 20
289.8080662723
 10
311.7149271642
 20
290.3131927412
 10
312.0061850682
 20
290.8288480739
 10
312.2791164688
 20
291.3532261146
 10
312.5327625251
 20
291.8844835914
 10
312.7662328851
 20
292.4207632331
 10
312.9787120072
 20
292.9601828185
 10
313.1694517848
 20
293.5008455193
 10
313.3377841904
 20
294.0408569329
 10
313.4831170608
 20
294.5783226497
 10
313.6049425264
 20
295.1113579862
 10
313.7028306894
 20
295.6380892022
 10
313.7764422677
 20
296.1566754008
 10
313.8255159508
 20
296.6652963628
 10
313.8498789365
 20
297.1621586285
 10
313.8494490387
 20
297.6455307838
 10
313.8242262572
 20
298.1137142588
 10
313.7742969931
 20
298.5650603618
 10
313.6998382632
 20
298.9979921804
 10
313.6011113779
 20
299.4109863308
 10
313.4784640487
 20
299.8025985092
 10
313.3323219588
 20
300.1714537587
 10
313.1632035145
 20
300.5162598523
 10
312.9716966642
 20
300.8358036443
 10
312.758477865
 20
301.1289668866
 10
312.5242910086
 20
301.3947140631
 10
312.2699611196
 20
301.6321246321
 10
312.1223365143
 20
301.7499183684
  0
ARC
  5
3FB
330
1F
100
AcDbEntity
  8
0
  6
Continuous
 62
     7
370
    25
100
AcDbCircle
 10
303.5387843857
 20
287.7716852567
 30
0.0
 40
3.580475707016282
100
AcDbArc
 50
247.1458291988
 51
264.1759124577
  0
LINE
  5
3FC
330
1F
100
AcDbEntity
  8
0
  6
Continuous
 62
     7
370
    25
100
AcDbLine
 10
303.1754572497
 20
284.2096914779
 30
0.0
 11
303.8825654638
 21
283.8014865947
 31
0.0
  0
LINE
  5
3FD
330
1F
100
AcDbEntity
  8
0
  6
Continuous
 62
     7
370
    25
100
AcDbLine
 10
310.3879462829
 20
287.6399117871
 30
0.0
 11
310.3879462829
 21
288.3733727703
 31
0.0
  0
LINE
  5
3FE
330
1F
100
AcDbEntity
  8
0
  6
Continuous
 62
     7
370
    25
100
AcDbLine
 10
303.8107229995
 20
283.8429616059
 30
0.0
 11
310.3879462829
 21
287.6399117871
 31
0.0
  0
LINE
  5
3FF
330
1F
100
AcDbEntity
  8
0
  6
Continuous
 62
     7
370
    25
100
AcDbLine
 10
234.7802037087
 20
280.8328454776
 30
0.0
 11
230.4141695246
 21
280.2509511167
 31
0.0
  0
LINE
  5
400
330
1F
100
AcDbEntity
  8
0
  6
Continuous
 62
     7
370
    25
100
AcDbLine
 10
234.7802037087
 20
280.8328454776
 30
0.0
 11
235.0099935951
 21
283.5582342538
 31
0.0
  0
LINE
  5
401
330
1F
100
AcDbEntity
  8
0
  6
Continuous
 62
     7
370
    25
100
AcDbLine
 10
240.9500597887
 20
280.1291070312
 30
0.0
 11
240.958621921
 21
280.2971806942
 31
0.0
  0
LINE
  5
402
330
1F
100
AcDbEntity
  8
0
  6
Continuous
 62
     7
370
    25
100
AcDbLine
 10
240.958621921
 20
280.2971806942
 30
0.0
 11
241.6571680029
 21
280.7004427636
 31
0.0
  0
LINE
  5
403
330
1F
100
AcDbEntity
  8
0
  6
Continuous
 62
     7
370
    25
100
AcDbLine
 10
317.2649095235
 20
287.7723138928
 30
0.0
 11
317.0351206907
 21
290.4977032773
 31
0.0
  0
LINE
  5
404
330
1F
100
AcDbEntity
  8
0
  6
Continuous
 62
     7
370
    25
100
AcDbLine
 10
317.2649095235
 20
287.7723138928
 30
0.0
 11
321.6309458149
 21
287.1904207485
 31
0.0
  0
LINE
  5
405
330
1F
100
AcDbEntity
  8
0
  6
Continuous
 62
     7
370
    25
100
AcDbLine
 10
311.0950544971
 20
287.0685760547
 30
0.0
 11
311.0864923648
 21
287.2366497177
 31
0.0
  0
LINE
  5
406
330
1F
100
AcDbEntity
  8
0
  6
Continuous
 62
     7
370
    25
100
AcDbLine
 10
311.0864923648
 20
287.2366497177
 30
0.0
 11
310.3879462829
 21
287.6399117871
 31
0.0
  0
LINE
  5
407
330
1F
100
AcDbEntity
  8
0
  6
Continuous
 62
     7
370
    25
100
AcDbLine
 10
274.9618985095
 20
262.6980449372
 30
0.0
 11
294.1426333169
 21
273.7708474503
 31
0.0
  0
LINE
  5
408
330
1F
100
AcDbEntity
  8
0
  6
Continuous
 62
     7
370
    25
100
AcDbLine
 10
299.0035285325
 20
276.5769825279
 30
0.0
 11
318.1842629447
 21
287.6497848129
 31
0.0
  0
LINE
  5
409
330
1F
100
AcDbEntity
  8
0
  6
Continuous
 62
     7
370
    25
100
AcDbLine
 10
233.8608502874
 20
280.7103163977
 30
0.0
 11
253.0415854899
 21
269.6375136565
 31
0.0
  0
LINE
  5
40A
330
1F
100
AcDbEntity
  8
0
  6
Continuous
 62
     7
370
    25
100
AcDbLine
 10
326.5806927775
 20
289.2313088147
 30
0.0
 11
325.8734707668
 21
289.6395793912
 31
0.0
  0
LINE
  5
40B
330
1F
100
AcDbEntity
  8
0
  6
Continuous
 62
     7
370
    25
100
AcDbLine
 10
270.0121494396
 20
256.5749838552
 30
0.0
 11
326.5806927775
 21
289.2313088147
 31
0.0
  0
LINE
  5
40C
330
1F
100
AcDbEntity
  8
0
  6
Continuous
 62
     7
370
    25
100
AcDbLine
 10
213.4436061017
 20
289.2313088147
 30
0.0
 11
270.0121494396
 21
256.5749838552
 31
0.0
  0
LINE
  5
40D
330
1F
100
AcDbEntity
  8
0
  6
Continuous
 62
     7
370
    25
100
AcDbLine
 10
214.1508281124
 20
289.6395793912
 30
0.0
 11
213.4436061017
 21
289.2313088147
 31
0.0
  0
LWPOLYLINE
  5
40E
330
1F
100
AcDbEntity
  8
0
  6
Continuous
 62
     7
370
    25
100
AcDbPolyline
 90
       68
 70
   128
 43
0.0
 10
230.4141695246
 20
262.2870533526
 10
230.4266038985
 20
262.8922460974
 10
230.4638817324
 20
263.4817488695
 10
230.5259197861
 20
264.0542713077
 10
230.6125831896
 20
264.608547989
 10
230.7236791213
 20
265.1433664133
 10
230.8589652367
 20
265.6575499697
 10
231.0181444004
 20
266.1499658448
 10
231.2008646865
 20
266.6195323231
 10
231.4067256997
 20
267.0652200045
 10
231.6352754151
 20
267.4860463285
 10
231.8860101779
 20
267.8810853083
 10
232.1583799717
 20
268.2494717897
 10
232.4517863113
 20
268.5903953672
 10
232.7655822425
 20
268.9031052512
 10
233.0990802449
 20
269.1869130061
 10
233.4515453828
 20
269.4411965044
 10
233.8222042615
 20
269.6653971895
 10
234.2102413395
 20
269.859022205
 10
234.61480367
 20
270.0216440906
 10
235.0350019545
 20
270.1529074747
 10
235.4699131769
 20
270.2525226864
 10
235.9185806039
 20
270.3202706226
 10
236.3800179991
 20
270.3560027483
 10
236.8532112041
 20
270.3596401846
 10
237.3371197184
 20
270.3311752291
 10
237.8306801245
 20
270.2706693795
 10
238.3328076678
 20
270.1782597216
 10
238.8423981008
 20
270.0541432636
 10
239.3583316346
 20
269.8985965571
 10
239.8794738603
 20
269.7119629965
 10
240.4046793056
 20
269.4946483334
 10
240.9327934761
 20
269.2471340988
 10
241.462655325
 20
268.9699615761
 10
241.9931002163
 20
268.6637422585
 10
242.5229620652
 20
268.3291493122
 10
243.0510762357
 20
267.9669159044
 10
243.5762816811
 20
267.5778412676
 10
244.0974239068
 20
267.1627768219
 10
244.6133574405
 20
266.7226393499
 10
245.1229478736
 20
266.2583952174
 10
245.6250754169
 20
265.7710607541
 10
246.1186358229
 20
265.2617138884
 10
246.6025443373
 20
264.7314699658
 10
247.0757375422
 20
264.1814952842
 10
247.5371749374
 20
263.6129988821
 10
247.9858423644
 20
263.0272305611
 10
248.4207535868
 20
262.4254775403
 10
248.8409518713
 20
261.8090635437
 10
249.2455142018
 20
261.1793439337
 10
249.6335512798
 20
260.5377008443
 10
250.0042101586
 20
259.8855465271
 10
250.3566752965
 20
259.2243154427
 10
250.6901732988
 20
258.5554590902
 10
251.0039692301
 20
257.8804481358
 10
251.2973755696
 20
257.2007648093
 10
251.5697453635
 20
256.5179068578
 10
251.8204801263
 20
255.8333756828
 10
252.0490298417
 20
255.1486714742
 10
252.2548908549
 20
254.4653017261
 10
252.4376111409
 20
253.7847708961
 10
252.5967903047
 20
253.1085706705
 10
252.73207642
 20
252.43818909
 10
252.8431723517
 20
251.7751020333
 10
252.9298357553
 20
251.1207659161
 10
252.991873809
 20
250.4766158658
 10
253.0291516428
 20
249.8440730228
 10
253.0415860168
 20
249.2245238554
  0
LINE
  5
40F
330
1F
100
AcDbEntity
  8
0
  6
Continuous
 62
     7
370
    25
100
AcDbLine
 10
230.4141695246
 20
251.6720244042
 30
0.0
 11
230.4141695246
 21
262.2870533526
 31
0.0
  0
LINE
  5
410
330
1F
100
AcDbEntity
  8
0
  6
Continuous
 62
     7
370
    25
100
AcDbLine
 10
213.4436061017
 20
261.4689221353
 30
0.0
 11
230.4141695246
 21
251.6720244042
 31
0.0
  0
LINE
  5
411
330
1F
100
AcDbEntity
  8
0
  6
Continuous
 62
     7
370
    25
100
AcDbLine
 10
213.4436061017
 20
289.2313088147
 30
0.0
 11
213.4436061017
 21
261.4689221353
 31
0.0
  0
LINE
  5
412
330
1F
100
AcDbEntity
  8
0
  6
Continuous
 62
     7
370
    25
100
AcDbLine
 10
270.0121494396
 20
256.5749838552
 30
0.0
 11
270.0121494396
 21
228.8125971758
 31
0.0
  0
LINE
  5
413
330
1F
100
AcDbEntity
  8
0
  6
Continuous
 62
     7
370
    25
100
AcDbLine
 10
253.0415860168
 20
238.609494907
 30
0.0
 11
270.0121494396
 21
228.8125971758
 31
0.0
  0
LINE
  5
414
330
1F
100
AcDbEntity
  8
0
  6
Continuous
 62
     7
370
    25
100
AcDbLine
 10
253.0415860168
 20
249.2245238554
 30
0.0
 11
253.0415860168
 21
238.609494907
 31
0.0
  0
LWPOLYLINE
  5
415
330
1F
100
AcDbEntity
  8
0
  6
Continuous
 62
     7
370
    25
100
AcDbPolyline
 90
       48
 70
   128
 43
0.0
 10
226.1715286689
 20
277.800932917
 10
226.1841474353
 20
278.0113158557
 10
226.2217771953
 20
278.2033764191
 10
226.2837467604
 20
278.3736863775
 10
226.3689508293
 20
278.5192068174
 10
226.4758679009
 20
278.637343505
 10
226.602591884
 20
278.7259821748
 10
226.7468594928
 20
278.7835457183
 10
226.9060966085
 20
278.8090063568
 10
227.0774625335
 20
278.801906329
 10
227.2578984604
 20
278.7623785812
 10
227.4441854235
 20
278.6911230454
 10
227.6329980364
 20
278.5894121204
 10
227.8209677124
 20
278.4590639089
 10
228.0047395623
 20
278.3024020708
 10
228.1810335076
 20
278.1222229765
 10
228.3467053934
 20
277.9217409598
 10
228.4987975646
 20
277.7045347858
 10
228.6345968179
 20
277.474480127
 10
228.7516786557
 20
277.2356802137
 10
228.8479547017
 20
276.992399526
 10
228.9217064183
 20
276.7489786246
 10
228.97161777
 20
276.5097617586
 10
228.9967973509
 20
276.2790159537
 10
228.9967973509
 20
276.0608616599
 10
228.97161777
 20
275.8591875803
 10
228.9217064183
 20
275.6775971343
 10
228.8479547017
 20
275.5193281524
 10
228.7516786557
 20
275.3872054213
 10
228.6345968179
 20
275.2835877541
 10
228.4987975646
 20
275.2103211423
 10
228.3467053934
 20
275.1687168513
 10
228.1810335076
 20
275.1595155224
 10
228.0047395623
 20
275.1828810848
 10
227.8209677124
 20
275.2383977082
 10
227.6329980364
 20
275.3250746652
 10
227.4441854235
 20
275.4413621429
 10
227.2578984604
 20
275.5851889565
 10
227.0774625335
 20
275.7539880954
 10
226.9060966085
 20
275.9447429533
 10
226.7468594928
 20
276.1540548521
 10
226.602591884
 20
276.3781862313
 10
226.4758679009
 20
276.6131372975
 10
226.3689508293
 20
276.8547178085
 10
226.2837467604
 20
277.0986127725
 10
226.2217771953
 20
277.3404712677
 10
226.1841474353
 20
277.5759782272
 10
226.1715286689
 20
277.800932917
  0
LWPOLYLINE
  5
416
330
1F
100
AcDbEntity
  8
0
  6
Continuous
 62
     7
370
    25
100
AcDbPolyline
 90
       48
 70
   128
 43
0.0
 10
254.4558003378
 20
261.4727704372
 10
254.4684180506
 20
261.6831539842
 10
254.5060478106
 20
261.8752145476
 10
254.5680173756
 20
262.045524506
 10
254.6532214446
 20
262.1910449459
 10
254.7601395699
 20
262.3091810253
 10
254.8868624993
 20
262.3978203033
 10
255.0311301081
 20
262.4553838468
 10
255.1903682774
 20
262.480843877
 10
255.3617342025
 20
262.4737438492
 10
255.5421701293
 20
262.4342161014
 10
255.7284570924
 20
262.3629605656
 10
255.9172697054
 20
262.2612496406
 10
256.1052383277
 20
262.1309020374
 10
256.2890101776
 20
261.9742401993
 10
256.4653051765
 20
261.7940604967
 10
256.6309770623
 20
261.5935784801
 10
256.7830692335
 20
261.376372306
 10
256.9188674331
 20
261.1463182555
 10
257.0359503246
 20
260.907517734
 10
257.132225317
 20
260.6642376545
 10
257.2059770335
 20
260.4208167531
 10
257.2558883852
 20
260.1815998871
 10
257.2810690199
 20
259.9508534739
 10
257.2810690199
 20
259.7326991801
 10
257.2558883852
 20
259.5310257088
 10
257.2059770335
 20
259.3494352628
 10
257.132225317
 20
259.1911662809
 10
257.0359503246
 20
259.0590429416
 10
256.9188674331
 20
258.9554258827
 10
256.7830692335
 20
258.8821586625
 10
256.6309770623
 20
258.8405543715
 10
256.4653051765
 20
258.8313530427
 10
256.2890101776
 20
258.8547192134
 10
256.1052383277
 20
258.9102358367
 10
255.9172697054
 20
258.9969121854
 10
255.7284570924
 20
259.1131996631
 10
255.5421701293
 20
259.2570264768
 10
255.3617342025
 20
259.4258256157
 10
255.1903682774
 20
259.6165804735
 10
255.0311301081
 20
259.8258929806
 10
254.8868624993
 20
260.0500243598
 10
254.7601395699
 20
260.2849748178
 10
254.6532214446
 20
260.526555937
 10
254.5680173756
 20
260.770450901
 10
254.5060478106
 20
261.0123093962
 10
254.4684180506
 20
261.2478163557
 10
254.4558003378
 20
261.4727704372
  0
LINE
  5
417
330
1F
100
AcDbEntity
  8
0
  6
Continuous
 62
     7
370
    25
100
AcDbLine
 10
299.0035278739
 20
256.1639926508
 30
0.0
 11
299.0035278739
 21
245.5489637024
 31
0.0
  0
LINE
  5
418
330
1F
100
AcDbEntity
  8
0
  6
Continuous
 62
     7
370
    25
100
AcDbLine
 10
297.5893143431
 20
244.7325556088
 30
0.0
 11
299.0035278739
 21
245.5489637024
 31
0.0
  0
LINE
  5
419
330
1F
100
AcDbEntity
  8
0
  6
Continuous
 62
     7
370
    25
100
AcDbLine
 10
297.5893143431
 20
244.7325556088
 30
0.0
 11
297.5893143431
 21
255.3475845572
 31
0.0
  0
LWPOLYLINE
  5
41A
330
1F
100
AcDbEntity
  8
0
  6
Continuous
 62
     7
370
    25
100
AcDbPolyline
 90
       68
 70
   128
 43
0.0
 10
297.5893143431
 20
255.3475845572
 10
297.5768793106
 20
255.9527769219
 10
297.5396016743
 20
256.542279808
 10
297.4775633573
 20
257.1148020941
 10
297.3909006781
 20
257.6690791936
 10
297.2798041537
 20
258.2038972758
 10
297.1445179725
 20
258.7180807941
 10
296.985339599
 20
259.2104971254
 10
296.8026189178
 20
259.6800633756
 10
296.5967576412
 20
260.125750905
 10
296.3682081892
 20
260.5465773811
 10
296.1174728996
 20
260.9416160568
 10
295.8451032375
 20
261.3100026141
 10
295.5516976881
 20
261.6509266479
 10
295.2379012301
 20
261.9636362277
 10
294.9044034911
 20
262.2474441347
 10
294.5519380898
 20
262.5017274809
 10
294.1812794745
 20
262.7259283181
 10
293.7932421331
 20
262.9195531815
 10
293.3886798026
 20
263.0821750671
 10
292.9684815181
 20
263.2134384512
 10
292.5335702957
 20
263.3130536629
 10
292.0849033955
 20
263.3808019032
 10
291.6234660003
 20
263.416534029
 10
291.1502727954
 20
263.4201714652
 10
290.6663637542
 20
263.3917062056
 10
290.1728036115
 20
263.3312005081
 10
289.6706760682
 20
263.2387908501
 10
289.1610853718
 20
263.1146742401
 10
288.6451521014
 20
262.9591276856
 10
288.1240094806
 20
262.772493897
 10
287.5988039036
 20
262.5551791579
 10
287.070690194
 20
262.3076651893
 10
286.5408284439
 20
262.0304927237
 10
286.0103829599
 20
261.7242730639
 10
285.4805212098
 20
261.3896801746
 10
284.9524075003
 20
261.0274470329
 10
284.4272019232
 20
260.6383723201
 10
283.9060593024
 20
260.2233076463
 10
283.3901260321
 20
259.7831703264
 10
282.8805358624
 20
259.318926346
 10
282.3784077923
 20
258.8315915785
 10
281.8848481765
 20
258.3222451691
 10
281.4009391353
 20
257.7920009423
 10
280.9277459304
 20
257.2420262607
 10
280.4663085351
 20
256.6735298586
 10
280.0176405814
 20
256.0877612335
 10
279.5827293589
 20
255.4860082127
 10
279.1625316013
 20
254.8695945202
 10
278.7579703245
 20
254.2398755185
 10
278.3699327196
 20
253.598232125
 10
277.9992743677
 20
252.9460781119
 10
277.646808703
 20
252.2848467234
 10
277.3133112274
 20
251.615990675
 10
276.9995131889
 20
250.9409785041
 10
276.7061079029
 20
250.2612957859
 10
276.4337381091
 20
249.5784378343
 10
276.1830044
 20
248.8939072676
 10
275.9544546846
 20
248.209203059
 10
275.7485926177
 20
247.5258327026
 10
275.565871278
 20
246.8453012643
 10
275.4066931679
 20
246.169101647
 10
275.2714081062
 20
245.4987206748
 10
275.1603111209
 20
244.8356330098
 10
275.073648771
 20
244.1812975008
 10
275.0116107173
 20
243.5371474506
 10
274.9743318298
 20
242.9046039993
 10
274.9618964021
 20
242.2850542236
  0
LINE
  5
41B
330
1F
100
AcDbEntity
  8
0
  6
Continuous
 62
     7
370
    25
100
AcDbLine
 10
274.9618964021
 20
242.2850542236
 30
0.0
 11
274.9618964021
 21
231.6700252752
 31
0.0
  0
LINE
  5
41C
330
1F
100
AcDbEntity
  8
0
  6
Continuous
 62
     7
370
    25
100
AcDbLine
 10
270.0121494396
 20
228.8125971758
 30
0.0
 11
274.9618964021
 21
231.6700252752
 31
0.0
  0
LINE
  5
41D
330
1F
100
AcDbEntity
  8
0
  6
Continuous
 62
     7
370
    25
100
AcDbLine
 10
326.5806927775
 20
289.2313088147
 30
0.0
 11
326.5806927775
 21
261.4689221353
 31
0.0
  0
LINE
  5
41E
330
1F
100
AcDbEntity
  8
0
  6
Continuous
 62
     7
370
    25
100
AcDbLine
 10
321.6309458149
 20
258.6114940359
 30
0.0
 11
326.5806927775
 21
261.4689221353
 31
0.0
  0
LINE
  5
41F
330
1F
100
AcDbEntity
  8
0
  6
Continuous
 62
     7
370
    25
100
AcDbLine
 10
321.6309458149
 20
258.6114940359
 30
0.0
 11
321.6309458149
 21
269.2265229843
 31
0.0
  0
LWPOLYLINE
  5
420
330
1F
100
AcDbEntity
  8
0
  6
Continuous
 62
     7
370
    25
100
AcDbPolyline
 90
       68
 70
   128
 43
0.0
 10
321.6309458149
 20
269.2265229843
 10
321.6185103873
 20
269.8317151209
 10
321.5812314998
 20
270.4212172847
 10
321.5191934461
 20
270.9937397229
 10
321.4325310962
 20
271.5480170125
 10
321.3214341109
 20
272.0828348285
 10
321.1861490492
 20
272.5970189932
 10
321.026970939
 20
273.0894354765
 10
320.8442495994
 20
273.5590013466
 10
320.6383875325
 20
274.0046884197
 10
320.4098378171
 20
274.4255147438
 10
320.1591041079
 20
274.8205543318
 10
319.8867343141
 20
275.1889408132
 10
319.5933290282
 20
275.529864999
 10
319.2795309896
 20
275.8425736664
 10
318.9460335141
 20
276.1263817255
 10
318.5935678494
 20
276.3806649196
 10
318.2229094975
 20
276.6048659089
 10
317.8348718926
 20
276.7984906202
 10
317.4303106158
 20
276.9611131141
 10
317.0101128582
 20
277.0923768023
 10
316.5752016357
 20
277.191992014
 10
316.1265336819
 20
277.259739646
 10
315.6650962867
 20
277.2954717718
 10
315.1919030817
 20
277.2991092081
 10
314.7079940406
 20
277.2706439484
 10
314.2144344248
 20
277.210138555
 10
313.7123063546
 20
277.117728593
 10
313.202716185
 20
276.9936122871
 10
312.6867829146
 20
276.8380657326
 10
312.1656402938
 20
276.6514319439
 10
311.6404347168
 20
276.4341172048
 10
311.1123210072
 20
276.1866032363
 10
310.5824592571
 20
275.9094307707
 10
310.0520137732
 20
275.6032111109
 10
309.5221520231
 20
275.2686182216
 10
308.9940383135
 20
274.9063850799
 10
308.4688327365
 20
274.5173103671
 10
307.9476901156
 20
274.1022456933
 10
307.4317568453
 20
273.6621083734
 10
306.9221661488
 20
273.1978640888
 10
306.4200386055
 20
272.7105296255
 10
305.9264784629
 20
272.2011829119
 10
305.4425694217
 20
271.6709386851
 10
304.9693762168
 20
271.1209640035
 10
304.5079388215
 20
270.5524676014
 10
304.0592719214
 20
269.9666995846
 10
303.624360699
 20
269.3649465638
 10
303.2041624145
 20
268.7485325672
 10
302.799600084
 20
268.1188129572
 10
302.4115627426
 20
267.4771697157
 10
302.0409041272
 20
266.8250155506
 10
301.6884387259
 20
266.1637843141
 10
301.354940987
 20
265.4949281137
 10
301.0411445289
 20
264.8199168552
 10
300.7477389796
 20
264.1402339849
 10
300.4753693175
 20
263.4573761093
 10
300.2246340278
 20
262.7728446303
 10
299.9960845758
 20
262.0881405737
 10
299.7902232992
 20
261.4047706736
 10
299.6075026181
 20
260.7242396154
 10
299.4483242445
 20
260.048039846
 10
299.3130380633
 20
259.3776582276
 10
299.201941539
 20
258.7145708287
 10
299.1152788598
 20
258.0602351296
 10
299.0532405427
 20
257.4160849273
 10
299.0159629064
 20
256.7835421984
 10
299.0035278739
 20
256.1639926508
  0
LINE
  5
421
330
1F
100
AcDbEntity
  8
0
  6
Continuous
 62
     7
370
    25
100
AcDbLine
 10
274.9618985095
 20
265.7192218735
 30
0.0
 11
293.0328971809
 21
276.1513873516
 31
0.0
  0
LINE
  5
422
330
1F
100
AcDbEntity
  8
0
  6
Continuous
 62
     7
370
    25
100
AcDbLine
 10
299.003528269
 20
279.5981593122
 30
0.0
 11
317.0745279941
 21
290.0303253986
 31
0.0
  0
LINE
  5
423
330
1F
100
AcDbEntity
  8
0
  6
Continuous
 62
     7
370
    25
100
AcDbLine
 10
234.9705862917
 20
283.0908563751
 30
0.0
 11
253.0415860168
 21
272.6586902887
 31
0.0
  0
LWPOLYLINE
  5
424
330
1F
100
AcDbEntity
  8
0
  6
Continuous
 62
     7
370
    25
100
AcDbPolyline
 90
       22
 70
   128
 43
0.0
 10
292.9934904043
 20
255.9601036364
 10
292.9808329155
 20
256.5202844516
 10
292.9428936395
 20
257.0643665103
 10
292.8797737289
 20
257.5909043152
 10
292.7916401906
 20
258.0985049868
 10
292.6787266761
 20
258.5858214193
 10
292.5413329549
 20
259.0515592766
 10
292.3798230704
 20
259.4944856621
 10
292.1946256033
 20
259.9134244038
 10
291.9862313011
 20
260.3072668528
 10
291.7551928143
 20
260.6749668644
 10
291.5021233795
 20
261.0155497719
 10
291.2276933951
 20
261.328112843
 10
290.9326306843
 20
261.6118254317
 10
290.6177183885
 20
261.865937496
 10
290.2837910151
 20
262.0897748835
 10
289.9317336479
 20
262.2827437415
 10
289.5624808934
 20
262.4443299095
 10
289.1770116121
 20
262.5741080448
 10
288.7763473383
 20
262.6717334097
 10
288.361551753
 20
262.7369464345
 10
288.0949049744
 20
262.7612110574
  0
SPLINE
  5
425
330
1F
100
AcDbEntity
  8
0
  6
Continuous
 62
     7
370
    25
100
AcDbSpline
210
0.0
220
0.0
230
1.0
 70
     8
 71
     3
 72
    27
 73
    23
 74
     0
 42
0.000000001
 43
0.00000001
 40
0.0
 40
0.0
 40
0.0
 40
0.0
 40
0.0176663644388675
 40
0.0721288445374022
 40
0.1250563415670095
 40
0.1795188083774941
 40
0.2324463754444692
 40
0.28690875792193
 40
0.3398363247524221
 40
0.394298621521438
 40
0.4472264083595068
 40
0.5016886077348691
 40
0.5546162860206488
 40
0.6090788010722474
 40
0.6620064961807731
 40
0.7164688363338021
 40
0.7693966016243053
 40
0.8238591950955741
 40
0.876786707598326
 40
0.9312491608288257
 40
0.9841765454797312
 40
1.0
 40
1.0
 40
1.0
 40
1.0
 10
256.9021793884551
 20
258.9499727584496
 30
0.0
 10
256.8845478239198
 20
258.937844408974
 30
0.0
 10
256.8125610616339
 20
258.8883263637166
 30
0.0
 10
256.659258881496
 20
258.8529542692693
 30
0.0
 10
256.4469549241559
 20
258.8465577640583
 30
0.0
 10
256.2193978903207
 20
258.8953224872494
 30
0.0
 10
255.9813706749549
 20
258.9944292674138
 30
0.0
 10
255.7431203754771
 20
259.140373571688
 30
0.0
 10
255.5073148917409
 20
259.3313601669335
 30
0.0
 10
255.284933382931
 20
259.5586963283345
 30
0.0
 10
255.0783038405158
 20
259.8200273701742
 30
0.0
 10
254.8968812798967
 20
260.1031952080284
 30
0.0
 10
254.7424863438756
 20
260.405252129275
 30
0.0
 10
254.6223188169033
 20
260.712239472829
 30
0.0
 10
254.5377037986721
 20
261.021051676608
 30
0.0
 10
254.4925577147288
 20
261.3173567091455
 30
0.0
 10
254.4872062655284
 20
261.598141662872
 30
0.0
 10
254.5220848426876
 20
261.8500595582682
 30
0.0
 10
254.5961889698297
 20
262.0718331400601
 30
0.0
 10
254.7087899574766
 20
262.2484603823913
 30
0.0
 10
254.8153104649605
 20
262.3606813189417
 30
0.0
 10
254.8909881480365
 20
262.3955830269317
 30
0.0
 10
254.9084058609079
 20
262.4036158829044
 30
0.0
  0
LWPOLYLINE
  5
426
330
1F
100
AcDbEntity
  8
0
  6
Continuous
 62
     7
370
    25
100
AcDbPolyline
 90
       89
 70
   128
 43
0.0
 10
287.0534236838
 20
245.5073019109
 10
287.4071853642
 20
245.9703820999
 10
287.7470554432
 20
246.4491729306
 10
288.071841692
 20
246.9419945003
 10
288.380405092
 20
247.4471197525
 10
288.671662996
 20
247.9627763019
 10
288.9445938697
 20
248.4871540385
 10
289.1982399261
 20
249.0184151654
 10
289.4317113397
 20
249.5546941986
 10
289.6441894081
 20
250.0941107423
 10
289.8349291858
 20
250.6347746598
 10
290.0032610645
 20
251.1747857693
 10
290.1485939349
 20
251.7122514861
 10
290.2704194005
 20
252.2452868226
 10
290.3683086172
 20
252.7720186469
 10
290.4419196686
 20
253.2906045414
 10
290.4909928249
 20
253.7992227657
 10
290.5153573912
 20
254.2960883773
 10
290.5149269665
 20
254.7794602285
 10
290.4897031313
 20
255.2476406618
 10
290.4397743941
 20
255.6989870689
 10
290.365316191
 20
256.1319191916
 10
290.2665898325
 20
256.5449160796
 10
290.1439409228
 20
256.9365297791
 10
289.9978004135
 20
257.3053859411
 10
289.8286809155
 20
257.6501889929
 10
289.6371751189
 20
257.9697333931
 10
289.4239552659
 20
258.2628935937
 10
289.1897694632
 20
258.5286462454
 10
288.9354390474
 20
258.7660540768
 10
288.6618554243
 20
258.974288404
 10
288.3699795422
 20
259.1526166587
 10
288.0608350425
 20
259.3004130362
 10
287.7355056262
 20
259.4171594074
 10
287.395132946
 20
259.5024465362
 10
287.0409113382
 20
259.5559759048
 10
286.6740830812
 20
259.5775594103
 10
286.2959352343
 20
259.5671199731
 10
285.9077943696
 20
259.5246957959
 10
285.5110207768
 20
259.4504345852
 10
285.1070084626
 20
259.3445959843
 10
284.6971725077
 20
259.207554008
 10
284.2829522269
 20
259.0397891341
 10
283.865799579
 20
258.8418864783
 10
283.4471791672
 20
258.6145455292
 10
283.0285587554
 20
258.3585576387
 10
282.6114061076
 20
258.0748260992
 10
282.1971858268
 20
257.7643424168
 10
281.7873509255
 20
257.4281984797
 10
281.3833375577
 20
257.0675737835
 10
280.9865650185
 20
256.6837305631
 10
280.5984231002
 20
256.2780162286
 10
280.2202752533
 20
255.8518554551
 10
279.8534469963
 20
255.4067410592
 10
279.4992259153
 20
254.9442364316
 10
279.1588532351
 20
254.4659633712
 10
278.8335238188
 20
253.9735996511
 10
278.5243787923
 20
253.4688723277
 10
278.2325023833
 20
252.9535510484
 10
277.9589198139
 20
252.4294444019
 10
277.7045899249
 20
251.8983932269
 10
277.4704030685
 20
251.3622547943
 10
277.2571842693
 20
250.8229167999
 10
277.065677419
 20
250.2822639051
 10
276.8965589747
 20
249.7422002454
 10
276.7504168848
 20
249.2046129304
 10
276.6277695556
 20
248.6713927264
 10
276.5290426703
 20
248.1444085071
 10
276.4545839404
 20
247.6255084689
 10
276.4046546763
 20
247.1165152646
 10
276.3794318948
 20
246.6192126194
 10
276.379001997
 20
246.1353441146
 10
276.4033649828
 20
245.66660832
 10
276.4524386658
 20
245.21464906
 10
276.5260502441
 20
244.7810529805
 10
276.6239384071
 20
244.3673410319
 10
276.7457638727
 20
243.974962384
 10
276.8910967431
 20
243.6052944277
 10
277.0594291487
 20
243.2596354727
 10
277.2501689263
 20
242.9391950148
 10
277.4626480484
 20
242.6451010354
 10
277.6961184084
 20
242.3783817503
 10
277.9497644648
 20
242.1399741265
 10
278.2226958653
 20
241.9307159734
 10
278.5139537693
 20
241.751338642
 10
278.8225171693
 20
241.6024731082
 10
279.1473028912
 20
241.4846414554
 10
279.4871729703
 20
241.3982562653
 10
279.8409346506
 20
241.3436206184
  0
LINE
  5
427
330
1F
100
AcDbEntity
  8
0
  6
Continuous
 62
     7
370
    25
100
AcDbLine
 10
279.8409346506
 20
241.3436206184
 30
0.0
 11
279.8409346506
 21
240.447028786
 31
0.0
  0
LINE
  5
428
330
1F
100
AcDbEntity
  8
0
  6
Continuous
 62
     7
370
    25
100
AcDbLine
 10
274.9618985095
 20
237.6304211749
 30
0.0
 11
279.8409346506
 21
240.447028786
 31
0.0
  0
LINE
  5
429
330
1F
100
AcDbEntity
  8
0
  6
Continuous
 62
     7
370
    25
100
AcDbLine
 10
292.9934904043
 20
248.0398376051
 30
0.0
 11
292.9934904043
 21
255.9601036364
 31
0.0
  0
LINE
  5
42A
330
1F
100
AcDbEntity
  8
0
  6
Continuous
 62
     7
370
    25
100
AcDbLine
 10
287.0534236838
 20
244.6107100784
 30
0.0
 11
292.9934904043
 21
248.0398376051
 31
0.0
  0
LINE
  5
42B
330
1F
100
AcDbEntity
  8
0
  6
Continuous
 62
     7
370
    25
100
AcDbLine
 10
287.0534236838
 20
244.6107100784
 30
0.0
 11
287.0534236838
 21
245.5073019109
 31
0.0
  0
LINE
  5
42C
330
1F
100
AcDbEntity
  8
0
  6
Continuous
 62
     7
370
    25
100
AcDbLine
 10
286.3463154697
 20
245.915506794
 30
0.0
 11
287.0534236838
 21
245.5073019109
 31
0.0
  0
LWPOLYLINE
  5
42D
330
1F
100
AcDbEntity
  8
0
  6
Continuous
 62
     7
370
    25
100
AcDbPolyline
 90
       31
 70
   128
 43
0.0
 10
286.3463154697
 20
245.915506794
 10
286.70007715
 20
246.378586983
 10
287.039947229
 20
246.8573778137
 10
287.3647334778
 20
247.3501993834
 10
287.6732968778
 20
247.8553246356
 10
287.9645547818
 20
248.370981185
 10
288.2374856555
 20
248.8953589216
 10
288.4911317119
 20
249.4266200486
 10
288.7246031255
 20
249.9628990818
 10
288.937081194
 20
250.5023156255
 10
289.1278209716
 20
251.042979543
 10
289.2961528504
 20
251.5829906524
 10
289.4414857207
 20
252.1204563693
 10
289.5633111864
 20
252.6534917058
 10
289.661200403
 20
253.18022353
 10
289.7348114545
 20
253.6988094246
 10
289.7838846107
 20
254.2074276489
 10
289.808249177
 20
254.7042932605
 10
289.8078187523
 20
255.1876651117
 10
289.7825949171
 20
255.6558455449
 10
289.7326661799
 20
256.1071919521
 10
289.6582079768
 20
256.5401240748
 10
289.5594816183
 20
256.9531209628
 10
289.4368327087
 20
257.3447346622
 10
289.2906921993
 20
257.7135908242
 10
289.1215727013
 20
258.058393876
 10
288.9300669047
 20
258.3779382763
 10
288.7168470518
 20
258.6710984768
 10
288.482661249
 20
258.9368511286
 10
288.2283308332
 20
259.17425896
 10
288.0807057011
 20
259.2920523922
  0
ARC
  5
42E
330
1F
100
AcDbEntity
  8
0
  6
Continuous
 62
     7
370
    25
100
AcDbCircle
 10
279.4967924378
 20
245.3123912436
 30
0.0
 40
3.579018401918108
100
AcDbArc
 50
247.1422701347
 51
264.1793441214
  0
LINE
  5
42F
330
1F
100
AcDbEntity
  8
0
  6
Continuous
 62
     7
370
    25
100
AcDbLine
 10
279.1338264364
 20
241.7518255016
 30
0.0
 11
279.8409346506
 21
241.3436206184
 31
0.0
  0
LINE
  5
430
330
1F
100
AcDbEntity
  8
0
  6
Continuous
 62
     7
370
    25
100
AcDbLine
 10
286.3463154697
 20
245.1820445941
 30
0.0
 11
286.3463154697
 21
245.915506794
 31
0.0
  0
LINE
  5
431
330
1F
100
AcDbEntity
  8
0
  6
Continuous
 62
     7
370
    25
100
AcDbLine
 10
279.7690921863
 20
241.3850944129
 30
0.0
 11
286.3463154697
 21
245.1820445941
 31
0.0
  0
LWPOLYLINE
  5
432
330
1F
100
AcDbEntity
  8
0
  6
Continuous
 62
     7
370
    25
100
AcDbPolyline
 90
       22
 70
   128
 43
0.0
 10
235.0099935951
 20
262.8995723558
 10
235.0226502937
 20
263.4597536271
 10
235.0605898331
 20
264.0038355338
 10
235.1237100071
 20
264.5303731866
 10
235.211843282
 20
265.0379740103
 10
235.3247567965
 20
265.5252904428
 10
235.4621502543
 20
265.9910284522
 10
235.6236601388
 20
266.4339548377
 10
235.8088581327
 20
266.8528932752
 10
236.0172521715
 20
267.2467358763
 10
236.2482906583
 20
267.6144358879
 10
236.5013603565
 20
267.9550186433
 10
236.7757900775
 20
268.2675818664
 10
237.0708527883
 20
268.5512944551
 10
237.3857650841
 20
268.8054065195
 10
237.7196929844
 20
269.0292436028
 10
238.0717498247
 20
269.222212765
 10
238.4410025792
 20
269.383798933
 10
238.8264718604
 20
269.5135770683
 10
239.2271361343
 20
269.6112024332
 10
239.6419322464
 20
269.6764151539
 10
239.9085784982
 20
269.7006800809
  0
LINE
  5
433
330
1F
100
AcDbEntity
  8
0
  6
Continuous
 62
     7
370
    25
100
AcDbLine
 10
240.9500597887
 20
251.5501791019
 30
0.0
 11
240.9500597887
 21
252.4467709344
 31
0.0
  0
LINE
  5
434
330
1F
100
AcDbEntity
  8
0
  6
Continuous
 62
     7
370
    25
100
AcDbLine
 10
235.0099935951
 20
254.9793063245
 30
0.0
 11
240.9500597887
 21
251.5501791019
 31
0.0
  0
LINE
  5
435
330
1F
100
AcDbEntity
  8
0
  6
Continuous
 62
     7
370
    25
100
AcDbLine
 10
235.0099935951
 20
254.9793063245
 30
0.0
 11
235.0099935951
 21
262.8995723558
 31
0.0
  0
LINE
  5
436
330
1F
100
AcDbEntity
  8
0
  6
Continuous
 62
     7
370
    25
100
AcDbLine
 10
248.162548822
 20
247.3864978095
 30
0.0
 11
253.0415854899
 21
244.5698898943
 31
0.0
  0
LINE
  5
437
330
1F
100
AcDbEntity
  8
0
  6
Continuous
 62
     7
370
    25
100
AcDbLine
 10
248.162548822
 20
248.2830896419
 30
0.0
 11
248.162548822
 21
247.3864978095
 31
0.0
  0
LWPOLYLINE
  5
438
330
1F
100
AcDbEntity
  8
0
  6
Continuous
 62
     7
370
    25
100
AcDbPolyline
 90
       89
 70
   128
 43
0.0
 10
240.9500597887
 20
252.4467709344
 10
240.5962981084
 20
252.9098511234
 10
240.2564280294
 20
253.3886419541
 10
239.9316417806
 20
253.8814635237
 10
239.6230783806
 20
254.3865887759
 10
239.3318204766
 20
254.9022453253
 10
239.0588901297
 20
255.4266227578
 10
238.8052440734
 20
255.9578838848
 10
238.5717721329
 20
256.4941632221
 10
238.3592940645
 20
257.0335797658
 10
238.1685542868
 20
257.5742436833
 10
238.0002229349
 20
258.1142544886
 10
237.8548895377
 20
258.6517205096
 10
237.7330640721
 20
259.1847558461
 10
237.6351748554
 20
259.7114876704
 10
237.5615638039
 20
260.2300735649
 10
237.5124906477
 20
260.7386917892
 10
237.4881260814
 20
261.2355574008
 10
237.488557033
 20
261.7189289479
 10
237.5137803413
 20
262.1871096853
 10
237.5637090785
 20
262.6384560924
 10
237.6381672816
 20
263.0713882151
 10
237.7368936401
 20
263.4843851031
 10
237.8595425498
 20
263.8759988026
 10
238.0056830591
 20
264.2448549646
 10
238.1748025571
 20
264.5896580164
 10
238.3663083537
 20
264.9092024166
 10
238.5795282067
 20
265.2023626171
 10
238.8137140094
 20
265.4681152689
 10
239.0680449521
 20
265.7055227962
 10
239.3416280483
 20
265.9137574274
 10
239.6335039304
 20
266.0920856822
 10
239.9426484301
 20
266.2398820597
 10
240.2679778464
 20
266.3566284309
 10
240.6083505266
 20
266.4419155597
 10
240.9625721344
 20
266.4954449283
 10
241.3294003914
 20
266.5170284338
 10
241.7075485017
 20
266.5065888445
 10
242.0956896298
 20
266.4641645153
 10
242.4924628275
 20
266.3899035327
 10
242.8964756685
 20
266.2840646276
 10
243.3063110966
 20
266.1470229555
 10
243.7205314433
 20
265.9792580435
 10
244.1376836301
 20
265.7813556538
 10
244.5563043054
 20
265.5540145526
 10
244.9749249806
 20
265.2980265101
 10
245.3920771674
 20
265.0142952367
 10
245.8062975141
 20
264.7038115163
 10
246.2161329422
 20
264.3676672751
 10
246.6201457832
 20
264.007042883
 10
247.0169189809
 20
263.6231992825
 10
247.405060109
 20
263.2174854041
 10
247.7832082193
 20
262.7913244786
 10
248.1500364763
 20
262.3462100827
 10
248.5042580841
 20
261.883705151
 10
248.8446307643
 20
261.4054320905
 10
249.1699601807
 20
260.9130683705
 10
249.4791046803
 20
260.4083413512
 10
249.7709805625
 20
259.893020376
 10
250.0445636587
 20
259.3689134254
 10
250.2988946013
 20
258.8378616421
 10
250.5330804041
 20
258.3017238178
 10
250.746300257
 20
257.7623852151
 10
250.9378060536
 20
257.2217329285
 10
251.1069255516
 20
256.6816686606
 10
251.253066061
 20
256.144082258
 10
251.3757149706
 20
255.6108611416
 10
251.4744413291
 20
255.0838772265
 10
251.5488995322
 20
254.5649774923
 10
251.5988282694
 20
254.0559845922
 10
251.6240515778
 20
253.5586816429
 10
251.6244825293
 20
253.0748125298
 10
251.600117963
 20
252.6060776477
 10
251.5510448068
 20
252.1541180835
 10
251.4774337553
 20
251.7205216999
 10
251.3795445387
 20
251.3068103595
 10
251.257719073
 20
250.9144317117
 10
251.1123856758
 20
250.5447640594
 10
250.9440543239
 20
250.1991044962
 10
250.7533145463
 20
249.8786640383
 10
250.5408364779
 20
249.5845694506
 10
250.3073645374
 20
249.317851078
 10
250.053718481
 20
249.0794434541
 10
249.7807881341
 20
248.8701846927
 10
249.4895302301
 20
248.6908073613
 10
249.1809668301
 20
248.5419418275
 10
248.8561805813
 20
248.4241104788
 10
248.5163105023
 20
248.3377252888
 10
248.162548822
 20
248.2830896419
  0
LINE
  5
439
330
1F
100
AcDbEntity
  8
0
  6
Continuous
 62
     7
370
    25
100
AcDbLine
 10
248.8696570362
 20
248.6912945251
 30
0.0
 11
248.162548822
 21
248.2830896419
 31
0.0
  0
LWPOLYLINE
  5
43A
330
1F
100
AcDbEntity
  8
0
  6
Continuous
 62
     7
370
    25
100
AcDbPolyline
 90
       31
 70
   128
 43
0.0
 10
241.6571680029
 20
252.8549758175
 10
241.3034063226
 20
253.3180560065
 10
240.9635362436
 20
253.7968468372
 10
240.6387499948
 20
254.2896684069
 10
240.3301865948
 20
254.7947936591
 10
240.0389286908
 20
255.3104502085
 10
239.7659983439
 20
255.834827641
 10
239.5123522875
 20
256.3660887679
 10
239.278880347
 20
256.9023681053
 10
239.0664022786
 20
257.441784649
 10
238.875662501
 20
257.9824485665
 10
238.7073311491
 20
258.5224593718
 10
238.5619977519
 20
259.0599253928
 10
238.4401722862
 20
259.5929607293
 10
238.3422830696
 20
260.1196925535
 10
238.2686720181
 20
260.6382784481
 10
238.2195988619
 20
261.1468966724
 10
238.1952342956
 20
261.643762284
 10
238.1956652471
 20
262.127133831
 10
238.2208885555
 20
262.5953145684
 10
238.2708172927
 20
263.0466609756
 10
238.3452754958
 20
263.4795930983
 10
238.4440018543
 20
263.8925899863
 10
238.5666507639
 20
264.2842036857
 10
238.7127912733
 20
264.6530598477
 10
238.8819107713
 20
264.9978628995
 10
239.0734165679
 20
265.3174072998
 10
239.2866364208
 20
265.6105675003
 10
239.5208222236
 20
265.8763201521
 10
239.7751531662
 20
266.1137276794
 10
239.9227782983
 20
266.2315211115
  0
ARC
  5
43B
330
1F
100
AcDbEntity
  8
0
  6
Continuous
 62
     7
370
    25
100
AcDbCircle
 10
248.5067893107
 20
252.2514758143
 30
0.0
 40
3.578625965092245
100
AcDbArc
 50
275.819714779
 51
292.8586709649
  0
LINE
  5
43C
330
1F
100
AcDbEntity
  8
0
  6
Continuous
 62
     7
370
    25
100
AcDbLine
 10
241.6571680029
 20
252.8549758175
 30
0.0
 11
240.9500597887
 21
252.4467709344
 31
0.0
  0
LINE
  5
43D
330
1F
100
AcDbEntity
  8
0
  6
Continuous
 62
     7
370
    25
100
AcDbLine
 10
241.6571680029
 20
252.1215136175
 30
0.0
 11
241.6571680029
 21
252.8549758175
 31
0.0
  0
LINE
  5
43E
330
1F
100
AcDbEntity
  8
0
  6
Continuous
 62
     7
370
    25
100
AcDbLine
 10
241.6571680029
 20
252.1215136175
 30
0.0
 11
248.2343910229
 21
248.3245635885
 31
0.0
  0
LWPOLYLINE
  5
43F
330
1F
100
AcDbEntity
  8
0
  6
Continuous
 62
     7
370
    25
100
AcDbPolyline
 90
       22
 70
   128
 43
0.0
 10
317.0351206907
 20
269.8390413793
 10
317.0224639921
 20
270.3992226506
 10
316.9845233991
 20
270.943303949
 10
316.9214042788
 20
271.4698422101
 10
316.8332710038
 20
271.9774430338
 10
316.7203574893
 20
272.4647594663
 10
316.5829629779
 20
272.9304968674
 10
316.421454147
 20
273.3734238612
 10
316.23625668
 20
273.7923626029
 10
316.0278615875
 20
274.1862045956
 10
315.7968231007
 20
274.5539046072
 10
315.5437544562
 20
274.894487971
 10
315.2693236815
 20
275.2070505858
 10
314.9742620244
 20
275.4907637828
 10
314.6593492017
 20
275.744875543
 10
314.3254218283
 20
275.9687129304
 10
313.973364988
 20
276.1616820926
 10
313.6041122335
 20
276.3232682606
 10
313.2186413717
 20
276.4530454835
 10
312.8179776247
 20
276.5506711525
 10
312.4031820394
 20
276.6158841774
 10
312.1365357876
 20
276.6401491044
  0
LWPOLYLINE
  5
440
330
1F
100
AcDbEntity
  8
0
  6
Continuous
 62
     7
370
    25
100
AcDbPolyline
 90
       89
 70
   128
 43
0.0
 10
311.0950544971
 20
259.3862399578
 10
311.4488161774
 20
259.8493201468
 10
311.7886862564
 20
260.3281109775
 10
312.1134719784
 20
260.8209322431
 10
312.4220353784
 20
261.3260574953
 10
312.7132932824
 20
261.8417140447
 10
312.9862246829
 20
262.3660920854
 10
313.2398707393
 20
262.8973532124
 10
313.4733410993
 20
263.4336316373
 10
313.6858202214
 20
263.9730487893
 10
313.876559999
 20
264.5137127068
 10
314.0448924046
 20
265.0537241204
 10
314.190225275
 20
265.5911898372
 10
314.3120507406
 20
266.1242251737
 10
314.4099389036
 20
266.6509563897
 10
314.4835504819
 20
267.1695425884
 10
314.5326241649
 20
267.6781611168
 10
314.5569871507
 20
268.175025816
 10
314.5565572529
 20
268.6583979714
 10
314.5313344714
 20
269.1265790129
 10
314.4814052073
 20
269.5779251159
 10
314.4069464774
 20
270.0108569345
 10
314.3082195921
 20
270.4238535183
 10
314.1855722629
 20
270.8154681302
 10
314.039430173
 20
271.1843233798
 10
313.8703117287
 20
271.5291270398
 10
313.6788048784
 20
271.8486708318
 10
313.4655860792
 20
272.1418316406
 10
313.2313992227
 20
272.4075836841
 10
312.9770693338
 20
272.6449918197
 10
312.7034867644
 20
272.8532267551
 10
312.4116103554
 20
273.0315547057
 10
312.1024653289
 20
273.179350779
 10
311.7771359126
 20
273.2960971503
 10
311.4367632324
 20
273.381384279
 10
311.0825421514
 20
273.4349139518
 10
310.7157138944
 20
273.4564974573
 10
310.3375660475
 20
273.44605802
 10
309.9494241292
 20
273.4036332346
 10
309.55265159
 20
273.3293726322
 10
309.1486382222
 20
273.223533423
 10
308.7388033209
 20
273.086492055
 10
308.3245830401
 20
272.918727181
 10
307.9074303923
 20
272.7208245252
 10
307.4888099805
 20
272.4934835761
 10
307.0701895686
 20
272.2374956857
 10
306.6530369208
 20
271.9537641462
 10
306.23881664
 20
271.6432804637
 10
305.8289806851
 20
271.3071359184
 10
305.4249683709
 20
270.9465118304
 10
305.028194778
 20
270.5626680018
 10
304.6400539134
 20
270.1569542755
 10
304.2619060665
 20
269.7307935021
 10
303.8950778095
 20
269.2856791062
 10
303.5408562017
 20
268.8231741744
 10
303.2004835215
 20
268.344901114
 10
302.8751541052
 20
267.852537394
 10
302.5660096055
 20
267.3478103747
 10
302.2741337234
 20
266.8324893995
 10
302.0005501003
 20
266.3083821447
 10
301.7462196845
 20
265.7773306656
 10
301.5120338818
 20
265.2411928413
 10
301.2988140288
 20
264.7018542386
 10
301.1073082322
 20
264.161201952
 10
300.9381887342
 20
263.6211376841
 10
300.7920482248
 20
263.0835512815
 10
300.6693993152
 20
262.5503301651
 10
300.5706729567
 20
262.02334625
 10
300.4962147536
 20
261.5044465158
 10
300.4462860164
 20
260.9954536157
 10
300.4210621812
 20
260.4981503622
 10
300.4206317565
 20
260.0142815533
 10
300.4449963228
 20
259.5455466711
 10
300.494069479
 20
259.093587107
 10
300.5676805305
 20
258.6599907234
 10
300.6655697471
 20
258.246279383
 10
300.7873952128
 20
257.8539007351
 10
300.9327280831
 20
257.4842327788
 10
301.1010599619
 20
257.1385735197
 10
301.2917997395
 20
256.8181330618
 10
301.504277808
 20
256.5240384741
 10
301.7377492216
 20
256.2573197973
 10
301.991395278
 20
256.0189121735
 10
302.2643261517
 20
255.8096537162
 10
302.5555840557
 20
255.6302763848
 10
302.8641474557
 20
255.481410851
 10
303.1889337045
 20
255.3635795023
 10
303.5288037835
 20
255.2771943123
 10
303.8825654638
 20
255.2225586654
  0
LINE
  5
441
330
1F
100
AcDbEntity
  8
0
  6
Continuous
 62
     7
370
    25
100
AcDbLine
 10
303.8825654638
 20
255.2225586654
 30
0.0
 11
303.8825654638
 21
254.325966833
 31
0.0
  0
LINE
  5
442
330
1F
100
AcDbEntity
  8
0
  6
Continuous
 62
     7
370
    25
100
AcDbLine
 10
299.0035285325
 20
251.5093587657
 30
0.0
 11
303.8825654638
 21
254.325966833
 31
0.0
  0
LINE
  5
443
330
1F
100
AcDbEntity
  8
0
  6
Continuous
 62
     7
370
    25
100
AcDbLine
 10
317.0351206907
 20
261.918775348
 30
0.0
 11
317.0351206907
 21
269.8390413793
 31
0.0
  0
LINE
  5
444
330
1F
100
AcDbEntity
  8
0
  6
Continuous
 62
     7
370
    25
100
AcDbLine
 10
311.0950544971
 20
258.4896481254
 30
0.0
 11
317.0351206907
 21
261.918775348
 31
0.0
  0
LINE
  5
445
330
1F
100
AcDbEntity
  8
0
  6
Continuous
 62
     7
370
    25
100
AcDbLine
 10
311.0950544971
 20
258.4896481254
 30
0.0
 11
311.0950544971
 21
259.3862399578
 31
0.0
  0
LINE
  5
446
330
1F
100
AcDbEntity
  8
0
  6
Continuous
 62
     7
370
    25
100
AcDbLine
 10
293.2232797639
 20
245.3144497415
 30
0.0
 11
292.9934904043
 21
248.0398376051
 31
0.0
  0
LINE
  5
447
330
1F
100
AcDbEntity
  8
0
  6
Continuous
 62
     7
370
    25
100
AcDbLine
 10
293.2232797639
 20
245.3144497415
 30
0.0
 11
297.5893143431
 21
244.7325556088
 31
0.0
  0
SPLINE
  5
448
330
1F
100
AcDbEntity
  8
0
  6
Continuous
 62
     7
370
    25
100
AcDbSpline
210
0.0
220
0.0
230
1.0
 70
     8
 71
     3
 72
    27
 73
    23
 74
     0
 42
0.000000001
 43
0.00000001
 40
0.0
 40
0.0
 40
0.0
 40
0.0
 40
0.0176665221900848
 40
0.0721287955916244
 40
0.1250564873480053
 40
0.17951893731285
 40
0.2324462528266639
 40
0.2869088557938048
 40
0.3398361735020196
 40
0.3942986749854582
 40
0.4472264454525749
 40
0.5016886279823801
 40
0.5546162898972412
 40
0.6090787881031852
 40
0.662006466840787
 40
0.7164687901482154
 40
0.7693965338113733
 40
0.8238590757650214
 40
0.876786571896906
 40
0.9312490082817699
 40
0.9841763765618478
 40
1.0
 40
1.0
 40
1.0
 40
1.0
 10
228.6179087731961
 20
275.278134629941
 30
0.0
 10
228.6002768301068
 20
275.2660065325603
 30
0.0
 10
228.5282892139092
 20
275.2164899923226
 30
0.0
 10
228.3749881876401
 20
275.1811151942513
 30
0.0
 10
228.1626833699809
 20
275.1747206115334
 30
0.0
 10
227.9351265975631
 20
275.223484804744
 30
0.0
 10
227.6970993656729
 20
275.3225915103433
 30
0.0
 10
227.4588493673664
 20
275.4685354460706
 30
0.0
 10
227.2230436949868
 20
275.6595228181636
 30
0.0
 10
227.0006619525135
 20
275.8868583327991
 30
0.0
 10
226.7940321843338
 20
276.148189881726
 30
0.0
 10
226.6126096052427
 20
276.4313576808479
 30
0.0
 10
226.4582146851495
 20
276.7334146058514
 30
0.0
 10
226.3380471121696
 20
277.040401972929
 30
0.0
 10
226.2534322598758
 20
277.3492140799638
 30
0.0
 10
226.2082855516666
 20
277.6455194709057
 30
0.0
 10
226.202936409426
 20
277.926302997847
 30
0.0
 10
226.2378127294218
 20
278.1782223949898
 30
0.0
 10
226.3119173817564
 20
278.3999956175467
 30
0.0
 10
226.4245184399402
 20
278.5766225469285
 30
0.0
 10
226.5310384735274
 20
278.6888448208363
 30
0.0
 10
226.6067171555679
 20
278.723745148247
 30
0.0
 10
226.6241352456488
 20
278.7317777543958
 30
0.0
  0
LINE
  5
449
330
1F
100
AcDbEntity
  8
0
  6
Continuous
 62
     7
370
    25
100
AcDbLine
 10
287.0534236838
 20
244.6107100784
 30
0.0
 11
287.0448615516
 21
244.7787825246
 31
0.0
  0
LINE
  5
44A
330
1F
100
AcDbEntity
  8
0
  6
Continuous
 62
     7
370
    25
100
AcDbLine
 10
287.0448615516
 20
244.7787825246
 30
0.0
 11
286.3463154697
 21
245.1820445941
 31
0.0
  0
LINE
  5
44B
330
1F
100
AcDbEntity
  8
0
  6
Continuous
 62
     7
370
    25
100
AcDbLine
 10
310.3879462829
 20
259.794444841
 30
0.0
 11
311.0950544971
 21
259.3862399578
 31
0.0
  0
LWPOLYLINE
  5
44C
330
1F
100
AcDbEntity
  8
0
  6
Continuous
 62
     7
370
    25
100
AcDbPolyline
 90
       31
 70
   128
 43
0.0
 10
310.3879462829
 20
259.794444841
 10
310.7417079632
 20
260.25752503
 10
311.0815780423
 20
260.7363158607
 10
311.4063637642
 20
261.2291371263
 10
311.7149271642
 20
261.7342623785
 10
312.0061850682
 20
262.2499189279
 10
312.2791164688
 20
262.7742969686
 10
312.5327625251
 20
263.3055580955
 10
312.7662328851
 20
263.8418365205
 10
312.9787120072
 20
264.3812536725
 10
313.1694517848
 20
264.92191759
 10
313.3377841904
 20
265.4619290036
 10
313.4831170608
 20
265.9993947204
 10
313.6049425264
 20
266.5324300569
 10
313.7028306894
 20
267.0591612729
 10
313.7764422677
 20
267.5777474715
 10
313.8255159508
 20
268.086366
 10
313.8498789365
 20
268.5832306992
 10
313.8494490387
 20
269.0666028545
 10
313.8242262572
 20
269.534783896
 10
313.7742969931
 20
269.9861299991
 10
313.6998382632
 20
270.4190618176
 10
313.6011113779
 20
270.8320584015
 10
313.4784640487
 20
271.2236730134
 10
313.3323219588
 20
271.5925282629
 10
313.1632035145
 20
271.937331923
 10
312.9716966642
 20
272.256875715
 10
312.758477865
 20
272.5500365238
 10
312.5242910086
 20
272.8157885673
 10
312.2699611196
 20
273.0531967028
 10
312.1223365143
 20
273.1709904391
  0
ARC
  5
44D
330
1F
100
AcDbEntity
  8
0
  6
Continuous
 62
     7
370
    25
100
AcDbCircle
 10
303.5383249751
 20
259.1909448377
 30
0.0
 40
3.578625965091909
100
AcDbArc
 50
247.1413290351
 51
264.180285221
  0
LINE
  5
44E
330
1F
100
AcDbEntity
  8
0
  6
Continuous
 62
     7
370
    25
100
AcDbLine
 10
303.1754572497
 20
255.6307635486
 30
0.0
 11
303.8825654638
 21
255.2225586654
 31
0.0
  0
LINE
  5
44F
330
1F
100
AcDbEntity
  8
0
  6
Continuous
 62
     7
370
    25
100
AcDbLine
 10
310.3879462829
 20
259.060982641
 30
0.0
 11
310.3879462829
 21
259.794444841
 31
0.0
  0
LINE
  5
450
330
1F
100
AcDbEntity
  8
0
  6
Continuous
 62
     7
370
    25
100
AcDbLine
 10
303.8107229995
 20
255.2640324599
 30
0.0
 11
310.3879462829
 21
259.060982641
 31
0.0
  0
LINE
  5
451
330
1F
100
AcDbEntity
  8
0
  6
Continuous
 62
     7
370
    25
100
AcDbLine
 10
234.7802037087
 20
252.253918765
 30
0.0
 11
230.4141695246
 21
251.6720244042
 31
0.0
  0
LINE
  5
452
330
1F
100
AcDbEntity
  8
0
  6
Continuous
 62
     7
370
    25
100
AcDbLine
 10
234.7802037087
 20
252.253918765
 30
0.0
 11
235.0099935951
 21
254.9793063245
 31
0.0
  0
LINE
  5
453
330
1F
100
AcDbEntity
  8
0
  6
Continuous
 62
     7
370
    25
100
AcDbLine
 10
240.9500597887
 20
251.5501791019
 30
0.0
 11
240.958621921
 21
251.7182515481
 31
0.0
  0
LINE
  5
454
330
1F
100
AcDbEntity
  8
0
  6
Continuous
 62
     7
370
    25
100
AcDbLine
 10
240.958621921
 20
251.7182515481
 30
0.0
 11
241.6571680029
 21
252.1215136175
 31
0.0
  0
LINE
  5
455
330
1F
100
AcDbEntity
  8
0
  6
Continuous
 62
     7
370
    25
100
AcDbLine
 10
317.2649095235
 20
259.1933871802
 30
0.0
 11
317.0351206907
 21
261.918775348
 31
0.0
  0
LINE
  5
456
330
1F
100
AcDbEntity
  8
0
  6
Continuous
 62
     7
370
    25
100
AcDbLine
 10
317.2649095235
 20
259.1933871802
 30
0.0
 11
321.6309458149
 21
258.6114940359
 31
0.0
  0
LINE
  5
457
330
1F
100
AcDbEntity
  8
0
  6
Continuous
 62
     7
370
    25
100
AcDbLine
 10
311.0950544971
 20
258.4896481254
 30
0.0
 11
311.0864923648
 21
258.6577205716
 31
0.0
  0
LINE
  5
458
330
1F
100
AcDbEntity
  8
0
  6
Continuous
 62
     7
370
    25
100
AcDbLine
 10
311.0864923648
 20
258.6577205716
 30
0.0
 11
310.3879462829
 21
259.060982641
 31
0.0
  0
LWPOLYLINE
  5
459
330
1F
100
AcDbEntity
  8
0
  6
Continuous
 62
     7
370
    25
100
AcDbPolyline
 90
       24
 70
   128
 43
0.0
 10
255.516459498
 20
289.4393928666
 10
255.5295703289
 20
289.5419732404
 10
255.5679302831
 20
289.6218108426
 10
255.6286944483
 20
289.6729798792
 10
255.7073562727
 20
289.6916867386
 10
255.7980805251
 20
289.6765450056
 10
255.8941405686
 20
289.6286783175
 10
255.9884114783
 20
289.5516352379
 10
256.0739010921
 20
289.4511313584
 10
256.1442684168
 20
289.3346186203
 10
256.1942967259
 20
289.210739651
 10
256.220273936
 20
289.0886798857
 10
256.220273936
 20
288.9774941273
 10
256.1942967259
 20
288.8854318773
 10
256.1442684168
 20
288.8193094974
 10
256.0739010921
 20
288.7840411429
 10
255.9884114783
 20
288.7822414705
 10
255.8941405686
 20
288.8140412666
 10
255.7980805251
 20
288.8770831439
 10
255.7073562727
 20
288.9666942701
 10
255.6286944483
 20
289.0762221388
 10
255.5679302831
 20
289.1975479872
 10
255.5295703289
 20
289.3216750497
 10
255.516459498
 20
289.4393928666
  0
LWPOLYLINE
  5
45A
330
1F
100
AcDbEntity
  8
0
  6
Continuous
 62
     7
370
    25
100
AcDbPolyline
 90
       14
 70
   128
 43
0.0
 10
255.690745146
 20
289.7091351795
 10
255.6994063234
 20
289.7138009758
 10
255.7780681478
 20
289.7325078352
 10
255.8687924002
 20
289.7173661022
 10
255.9648524437
 20
289.669499414
 10
256.0591233534
 20
289.5924563345
 10
256.1446129672
 20
289.491952455
 10
256.2149802918
 20
289.3754397169
 10
256.265008601
 20
289.2515607476
 10
256.2909858111
 20
289.1295009823
 10
256.2909858111
 20
289.0183152239
 10
256.265008601
 20
288.9262529739
 10
256.2149802918
 20
288.860130594
 10
256.1907047608
 20
288.843088472
  0
LWPOLYLINE
  5
45B
330
1F
100
AcDbEntity
  8
0
  6
Continuous
 62
     7
370
    25
100
AcDbPolyline
 90
       24
 70
   128
 43
0.0
 10
255.516459498
 20
260.8604649373
 10
255.5295703289
 20
260.9630453111
 10
255.5679302831
 20
261.0428804798
 10
255.6286944483
 20
261.0940495164
 10
255.7073562727
 20
261.1127588093
 10
255.7980805251
 20
261.0976195098
 10
255.8941405686
 20
261.0497528216
 10
255.9884114783
 20
260.9727097421
 10
256.0739010921
 20
260.8722034291
 10
256.1442684168
 20
260.7556931245
 10
256.1942967259
 20
260.6318117217
 10
256.220273936
 20
260.5097543899
 10
256.220273936
 20
260.3985686315
 10
256.1942967259
 20
260.3065015145
 10
256.1442684168
 20
260.2403840015
 10
256.0739010921
 20
260.205115647
 10
255.9884114783
 20
260.2033135412
 10
255.8941405686
 20
260.2351157708
 10
255.7980805251
 20
260.2981576481
 10
255.7073562727
 20
260.3877639073
 10
255.6286944483
 20
260.4972942095
 10
255.5679302831
 20
260.6186200579
 10
255.5295703289
 20
260.7427446869
 10
255.516459498
 20
260.8604649373
  0
LWPOLYLINE
  5
45C
330
1F
100
AcDbEntity
  8
0
  6
Continuous
 62
     7
370
    25
100
AcDbPolyline
 90
       14
 70
   128
 43
0.0
 10
255.690745146
 20
261.1302072502
 10
255.6994063234
 20
261.134870613
 10
255.7780681478
 20
261.1535799059
 10
255.8687924002
 20
261.1384406064
 10
255.9648524437
 20
261.0905739182
 10
256.0591233534
 20
261.0135308387
 10
256.1446129672
 20
260.9130245257
 10
256.2149802918
 20
260.7965142211
 10
256.265008601
 20
260.6726328183
 10
256.2909858111
 20
260.5505754865
 10
256.2909858111
 20
260.4393897281
 10
256.265008601
 20
260.3473226111
 10
256.2149802918
 20
260.2812050981
 10
256.1907047608
 20
260.2641581092
  0
LWPOLYLINE
  5
45D
330
1F
100
AcDbEntity
  8
0
  6
Continuous
 62
     7
370
    25
100
AcDbPolyline
 90
       24
 70
   128
 43
0.0
 10
227.2321888828
 20
277.1886268088
 10
227.2452997137
 20
277.2912071826
 10
227.2836596679
 20
277.3710423513
 10
227.3444227794
 20
277.4222119962
 10
227.4230846037
 20
277.440921289
 10
227.5138099099
 20
277.4257813813
 10
227.6098699533
 20
277.3779146931
 10
227.7041398094
 20
277.3008722219
 10
227.7896294232
 20
277.2003659089
 10
227.8599978015
 20
277.083854996
 10
227.910025057
 20
276.9599742015
 10
227.9360022671
 20
276.8379168696
 10
227.9360022671
 20
276.7267311113
 10
227.910025057
 20
276.6346639943
 10
227.8599978015
 20
276.568545873
 10
227.7896294232
 20
276.5332781268
 10
227.7041398094
 20
276.531476021
 10
227.6098699533
 20
276.5632776423
 10
227.5138099099
 20
276.6263195195
 10
227.4230846037
 20
276.7159263871
 10
227.3444227794
 20
276.8254566892
 10
227.2836596679
 20
276.9467819294
 10
227.2452997137
 20
277.0709065584
 10
227.2321888828
 20
277.1886268088
  0
LWPOLYLINE
  5
45E
330
1F
100
AcDbEntity
  8
0
  6
Continuous
 62
     7
370
    25
100
AcDbPolyline
 90
       14
 70
   128
 43
0.0
 10
227.4064745307
 20
277.4583691217
 10
227.4151346544
 20
277.4630330928
 10
227.4937964788
 20
277.4817423856
 10
227.5845217849
 20
277.4666024779
 10
227.6805818284
 20
277.4187357897
 10
227.7748516845
 20
277.3416933185
 10
227.8603412983
 20
277.2411870055
 10
227.9307096766
 20
277.1246760926
 10
227.9807369321
 20
277.0007952981
 10
228.0067141422
 20
276.8787379662
 10
228.0067141422
 20
276.7675522078
 10
227.9807369321
 20
276.6754850909
 10
227.9307096766
 20
276.6093669696
 10
227.9064341455
 20
276.5923199807
  0
LWPOLYLINE
  5
45F
330
1F
100
AcDbEntity
  8
0
  6
Continuous
 62
     7
370
    25
100
AcDbPolyline
 90
       24
 70
   128
 43
0.0
 10
227.2321888828
 20
305.7675547381
 10
227.2452997137
 20
305.8701351119
 10
227.2836596679
 20
305.949972714
 10
227.3444227794
 20
306.001142359
 10
227.4230846037
 20
306.0198492184
 10
227.5138099099
 20
306.0047068771
 10
227.6098699533
 20
305.9568401889
 10
227.7041398094
 20
305.8797977177
 10
227.7896294232
 20
305.7792938382
 10
227.8599978015
 20
305.6627804918
 10
227.910025057
 20
305.5389021308
 10
227.9360022671
 20
305.4168423655
 10
227.9360022671
 20
305.3056566071
 10
227.910025057
 20
305.2135943571
 10
227.8599978015
 20
305.1474713689
 10
227.7896294232
 20
305.1122036226
 10
227.7041398094
 20
305.1104039503
 10
227.6098699533
 20
305.1422031381
 10
227.5138099099
 20
305.2052450154
 10
227.4230846037
 20
305.2948567499
 10
227.3444227794
 20
305.4043846185
 10
227.2836596679
 20
305.5257098587
 10
227.2452997137
 20
305.6498369212
 10
227.2321888828
 20
305.7675547381
  0
LWPOLYLINE
  5
460
330
1F
100
AcDbEntity
  8
0
  6
Continuous
 62
     7
370
    25
100
AcDbPolyline
 90
       14
 70
   128
 43
0.0
 10
227.4064745307
 20
306.037297051
 10
227.4151346544
 20
306.0419634555
 10
227.4937964788
 20
306.0606703149
 10
227.5845217849
 20
306.0455279737
 10
227.6805818284
 20
305.9976612855
 10
227.7748516845
 20
305.9206188143
 10
227.8603412983
 20
305.8201149348
 10
227.9307096766
 20
305.7036015884
 10
227.9807369321
 20
305.5797232274
 10
228.0067141422
 20
305.4576634621
 10
228.0067141422
 20
305.3464777037
 10
227.9807369321
 20
305.2544154536
 10
227.9307096766
 20
305.1882924654
 10
227.9064341455
 20
305.1712503435
  0
LINE
  5
461
330
1F
100
AcDbEntity
  8
0
  6
Continuous
 62
     7
370
    25
100
AcDbLine
 10
234.0392347164
 20
252.1551633661
 30
0.0
 11
253.0415870704
 21
241.1853388513
 31
0.0
  0
LINE
  5
462
330
1F
100
AcDbEntity
  8
0
  6
Continuous
 62
     7
370
    25
100
AcDbLine
 10
274.9618964021
 20
234.2458698279
 30
0.0
 11
293.964249283
 21
245.2156946467
 31
0.0
  0
LINE
  5
463
330
1F
100
AcDbEntity
  8
0
  6
Continuous
 62
     7
370
    25
100
AcDbLine
 10
299.003526952
 20
248.1248077228
 30
0.0
 11
318.0058806231
 21
259.0946329978
 31
0.0
  0
LINE
  5
464
330
1F
100
AcDbEntity
  8
0
  6
Continuous
 62
     7
370
    25
100
AcDbLine
 10
326.5806927775
 20
260.6523808854
 30
0.0
 11
270.0121494396
 21
227.9960559259
 31
0.0
  0
LINE
  5
465
330
1F
100
AcDbEntity
  8
0
  6
Continuous
 62
     7
370
    25
100
AcDbLine
 10
270.0121494396
 20
227.9960559259
 30
0.0
 11
213.4436061017
 21
260.6523808854
 31
0.0
  0
LINE
  5
466
330
1F
100
AcDbEntity
  8
0
  6
Continuous
 62
     7
370
    25
100
AcDbLine
 10
213.4436061017
 20
260.6523808854
 30
0.0
 11
214.1508281124
 21
261.0606514619
 31
0.0
  0
LINE
  5
467
330
1F
100
AcDbEntity
  8
0
  6
Continuous
 62
     7
370
    25
100
AcDbLine
 10
325.8734707668
 20
261.0606514619
 30
0.0
 11
326.5806927775
 21
260.6523808854
 31
0.0
  0
LINE
  5
468
330
1F
100
AcDbEntity
  8
0
  6
Continuous
 62
     7
370
    25
100
AcDbLine
 10
213.4436061017
 20
252.4869726449
 30
0.0
 11
270.0121494396
 21
219.8306476854
 31
0.0
  0
LINE
  5
469
330
1F
100
AcDbEntity
  8
0
  6
Continuous
 62
     7
370
    25
100
AcDbLine
 10
213.4436061017
 20
252.4869726449
 30
0.0
 11
213.4436061017
 21
260.6523808854
 31
0.0
  0
LINE
  5
46A
330
1F
100
AcDbEntity
  8
0
  6
Continuous
 62
     7
370
    25
100
AcDbLine
 10
270.0121494396
 20
219.8306476854
 30
0.0
 11
270.0121494396
 21
227.9960559259
 31
0.0
  0
LINE
  5
46B
330
1F
100
AcDbEntity
  8
0
  6
Continuous
 62
     7
370
    25
100
AcDbLine
 10
270.0121494396
 20
219.8306476854
 30
0.0
 11
326.5806927775
 21
252.4869726449
 31
0.0
  0
LINE
  5
46C
330
1F
100
AcDbEntity
  8
0
  6
Continuous
 62
     7
370
    25
100
AcDbLine
 10
326.5806927775
 20
252.4869726449
 30
0.0
 11
326.5806927775
 21
260.6523808854
 31
0.0
  0
LINE
  5
46D
330
1F
100
AcDbEntity
  8
0
  6
Continuous
 62
     7
370
    25
100
AcDbLine
 10
234.983715035
 20
254.6676289034
 30
0.0
 11
253.0415860168
 21
244.2430418792
 31
0.0
  0
LINE
  5
46E
330
1F
100
AcDbEntity
  8
0
  6
Continuous
 62
     7
370
    25
100
AcDbLine
 10
274.9618964021
 20
237.3035722474
 30
0.0
 11
293.0197688327
 21
247.728160108
 31
0.0
  0
LINE
  5
46F
330
1F
100
AcDbEntity
  8
0
  6
Continuous
 62
     7
370
    25
100
AcDbLine
 10
299.0035280056
 20
251.1825107506
 30
0.0
 11
317.0613992508
 21
261.6070979269
 31
0.0
  0
LINE
  5
470
330
1F
100
AcDbEntity
  8
0
  6
Continuous
 62
     7
370
    25
100
AcDbLine
 10
270.0121494396
 20
219.0141070438
 30
0.0
 11
245.2634117293
 21
233.3012492136
 31
0.0
  0
LINE
  5
471
330
1F
100
AcDbEntity
  8
0
  6
Continuous
 62
     7
370
    25
100
AcDbLine
 10
270.0121494396
 20
219.0141070438
 30
0.0
 11
270.0121494396
 21
215.3396732443
 31
0.0
  0
LINE
  5
472
330
1F
100
AcDbEntity
  8
0
  6
Continuous
 62
     7
370
    25
100
AcDbLine
 10
270.0121494396
 20
215.3396732443
 30
0.0
 11
245.2634117293
 21
229.6268154141
 31
0.0
  0
LINE
  5
473
330
1F
100
AcDbEntity
  8
0
  6
Continuous
 62
     7
370
    25
100
AcDbLine
 10
245.2634117293
 20
229.6268154141
 30
0.0
 11
245.2634117293
 21
233.3012492136
 31
0.0
  0
LINE
  5
474
330
1F
100
AcDbEntity
  8
0
  6
Continuous
 62
     7
370
    25
100
AcDbLine
 10
270.0121494396
 20
215.3396732443
 30
0.0
 11
282.0329648462
 21
222.2791422678
 31
0.0
  0
LINE
  5
475
330
1F
100
AcDbEntity
  8
0
  6
Continuous
 62
     7
370
    25
100
AcDbLine
 10
282.0329648462
 20
225.9535760673
 30
0.0
 11
270.0121494396
 21
219.0141070438
 31
0.0
  0
LINE
  5
476
330
1F
100
AcDbEntity
  8
0
  6
Continuous
 62
     7
370
    25
100
AcDbLine
 10
282.0329648462
 20
222.2791422678
 30
0.0
 11
282.0329648462
 21
225.9535760673
 31
0.0
  0
LINE
  5
477
330
1F
100
AcDbEntity
  8
0
  6
Continuous
 62
     7
370
    25
100
AcDbLine
 10
281.3257428355
 20
226.3618466438
 30
0.0
 11
282.0329648462
 21
225.9535760673
 31
0.0
  0
LINE
  5
478
330
1F
100
AcDbEntity
  8
0
  6
Continuous
 62
     7
370
    25
100
AcDbLine
 10
245.2634117293
 20
233.3012492136
 30
0.0
 11
245.97063374
 21
233.7095197901
 31
0.0
  0
LINE
  5
479
330
1F
100
AcDbEntity
  8
0
  6
Continuous
 62
     7
370
    25
100
AcDbLine
 10
241.1621919896
 20
235.4233128937
 30
0.0
 11
241.1621919896
 21
236.4853733143
 31
0.0
  0
LINE
  5
47A
330
1F
100
AcDbEntity
  8
0
  6
Continuous
 62
     7
370
    25
100
AcDbLine
 10
245.2634114
 20
233.0557293235
 30
0.0
 11
241.1621919896
 21
235.4233128937
 31
0.0
  0
LINE
  5
47B
330
1F
100
AcDbEntity
  8
0
  6
Continuous
 62
     7
370
    25
100
AcDbLine
 10
311.5900291933
 20
242.77098604
 30
0.0
 11
311.5900291933
 21
243.8330464606
 31
0.0
  0
LINE
  5
47C
330
1F
100
AcDbEntity
  8
0
  6
Continuous
 62
     7
370
    25
100
AcDbLine
 10
311.5900291933
 20
242.77098604
 30
0.0
 11
282.0329658999
 21
225.7080565954
 31
0.0
  0
LINE
  5
47D
330
1F
100
AcDbEntity
  8
0
  6
Continuous
 62
     7
370
    25
100
AcDbLine
 10
238.1923438121
 20
233.7088560341
 30
0.0
 11
238.1923438121
 21
237.3832898335
 31
0.0
  0
LINE
  5
47E
330
1F
100
AcDbEntity
  8
0
  6
Continuous
 62
     7
370
    25
100
AcDbLine
 10
238.8995658227
 20
237.79156041
 30
0.0
 11
238.1923438121
 21
237.3832898335
 31
0.0
  0
LINE
  5
47F
330
1F
100
AcDbEntity
  8
0
  6
Continuous
 62
     7
370
    25
100
AcDbLine
 10
241.1621919896
 20
235.4233128937
 30
0.0
 11
238.1923438121
 21
233.7088560341
 31
0.0
  0
LINE
  5
480
330
1F
100
AcDbEntity
  8
0
  6
Continuous
 62
     7
370
    25
100
AcDbLine
 10
238.1923438121
 20
237.3832898335
 30
0.0
 11
213.4436061017
 21
251.6704320033
 31
0.0
  0
LINE
  5
481
330
1F
100
AcDbEntity
  8
0
  6
Continuous
 62
     7
370
    25
100
AcDbLine
 10
213.4436061017
 20
251.6704320033
 30
0.0
 11
214.1508281124
 21
252.0787025798
 31
0.0
  0
LINE
  5
482
330
1F
100
AcDbEntity
  8
0
  6
Continuous
 62
     7
370
    25
100
AcDbLine
 10
213.4436061017
 20
247.9959982038
 30
0.0
 11
213.4436061017
 21
251.6704320033
 31
0.0
  0
LINE
  5
483
330
1F
100
AcDbEntity
  8
0
  6
Continuous
 62
     7
370
    25
100
AcDbLine
 10
238.1923438121
 20
233.7088560341
 30
0.0
 11
213.4436061017
 21
247.9959982038
 31
0.0
  0
LINE
  5
484
330
1F
100
AcDbEntity
  8
0
  6
Continuous
 62
     7
370
    25
100
AcDbLine
 10
314.5598773708
 20
241.0565291804
 30
0.0
 11
314.5598773708
 21
244.7309629799
 31
0.0
  0
LINE
  5
485
330
1F
100
AcDbEntity
  8
0
  6
Continuous
 62
     7
370
    25
100
AcDbLine
 10
314.5598773708
 20
244.7309629799
 30
0.0
 11
313.8526553602
 21
245.1392335563
 31
0.0
  0
LINE
  5
486
330
1F
100
AcDbEntity
  8
0
  6
Continuous
 62
     7
370
    25
100
AcDbLine
 10
314.5598773708
 20
241.0565291804
 30
0.0
 11
311.5900291933
 21
242.77098604
 31
0.0
  0
LINE
  5
487
330
1F
100
AcDbEntity
  8
0
  6
Continuous
 62
     7
370
    25
100
AcDbLine
 10
326.5806927775
 20
251.6704320033
 30
0.0
 11
325.8734707668
 21
252.0787025798
 31
0.0
  0
LINE
  5
488
330
1F
100
AcDbEntity
  8
0
  6
Continuous
 62
     7
370
    25
100
AcDbLine
 10
326.5806927775
 20
251.6704320033
 30
0.0
 11
314.5598773708
 21
244.7309629799
 31
0.0
  0
LINE
  5
489
330
1F
100
AcDbEntity
  8
0
  6
Continuous
 62
     7
370
    25
100
AcDbLine
 10
326.5806927775
 20
251.6704320033
 30
0.0
 11
326.5806927775
 21
247.9959982038
 31
0.0
  0
LINE
  5
48A
330
1F
100
AcDbEntity
  8
0
  6
Continuous
 62
     7
370
    25
100
AcDbLine
 10
314.5598773708
 20
241.0565291804
 30
0.0
 11
326.5806927775
 21
247.9959982038
 31
0.0
  0
LINE
  5
48B
330
1F
100
AcDbEntity
  8
0
  6
PHANTOM
 62
     8
370
    18
100
AcDbLine
 10
271.4263637606
 20
292.4204085564
 30
0.0
 11
271.4263637606
 21
292.6653725132
 31
0.0
  0
LINE
  5
48C
330
1F
100
AcDbEntity
  8
0
  6
PHANTOM
 62
     8
370
    18
100
AcDbLine
 10
268.5979351186
 20
292.4204085564
 30
0.0
 11
268.5979351186
 21
292.6653725132
 31
0.0
  0
LINE
  5
48D
330
1F
100
AcDbEntity
  8
0
  6
PHANTOM
 62
     8
370
    18
100
AcDbLine
 10
318.9439388157
 20
319.8517207438
 30
0.0
 11
318.9439388157
 21
320.0966847006
 31
0.0
  0
LINE
  5
48E
330
1F
100
AcDbEntity
  8
0
  6
PHANTOM
 62
     8
370
    18
100
AcDbLine
 10
221.0803600635
 20
319.8517207438
 30
0.0
 11
221.0803600635
 21
320.0966847006
 31
0.0
  0
LINE
  5
48F
330
1F
100
AcDbEntity
  8
0
  6
PHANTOM
 62
     8
370
    18
100
AcDbLine
 10
285.674564576
 20
312.0346135406
 30
0.0
 11
285.674564576
 21
312.2795774973
 31
0.0
  0
LINE
  5
490
330
1F
100
AcDbEntity
  8
0
  6
PHANTOM
 62
     8
370
    18
100
AcDbLine
 10
284.1896404872
 20
312.8918419704
 30
0.0
 11
284.1896404872
 21
313.1368059271
 31
0.0
  0
LINE
  5
491
330
1F
100
AcDbEntity
  8
0
  6
PHANTOM
 62
     8
370
    18
100
AcDbLine
 10
256.5417651574
 20
328.8526206636
 30
0.0
 11
256.5417651574
 21
329.0975846203
 31
0.0
  0
LINE
  5
492
330
1F
100
AcDbEntity
  8
0
  6
PHANTOM
 62
     8
370
    18
100
AcDbLine
 10
255.0568410686
 20
329.7098490934
 30
0.0
 11
255.0568410686
 21
329.9548130502
 31
0.0
  0
LINE
  5
493
330
1F
100
AcDbEntity
  8
0
  6
PHANTOM
 62
     8
370
    18
100
AcDbLine
 10
292.9934904043
 20
284.5390315657
 30
0.0
 11
297.5893143431
 21
283.9265124865
 31
0.0
  0
LINE
  5
494
330
1F
100
AcDbEntity
  8
0
  6
PHANTOM
 62
     8
370
    18
100
AcDbLine
 10
235.0099935951
 20
291.4785002851
 30
0.0
 11
230.4141695246
 21
290.8659812819
 31
0.0
  0
LINE
  5
495
330
1F
100
AcDbEntity
  8
0
  6
PHANTOM
 62
     8
370
    18
100
AcDbLine
 10
317.0351206907
 20
298.4179693086
 30
0.0
 11
321.6309458149
 21
297.8054509136
 31
0.0
  0
LINE
  5
496
330
1F
100
AcDbEntity
  8
0
  6
PHANTOM
 62
     8
370
    18
100
AcDbLine
 10
292.9934904043
 20
255.9601036364
 30
0.0
 11
297.5893143431
 21
255.3475845572
 31
0.0
  0
LINE
  5
497
330
1F
100
AcDbEntity
  8
0
  6
PHANTOM
 62
     8
370
    18
100
AcDbLine
 10
235.0099935951
 20
262.8995723558
 30
0.0
 11
230.4141695246
 21
262.2870533526
 31
0.0
  0
LINE
  5
498
330
1F
100
AcDbEntity
  8
0
  6
PHANTOM
 62
     8
370
    18
100
AcDbLine
 10
317.0351206907
 20
269.8390413793
 30
0.0
 11
321.6309458149
 21
269.2265229843
 31
0.0
  0
ARC
  5
499
330
1F
100
AcDbEntity
  8
0
  6
PHANTOM
 62
     8
370
    18
100
AcDbCircle
 10
255.6849892392
 20
289.1284805113
 30
0.0
 40
0.6040109029341919
100
AcDbArc
 50
1.7987722554
 51
58.1954878033
  0
ARC
  5
49A
330
1F
100
AcDbEntity
  8
0
  6
PHANTOM
 62
     8
370
    18
100
AcDbCircle
 10
255.9226320763
 20
289.2607938448
 30
0.0
 40
0.4211323089900695
100
AcDbArc
 50
358.8667681862
 51
74.4792185922
  0
LWPOLYLINE
  5
49B
330
1F
100
AcDbEntity
  8
0
  6
PHANTOM
 62
     8
370
    18
100
AcDbPolyline
 90
        3
 70
   128
 43
0.0
 10
256.3261605172
 20
289.1627682481
 10
256.3302961767
 20
289.1725287211
 10
256.3436820158
 20
289.2524649693
  0
LWPOLYLINE
  5
49C
330
1F
100
AcDbEntity
  8
0
  6
PHANTOM
 62
     8
370
    18
100
AcDbPolyline
 90
       11
 70
   128
 43
0.0
 10
256.0429526613
 20
289.6705419978
 10
256.0854135038
 20
289.6836320275
 10
256.1524480664
 20
289.6731086442
 10
256.2237847685
 20
289.6319268426
 10
256.2908193311
 20
289.5650537674
 10
256.3454669348
 20
289.4805586922
 10
256.3811347591
 20
289.3886232922
 10
256.3935217178
 20
289.3003499221
 10
256.3811347591
 20
289.2263733632
 10
256.3454669348
 20
289.1756240235
 10
256.3327975922
 20
289.1670326459
  0
ARC
  5
49D
330
1F
100
AcDbEntity
  8
0
  6
PHANTOM
 62
     8
370
    18
100
AcDbCircle
 10
255.6850054852
 20
260.5495594338
 30
0.0
 40
0.6039944498577111
100
AcDbArc
 50
1.7981709787
 51
58.1963333187
  0
ARC
  5
49E
330
1F
100
AcDbEntity
  8
0
  6
PHANTOM
 62
     8
370
    18
100
AcDbCircle
 10
255.9226171413
 20
260.6818571788
 30
0.0
 40
0.4211470684461949
100
AcDbArc
 50
358.8679967423
 51
74.4776674623
  0
LWPOLYLINE
  5
49F
330
1F
100
AcDbEntity
  8
0
  6
PHANTOM
 62
     8
370
    18
100
AcDbPolyline
 90
        3
 70
   128
 43
0.0
 10
256.3261605172
 20
260.5838403188
 10
256.3302961767
 20
260.5936007918
 10
256.3436820158
 20
260.6735370399
  0
LWPOLYLINE
  5
4A0
330
1F
100
AcDbEntity
  8
0
  6
PHANTOM
 62
     8
370
    18
100
AcDbPolyline
 90
       11
 70
   128
 43
0.0
 10
256.0429526613
 20
261.0916140685
 10
256.0854135038
 20
261.1047040982
 10
256.1524480664
 20
261.0941807149
 10
256.2237847685
 20
261.0529989133
 10
256.2908193311
 20
260.9861258381
 10
256.3454669348
 20
260.9016283294
 10
256.3811347591
 20
260.8096977964
 10
256.3935217178
 20
260.7214219928
 10
256.3811347591
 20
260.6474454339
 10
256.3454669348
 20
260.5966960942
 10
256.3327975922
 20
260.5881071501
  0
ARC
  5
4A1
330
1F
100
AcDbEntity
  8
0
  6
PHANTOM
 62
     8
370
    18
100
AcDbCircle
 10
227.4007260091
 20
276.87771619
 30
0.0
 40
0.6040034669175928
100
AcDbArc
 50
1.7986295993
 51
58.1958746981
  0
ARC
  5
4A2
330
1F
100
AcDbEntity
  8
0
  6
PHANTOM
 62
     8
370
    18
100
AcDbCircle
 10
227.6383451697
 20
277.0100194332
 30
0.0
 40
0.4211473665564547
100
AcDbArc
 50
358.868028207
 51
74.4776359976
  0
LWPOLYLINE
  5
4A3
330
1F
100
AcDbEntity
  8
0
  6
PHANTOM
 62
     8
370
    18
100
AcDbPolyline
 90
        3
 70
   128
 43
0.0
 10
228.0418899019
 20
276.9120021903
 10
228.0460245078
 20
276.9217632715
 10
228.0594103469
 20
277.0016995197
  0
LWPOLYLINE
  5
4A4
330
1F
100
AcDbEntity
  8
0
  6
PHANTOM
 62
     8
370
    18
100
AcDbPolyline
 90
       11
 70
   128
 43
0.0
 10
227.758682046
 20
277.41977594
 10
227.8011428886
 20
277.4328659697
 10
227.8681774511
 20
277.4223425864
 10
227.9395141532
 20
277.3811607848
 10
228.0065487158
 20
277.3142877096
 10
228.0611952659
 20
277.2297908092
 10
228.0968630901
 20
277.1378602762
 10
228.1092511026
 20
277.0495838643
 10
228.0968630901
 20
276.9756079137
 10
228.0611952659
 20
276.924858574
 10
228.0485259232
 20
276.9162696298
  0
ARC
  5
4A5
330
1F
100
AcDbEntity
  8
0
  6
PHANTOM
 62
     8
370
    18
100
AcDbCircle
 10
227.4007100115
 20
305.4566373641
 30
0.0
 40
0.604019668607982
100
AcDbArc
 50
1.7992224354
 51
58.1951597632
  0
ARC
  5
4A6
330
1F
100
AcDbEntity
  8
0
  6
PHANTOM
 62
     8
370
    18
100
AcDbCircle
 10
227.6383601047
 20
305.5889560991
 30
0.0
 40
0.4211326072320016
100
AcDbArc
 50
358.8667996674
 51
74.4791871109
  0
LWPOLYLINE
  5
4A7
330
1F
100
AcDbEntity
  8
0
  6
PHANTOM
 62
     8
370
    18
100
AcDbPolyline
 90
        3
 70
   128
 43
0.0
 10
228.0418899019
 20
305.4909301196
 10
228.0460245078
 20
305.5006912008
 10
228.0594103469
 20
305.580627449
  0
LWPOLYLINE
  5
4A8
330
1F
100
AcDbEntity
  8
0
  6
PHANTOM
 62
     8
370
    18
100
AcDbPolyline
 90
       11
 70
   128
 43
0.0
 10
227.758682046
 20
305.9987038693
 10
227.8011428886
 20
306.011793899
 10
227.8681774511
 20
306.0012705157
 10
227.9395141532
 20
305.9600887141
 10
228.0065487158
 20
305.8932156389
 10
228.0611952659
 20
305.808721172
 10
228.0968630901
 20
305.716785772
 10
228.1092511026
 20
305.6285117936
 10
228.0968630901
 20
305.554535843
 10
228.0611952659
 20
305.5037865033
 10
228.0485259232
 20
305.4951951256
  0
ENDSEC
  0
SECTION
  2
OBJECTS
  0
DICTIONARY
  5
C
330
0
100
AcDbDictionary
281
     1
  3
ACAD_GROUP
350
D
  3
ACAD_LAYOUT
350
1A
  3
ACAD_MLINESTYLE
350
17
  3
ACAD_PLOTSETTINGS
350
19
  3
ACAD_PLOTSTYLENAME
350
E
  3
ACAD_SCALELIST
350
47
  0
DICTIONARY
  5
D
102
{ACAD_REACTORS
330
C
102
}
330
C
100
AcDbDictionary
281
     1
  0
DICTIONARY
  5
1A
102
{ACAD_REACTORS
330
C
102
}
330
C
100
AcDbDictionary
281
     1
  3
Layout1
350
1E
  3
Layout2
350
26
  3
Model
350
22
  0
DICTIONARY
  5
17
102
{ACAD_REACTORS
330
C
102
}
330
C
100
AcDbDictionary
281
     1
  3
Standard
350
18
  0
DICTIONARY
  5
19
102
{ACAD_REACTORS
330
C
102
}
330
C
100
AcDbDictionary
281
     1
  0
ACDBDICTIONARYWDFLT
  5
E
102
{ACAD_REACTORS
330
C
102
}
330
C
100
AcDbDictionary
281
     1
  3
Normal
350
F
100
AcDbDictionaryWithDefault
340
F
  0
DICTIONARY
  5
47
102
{ACAD_REACTORS
330
C
102
}
330
C
100
AcDbDictionary
281
     1
  3
A0
350
48
  3
A1
350
49
  3
A2
350
4A
  3
A3
350
4B
  3
A4
350
4C
  3
A5
350
4D
  3
A6
350
4E
  3
A7
350
4F
  3
A8
350
50
  3
A9
350
51
  3
B0
350
52
  3
B1
350
53
  3
B2
350
54
  3
B3
350
55
  3
B4
350
56
  3
B5
350
57
  3
B6
350
58
  3
B7
350
59
  3
B8
350
5A
  3
B9
350
5B
  3
C0
350
5C
  3
C1
350
5D
  3
C2
350
5E
  3
C3
350
5F
  3
C4
350
60
  3
C5
350
61
  3
C6
350
62
  3
C7
350
63
  3
C8
350
64
  3
C9
350
65
  3
D0
350
66
  3
D1
350
67
  3
D2
350
68
  0
LAYOUT
  5
1E
102
{ACAD_REACTORS
330
1A
102
}
330
1A
100
AcDbPlotSettings
  1

  2
none_device
  4

  6

 40
0.0
 41
0.0
 42
0.0
 43
0.0
 44
0.0
 45
0.0
 46
0.0
 47
0.0
 48
0.0
 49
0.0
140
0.0
141
0.0
142
1.0
143
1.0
 70
   688
 72
     1
 73
     0
 74
     5
  7

 75
    16
147
1.0
148
0.0
149
0.0
100
AcDbLayout
  1
Layout1
 70
     1
 71
     1
 10
0.0
 20
0.0
 11
420.0
 21
297.0
 12
0.0
 22
0.0
 32
0.0
 14
1.0000000000E+20
 24
1.0000000000E+20
 34
1.0000000000E+20
 15
-1.0000000000E+20
 25
-1.0000000000E+20
 35
-1.0000000000E+20
146
0.0
 13
0.0
 23
0.0
 33
0.0
 16
1.0
 26
0.0
 36
0.0
 17
0.0
 27
1.0
 37
0.0
 76
     0
330
1B
  0
LAYOUT
  5
26
102
{ACAD_REACTORS
330
1A
102
}
330
1A
100
AcDbPlotSettings
  1

  2
none_device
  4

  6

 40
0.0
 41
0.0
 42
0.0
 43
0.0
 44
0.0
 45
0.0
 46
0.0
 47
0.0
 48
0.0
 49
0.0
140
0.0
141
0.0
142
1.0
143
1.0
 70
   688
 72
     1
 73
     0
 74
     5
  7

 75
    16
147
1.0
148
0.0
149
0.0
100
AcDbLayout
  1
Layout2
 70
     1
 71
     2
 10
0.0
 20
0.0
 11
0.0
 21
0.0
 12
0.0
 22
0.0
 32
0.0
 14
0.0
 24
0.0
 34
0.0
 15
0.0
 25
0.0
 35
0.0
146
0.0
 13
0.0
 23
0.0
 33
0.0
 16
1.0
 26
0.0
 36
0.0
 17
0.0
 27
1.0
 37
0.0
 76
     0
330
23
  0
LAYOUT
  5
22
102
{ACAD_REACTORS
330
1A
102
}
330
1A
100
AcDbPlotSettings
  1

  2
none_device
  4
Letter_(8.50_x_11.00_Inches)
  6

 40
6.35
 41
6.35
 42
6.35000508
 43
6.35000508
 44
215.9
 45
279.4
 46
0.0
 47
0.0
 48
0.0
 49
0.0
140
0.0
141
0.0
142
1.0
143
1.0
 70
  1712
 72
     1
 73
     0
 74
     0
  7

 75
     0
147
1.0
148
0.0
149
0.0
100
AcDbLayout
  1
Model
 70
     1
 71
     0
 10
0.0
 20
0.0
 11
594.0
 21
420.0
 12
0.0
 22
0.0
 32
0.0
 14
0.0
 24
0.0
 34
0.0
 15
594.0
 25
420.0
 35
0.0
146
0.0
 13
0.0
 23
0.0
 33
0.0
 16
1.0
 26
0.0
 36
0.0
 17
0.0
 27
1.0
 37
0.0
 76
     0
330
1F
331
29
  0
MLINESTYLE
  5
18
102
{ACAD_REACTORS
330
17
102
}
330
17
100
AcDbMlineStyle
  2
Standard
 70
     0
  3

 62
   256
 51
90.0
 52
90.0
 71
     2
 49
0.5
 62
   256
  6
BYLAYER
 49
-0.5
 62
   256
  6
BYLAYER
  0
ACDBPLACEHOLDER
  5
F
102
{ACAD_REACTORS
330
E
102
}
330
E
  0
SCALE
  5
48
102
{ACAD_REACTORS
330
47
102
}
330
47
100
AcDbScale
 70
     0
300
1:1
140
1.0
141
1.0
290
     1
  0
SCALE
  5
49
102
{ACAD_REACTORS
330
47
102
}
330
47
100
AcDbScale
 70
     0
300
1:2
140
1.0
141
2.0
290
     0
  0
SCALE
  5
4A
102
{ACAD_REACTORS
330
47
102
}
330
47
100
AcDbScale
 70
     0
300
1:4
140
1.0
141
4.0
290
     0
  0
SCALE
  5
4B
102
{ACAD_REACTORS
330
47
102
}
330
47
100
AcDbScale
 70
     0
300
1:5
140
1.0
141
5.0
290
     0
  0
SCALE
  5
4C
102
{ACAD_REACTORS
330
47
102
}
330
47
100
AcDbScale
 70
     0
300
1:8
140
1.0
141
8.0
290
     0
  0
SCALE
  5
4D
102
{ACAD_REACTORS
330
47
102
}
330
47
100
AcDbScale
 70
     0
300
1:10
140
1.0
141
10.0
290
     0
  0
SCALE
  5
4E
102
{ACAD_REACTORS
330
47
102
}
330
47
100
AcDbScale
 70
     0
300
1:16
140
1.0
141
16.0
290
     0
  0
SCALE
  5
4F
102
{ACAD_REACTORS
330
47
102
}
330
47
100
AcDbScale
 70
     0
300
1:20
140
1.0
141
20.0
290
     0
  0
SCALE
  5
50
102
{ACAD_REACTORS
330
47
102
}
330
47
100
AcDbScale
 70
     0
300
1:30
140
1.0
141
30.0
290
     0
  0
SCALE
  5
51
102
{ACAD_REACTORS
330
47
102
}
330
47
100
AcDbScale
 70
     0
300
1:40
140
1.0
141
40.0
290
     0
  0
SCALE
  5
52
102
{ACAD_REACTORS
330
47
102
}
330
47
100
AcDbScale
 70
     0
300
1:50
140
1.0
141
50.0
290
     0
  0
SCALE
  5
53
102
{ACAD_REACTORS
330
47
102
}
330
47
100
AcDbScale
 70
     0
300
1:100
140
1.0
141
100.0
290
     0
  0
SCALE
  5
54
102
{ACAD_REACTORS
330
47
102
}
330
47
100
AcDbScale
 70
     0
300
2:1
140
2.0
141
1.0
290
     0
  0
SCALE
  5
55
102
{ACAD_REACTORS
330
47
102
}
330
47
100
AcDbScale
 70
     0
300
4:1
140
4.0
141
1.0
290
     0
  0
SCALE
  5
56
102
{ACAD_REACTORS
330
47
102
}
330
47
100
AcDbScale
 70
     0
300
8:1
140
8.0
141
1.0
290
     0
  0
SCALE
  5
57
102
{ACAD_REACTORS
330
47
102
}
330
47
100
AcDbScale
 70
     0
300
10:1
140
10.0
141
1.0
290
     0
  0
SCALE
  5
58
102
{ACAD_REACTORS
330
47
102
}
330
47
100
AcDbScale
 70
     0
300
100:1
140
100.0
141
1.0
290
     0
  0
SCALE
  5
59
102
{ACAD_REACTORS
330
47
102
}
330
47
100
AcDbScale
 70
     0
300
1/128" = 1'-0"
140
0.0078125
141
12.0
290
     0
  0
SCALE
  5
5A
102
{ACAD_REACTORS
330
47
102
}
330
47
100
AcDbScale
 70
     0
300
1/64" = 1'-0"
140
0.015625
141
12.0
290
     0
  0
SCALE
  5
5B
102
{ACAD_REACTORS
330
47
102
}
330
47
100
AcDbScale
 70
     0
300
1/32" = 1'-0"
140
0.03125
141
12.0
290
     0
  0
SCALE
  5
5C
102
{ACAD_REACTORS
330
47
102
}
330
47
100
AcDbScale
 70
     0
300
1/16" = 1'-0"
140
0.0625
141
12.0
290
     0
  0
SCALE
  5
5D
102
{ACAD_REACTORS
330
47
102
}
330
47
100
AcDbScale
 70
     0
300
3/32" = 1'-0"
140
0.09375
141
12.0
290
     0
  0
SCALE
  5
5E
102
{ACAD_REACTORS
330
47
102
}
330
47
100
AcDbScale
 70
     0
300
1/8" = 1'-0"
140
0.125
141
12.0
290
     0
  0
SCALE
  5
5F
102
{ACAD_REACTORS
330
47
102
}
330
47
100
AcDbScale
 70
     0
300
3/16" = 1'-0"
140
0.1875
141
12.0
290
     0
  0
SCALE
  5
60
102
{ACAD_REACTORS
330
47
102
}
330
47
100
AcDbScale
 70
     0
300
1/4" = 1'-0"
140
0.25
141
12.0
290
     0
  0
SCALE
  5
61
102
{ACAD_REACTORS
330
47
102
}
330
47
100
AcDbScale
 70
     0
300
3/8" = 1'-0"
140
0.375
141
12.0
290
     0
  0
SCALE
  5
62
102
{ACAD_REACTORS
330
47
102
}
330
47
100
AcDbScale
 70
     0
300
1/2" = 1'-0"
140
0.5
141
12.0
290
     0
  0
SCALE
  5
63
102
{ACAD_REACTORS
330
47
102
}
330
47
100
AcDbScale
 70
     0
300
3/4" = 1'-0"
140
0.75
141
12.0
290
     0
  0
SCALE
  5
64
102
{ACAD_REACTORS
330
47
102
}
330
47
100
AcDbScale
 70
     0
300
1" = 1'-0"
140
1.0
141
12.0
290
     0
  0
SCALE
  5
65
102
{ACAD_REACTORS
330
47
102
}
330
47
100
AcDbScale
 70
     0
300
1-1/2" = 1'-0"
140
1.5
141
12.0
290
     0
  0
SCALE
  5
66
102
{ACAD_REACTORS
330
47
102
}
330
47
100
AcDbScale
 70
     0
300
3" = 1'-0"
140
3.0
141
12.0
290
     0
  0
SCALE
  5
67
102
{ACAD_REACTORS
330
47
102
}
330
47
100
AcDbScale
 70
     0
300
6" = 1'-0"
140
6.0
141
12.0
290
     0
  0
SCALE
  5
68
102
{ACAD_REACTORS
330
47
102
}
330
47
100
AcDbScale
 70
     0
300
1'-0" = 1'-0"
140
12.0
141
12.0
290
     0
  0
ENDSEC
  0
EOF
