  0
SECTION
  2
HEADER
  9
$ACADVER
  1
AC1015
  9
$ACADMAINTVER
 70
     6
  9
$DWGCODEPAGE
  3
ANSI_1252
  9
$INSBASE
 10
0.0
 20
0.0
 30
0.0
  9
$EXTMIN
 10
0.0
 20
0.0
 30
0.0
  9
$EXTMAX
 10
594.0
 20
420.0
 30
0.0
  9
$LIMMIN
 10
0.0
 20
0.0
  9
$LIMMAX
 10
594.0
 20
420.0
  9
$ORTHOMODE
 70
     0
  9
$REGENMODE
 70
     1
  9
$FILLMODE
 70
     1
  9
$QTEXTMODE
 70
     0
  9
$MIRRTEXT
 70
     1
  9
$LTSCALE
 40
1.0
  9
$ATTMODE
 70
     1
  9
$TEXTSIZE
 40
3.5
  9
$TRACEWID
 40
1.0
  9
$TEXTSTYLE
  7
Standard
  9
$CLAYER
  8
0
  9
$CELTYPE
  6
ByLayer
  9
$CECOLOR
 62
   256
  9
$CELTSCALE
 40
1.0
  9
$DISPSILH
 70
     0
  9
$DIMSCALE
 40
1.0
  9
$DIMASZ
 40
3.302
  9
$DIMEXO
 40
1.0
  9
$DIMDLI
 40
3.75
  9
$DIMRND
 40
0.0
  9
$DIMDLE
 40
0.0
  9
$DIMEXE
 40
1.0
  9
$DIMTP
 40
0.0
  9
$DIMTM
 40
0.0
  9
$DIMTXT
 40
3.5
  9
$DIMCEN
 40
2.5
  9
$DIMTSZ
 40
0.0
  9
$DIMTOL
 70
     0
  9
$DIMLIM
 70
     0
  9
$DIMTIH
 70
     1
  9
$DIMTOH
 70
     1
  9
$DIMSE1
 70
     0
  9
$DIMSE2
 70
     0
  9
$DIMTAD
 70
     1
  9
$DIMZIN
 70
     0
  9
$DIMBLK
  1

  9
$DIMASO
 70
     1
  9
$DIMSHO
 70
     1
  9
$DIMPOST
  1

  9
$DIMAPOST
  1

  9
$DIMALT
 70
     0
  9
$DIMALTD
 70
     3
  9
$DIMALTF
 40
0.0393700787
  9
$DIMLFAC
 40
10.0
  9
$DIMTOFL
 70
     1
  9
$DIMTVP
 40
0.0
  9
$DIMTIX
 70
     0
  9
$DIMSOXD
 70
     0
  9
$DIMSAH
 70
     0
  9
$DIMBLK1
  1

  9
$DIMBLK2
  1

  9
$DIMSTYLE
  2
ISO-25
  9
$DIMCLRD
 70
     0
  9
$DIMCLRE
 70
     0
  9
$DIMCLRT
 70
     0
  9
$DIMTFAC
 40
1.0
  9
$DIMGAP
 40
1.524
  9
$DIMJUST
 70
     0
  9
$DIMSD1
 70
     0
  9
$DIMSD2
 70
     0
  9
$DIMTOLJ
 70
     0
  9
$DIMTZIN
 70
     0
  9
$DIMALTZ
 70
     0
  9
$DIMALTTZ
 70
     0
  9
$DIMUPT
 70
     0
  9
$DIMDEC
 70
     2
  9
$DIMTDEC
 70
     2
  9
$DIMALTU
 70
     2
  9
$DIMALTTD
 70
     3
  9
$DIMTXSTY
  7
Standard
  9
$DIMAUNIT
 70
     0
  9
$DIMADEC
 70
     2
  9
$DIMALTRND
 40
0.0
  9
$DIMAZIN
 70
     0
  9
$DIMDSEP
 70
    44
  9
$DIMATFIT
 70
     3
  9
$DIMFRAC
 70
     0
  9
$DIMLDRBLK
  1

  9
$DIMLUNIT
 70
     2
  9
$DIMLWD
 70
    -2
  9
$DIMLWE
 70
    -2
  9
$DIMTMOVE
 70
     0
  9
$LUNITS
 70
     2
  9
$LUPREC
 70
     2
  9
$SKETCHINC
 40
1.0
  9
$FILLETRAD
 40
10.0
  9
$AUNITS
 70
     0
  9
$AUPREC
 70
     2
  9
$MENU
  1
.
  9
$ELEVATION
 40
0.0
  9
$PELEVATION
 40
0.0
  9
$THICKNESS
 40
0.0
  9
$LIMCHECK
 70
     0
  9
$CHAMFERA
 40
0.0
  9
$CHAMFERB
 40
0.0
  9
$CHAMFERC
 40
0.0
  9
$CHAMFERD
 40
0.0
  9
$SKPOLY
 70
     0
  9
$TDCREATE
 40
2458520.703188576
  9
$TDUCREATE
 40
2458520.66152191
  9
$TDUPDATE
 40
2458520.703189849
  9
$TDUUPDATE
 40
2458520.661523183
  9
$TDINDWG
 40
0.0000000116
  9
$TDUSRTIMER
 40
0.0000000116
  9
$USRTIMER
 70
     1
  9
$ANGBASE
 50
0.0
  9
$ANGDIR
 70
     0
  9
$PDMODE
 70
     0
  9
$PDSIZE
 40
-1.0
  9
$PLINEWID
 40
0.0
  9
$SPLFRAME
 70
     0
  9
$SPLINETYPE
 70
     6
  9
$SPLINESEGS
 70
     8
  9
$HANDSEED
  5
4A9
  9
$SURFTAB1
 70
     6
  9
$SURFTAB2
 70
     6
  9
$SURFTYPE
 70
     6
  9
$SURFU
 70
     6
  9
$SURFV
 70
     6
  9
$UCSBASE
  2

  9
$UCSNAME
  2

  9
$UCSORG
 10
0.0
 20
0.0
 30
0.0
  9
$UCSXDIR
 10
1.0
 20
0.0
 30
0.0
  9
$UCSYDIR
 10
0.0
 20
1.0
 30
0.0
  9
$UCSORTHOREF
  2

  9
$UCSORTHOVIEW
 70
     0
  9
$UCSORGTOP
 10
0.0
 20
0.0
 30
0.0
  9
$UCSORGBOTTOM
 10
0.0
 20
0.0
 30
0.0
  9
$UCSORGLEFT
 10
0.0
 20
0.0
 30
0.0
  9
$UCSORGRIGHT
 10
0.0
 20
0.0
 30
0.0
  9
$UCSORGFRONT
 10
0.0
 20
0.0
 30
0.0
  9
$UCSORGBACK
 10
0.0
 20
0.0
 30
0.0
  9
$PUCSBASE
  2

  9
$PUCSNAME
  2

  9
$PUCSORG
 10
0.0
 20
0.0
 30
0.0
  9
$PUCSXDIR
 10
1.0
 20
0.0
 30
0.0
  9
$PUCSYDIR
 10
0.0
 20
1.0
 30
0.0
  9
$PUCSORTHOREF
  2

  9
$PUCSORTHOVIEW
 70
     0
  9
$PUCSORGTOP
 10
0.0
 20
0.0
 30
0.0
  9
$PUCSORGBOTTOM
 10
0.0
 20
0.0
 30
0.0
  9
$PUCSORGLEFT
 10
0.0
 20
0.0
 30
0.0
  9
$PUCSORGRIGHT
 10
0.0
 20
0.0
 30
0.0
  9
$PUCSORGFRONT
 10
0.0
 20
0.0
 30
0.0
  9
$PUCSORGBACK
 10
0.0
 20
0.0
 30
0.0
  9
$USERI1
 70
     0
  9
$USERI2
 70
     0
  9
$USERI3
 70
     0
  9
$USERI4
 70
     0
  9
$USERI5
 70
     0
  9
$USERR1
 40
0.0
  9
$USERR2
 40
0.0
  9
$USERR3
 40
0.0
  9
$USERR4
 40
0.0
  9
$USERR5
 40
0.0
  9
$WORLDVIEW
 70
     1
  9
$SHADEDGE
 70
     3
  9
$SHADEDIF
 70
    70
  9
$TILEMODE
 70
     1
  9
$MAXACTVP
 70
    64
  9
$PINSBASE
 10
0.0
 20
0.0
 30
0.0
  9
$PLIMCHECK
 70
     0
  9
$PEXTMIN
 10
1.0000000000E+20
 20
1.0000000000E+20
 30
1.0000000000E+20
  9
$PEXTMAX
 10
-1.0000000000E+20
 20
-1.0000000000E+20
 30
-1.0000000000E+20
  9
$PLIMMIN
 10
0.0
 20
0.0
  9
$PLIMMAX
 10
420.0
 20
297.0
  9
$UNITMODE
 70
     0
  9
$VISRETAIN
 70
     1
  9
$PLINEGEN
 70
     0
  9
$PSLTSCALE
 70
     1
  9
$TREEDEPTH
 70
  3020
  9
$CMLSTYLE
  2
Standard
  9
$CMLJUST
 70
     0
  9
$CMLSCALE
 40
20.0
  9
$PROXYGRAPHICS
 70
     1
  9
$MEASUREMENT
 70
     1
  9
$CELWEIGHT
370
    -1
  9
$ENDCAPS
280
     0
  9
$JOINSTYLE
280
     0
  9
$LWDISPLAY
290
     1
  9
$INSUNITS
 70
     4
  9
$HYPERLINKBASE
  1

  9
$STYLESHEET
  1

  9
$XEDIT
290
     1
  9
$CEPSNTYPE
380
     0
  9
$PSTYLEMODE
290
     1
  9
$FINGERPRINTGUID
  2
{E1BF399C-D2AB-4D19-AD46-5DCCE6C9CF52}
  9
$VERSIONGUID
  2
{FAEB1C32-E019-11D5-929B-00C0DF256EC4}
  9
$EXTNAMES
290
     1
  9
$PSVPSCALE
 40
0.0
  9
$OLESTARTUP
290
     0
  0
ENDSEC
  0
SECTION
  2
CLASSES
  0
CLASS
  1
ACDBDICTIONARYWDFLT
  2
AcDbDictionaryWithDefault
  3
ObjectDBX Classes
 90
        0
280
     0
281
     0
  0
CLASS
  1
VISUALSTYLE
  2
AcDbVisualStyle
  3
ObjectDBX Classes
 90
     4095
280
     0
281
     0
  0
CLASS
  1
MATERIAL
  2
AcDbMaterial
  3
ObjectDBX Classes
 90
     1153
280
     0
281
     0
  0
CLASS
  1
SCALE
  2
AcDbScale
  3
ObjectDBX Classes
 90
     1153
280
     0
281
     0
  0
CLASS
  1
TABLESTYLE
  2
AcDbTableStyle
  3
ObjectDBX Classes
 90
     4095
280
     0
281
     0
  0
CLASS
  1
MLEADERSTYLE
  2
AcDbMLeaderStyle
  3
ACDB_MLEADERSTYLE_CLASS
 90
     4095
280
     0
281
     0
  0
CLASS
  1
SUN
  2
AcDbSun
  3
SCENEOE
 90
     1153
280
     0
281
     0
  0
CLASS
  1
ACDBPLACEHOLDER
  2
AcDbPlaceHolder
  3
ObjectDBX Classes
 90
        0
280
     0
281
     0
  0
CLASS
  1
LAYOUT
  2
AcDbLayout
  3
ObjectDBX Classes
 90
        0
280
     0
281
     0
  0
ENDSEC
  0
SECTION
  2
TABLES
  0
TABLE
  2
VPORT
  5
8
330
0
100
AcDbSymbolTable
 70
     1
  0
VPORT
  5
29
330
8
100
AcDbSymbolTableRecord
100
AcDbViewportTableRecord
  2
*Active
 70
     0
 10
0.0
 20
0.0
 11
1.0
 21
1.0
 12
297.0
 22
210.0
 13
0.0
 23
0.0
 14
10.0
 24
10.0
 15
10.0
 25
10.0
 16
0.0
 26
0.0
 36
1.0
 17
0.0
 27
0.0
 37
0.0
 40
420.0
 41
1.4142857143
 42
50.0
 43
0.0
 44
0.0
 50
0.0
 51
0.0
 71
     0
 72
  2000
 73
     1
 74
     3
 75
     0
 76
     0
 77
     0
 78
     0
281
     0
 65
     1
110
0.0
120
0.0
130
0.0
111
1.0
121
0.0
131
0.0
112
0.0
122
1.0
132
0.0
 79
     0
146
0.0
  0
ENDTAB
  0
TABLE
  2
LTYPE
  5
5
330
0
100
AcDbSymbolTable
 70
     6
  0
LTYPE
  5
14
330
5
100
AcDbSymbolTableRecord
100
AcDbLinetypeTableRecord
  2
ByBlock
 70
     0
  3

 72
    65
 73
     0
 40
0.0
  0
LTYPE
  5
15
330
5
100
AcDbSymbolTableRecord
100
AcDbLinetypeTableRecord
  2
ByLayer
 70
     0
  3

 72
    65
 73
     0
 40
0.0
  0
LTYPE
  5
16
330
5
100
AcDbSymbolTableRecord
100
AcDbLinetypeTableRecord
  2
Continuous
 70
     0
  3
Solid line
 72
    65
 73
     0
 40
0.0
  0
LTYPE
  5
6E
330
5
100
AcDbSymbolTableRecord
100
AcDbLinetypeTableRecord
  2
HIDDEN
 70
     0
  3
Hidden __ __ __ __ __ __ __ __ __ __ __ __ __ __
 72
    65
 73
     2
 40
1.905
 49
1.27
 74
     0
 49
-0.635
 74
     0
  0
LTYPE
  5
6F
330
5
100
AcDbSymbolTableRecord
100
AcDbLinetypeTableRecord
  2
PHANTOM
 70
     0
  3
Phantom ______  __  __  ______  __  __  ______
 72
    65
 73
     6
 40
12.7
 49
6.35
 74
     0
 49
-1.27
 74
     0
 49
1.27
 74
     0
 49
-1.27
 74
     0
 49
1.27
 74
     0
 49
-1.27
 74
     0
  0
LTYPE
  5
70
330
5
100
AcDbSymbolTableRecord
100
AcDbLinetypeTableRecord
  2
CENTER
 70
     0
  3
Center ____ _ ____ _ ____ _ ____ _ ____ _ ____
 72
    65
 73
     4
 40
10.16
 49
6.35
 74
     0
 49
-1.27
 74
     0
 49
1.27
 74
     0
 49
-1.27
 74
     0
  0
LTYPE
  5
71
330
5
100
AcDbSymbolTableRecord
100
AcDbLinetypeTableRecord
  2
CENTERX2
 70
     0
  3
Center (2x) ________  __  ________  __  _____
 72
    65
 73
     4
 40
20.32
 49
12.7
 74
     0
 49
-2.54
 74
     0
 49
2.54
 74
     0
 49
-2.54
 74
     0
  0
LTYPE
  5
72
330
5
100
AcDbSymbolTableRecord
100
AcDbLinetypeTableRecord
  2
DOT2
 70
     0
  3
Dot (.5x) ........................................
 72
    65
 73
     2
 40
0.635
 49
0.0
 74
     0
 49
-0.635
 74
     0
  0
ENDTAB
  0
TABLE
  2
LAYER
  5
2
330
0
100
AcDbSymbolTable
 70
    37
  0
LAYER
  5
10
330
2
100
AcDbSymbolTableRecord
100
AcDbLayerTableRecord
  2
0
 70
     0
 62
     7
  6
Continuous
370
    -3
390
F
  0
LAYER
  5
73
330
2
100
AcDbSymbolTableRecord
100
AcDbLayerTableRecord
  2
SLD-0
 70
     0
 62
     7
  6
Continuous
370
    -3
390
F
  0
LAYER
  5
74
330
2
100
AcDbSymbolTableRecord
100
AcDbLayerTableRecord
  2
RAHMEN025
 70
     0
 62
     7
  6
Continuous
370
    -3
390
F
  0
LAYER
  5
75
330
2
100
AcDbSymbolTableRecord
100
AcDbLayerTableRecord
  2
RAHMEN07
 70
     0
 62
     5
  6
Continuous
370
    -3
390
F
  0
LAYER
  5
76
330
2
100
AcDbSymbolTableRecord
100
AcDbLayerTableRecord
  2
RAHMEN05
 70
     0
 62
     6
  6
Continuous
370
    -3
390
F
  0
LAYER
  5
77
330
2
100
AcDbSymbolTableRecord
100
AcDbLayerTableRecord
  2
TB
 70
     0
 62
     7
  6
Continuous
370
    -3
390
F
  0
LAYER
  5
78
330
2
100
AcDbSymbolTableRecord
100
AcDbLayerTableRecord
  2
1-VIDNO
 70
     0
 62
     5
  6
Continuous
370
    -3
390
F
  0
LAYER
  5
79
330
2
100
AcDbSymbolTableRecord
100
AcDbLayerTableRecord
  2
2-NEVIDNO
 70
     0
 62
     5
  6
HIDDEN
370
    -3
390
F
  0
LAYER
  5
7A
330
2
100
AcDbSymbolTableRecord
100
AcDbLayerTableRecord
  2
O-GLAVE
 70
     0
 62
     5
  6
Continuous
370
    -3
390
F
  0
LAYER
  5
7B
330
2
100
AcDbSymbolTableRecord
100
AcDbLayerTableRecord
  2
O-TEKST
 70
     0
 62
     7
  6
Continuous
370
    -3
390
F
  0
LAYER
  5
7C
330
2
100
AcDbSymbolTableRecord
100
AcDbLayerTableRecord
  2
O-ZUNANJI
 70
     0
 62
     7
  6
Continuous
370
    -3
390
F
  0
LAYER
  5
7D
330
2
100
AcDbSymbolTableRecord
100
AcDbLayerTableRecord
  2
SLD-DEFPOINTS
 70
     0
 62
     7
  6
Continuous
370
    -3
390
F
  0
LAYER
  5
7E
330
2
100
AcDbSymbolTableRecord
100
AcDbLayerTableRecord
  2
3-POMOZNO
 70
     0
 62
     4
  6
Continuous
370
    -3
390
F
  0
LAYER
  5
7F
330
2
100
AcDbSymbolTableRecord
100
AcDbLayerTableRecord
  2
4-SREDNJICA
 70
     0
 62
     1
  6
CENTER
370
    -3
390
F
  0
LAYER
  5
80
330
2
100
AcDbSymbolTableRecord
100
AcDbLayerTableRecord
  2
5-SRAFURA
 70
     0
 62
     7
  6
Continuous
370
    -3
390
F
  0
LAYER
  5
81
330
2
100
AcDbSymbolTableRecord
100
AcDbLayerTableRecord
  2
6-KOTE
 70
     0
 62
     7
  6
Continuous
370
    -3
390
F
  0
LAYER
  5
82
330
2
100
AcDbSymbolTableRecord
100
AcDbLayerTableRecord
  2
7-TEKST
 70
     0
 62
     7
  6
Continuous
370
    -3
390
F
  0
LAYER
  5
83
330
2
100
AcDbSymbolTableRecord
100
AcDbLayerTableRecord
  2
8-VARJENJA
 70
     0
 62
     1
  6
Continuous
370
    -3
390
F
  0
LAYER
  5
84
330
2
100
AcDbSymbolTableRecord
100
AcDbLayerTableRecord
  2
BEMASSUNG
 70
     0
 62
     7
  6
Continuous
370
    -3
390
F
  0
LAYER
  5
85
330
2
100
AcDbSymbolTableRecord
100
AcDbLayerTableRecord
  2
UMRISS03
 70
     0
 62
     7
  6
Continuous
370
    -3
390
F
  0
LAYER
  5
86
330
2
100
AcDbSymbolTableRecord
100
AcDbLayerTableRecord
  2
UMRISS02
 70
     0
 62
     7
  6
Continuous
370
    -3
390
F
  0
LAYER
  5
87
330
2
100
AcDbSymbolTableRecord
100
AcDbLayerTableRecord
  2
HILFSLINIEN
 70
     0
 62
     7
  6
Continuous
370
    -3
390
F
  0
LAYER
  5
88
330
2
100
AcDbSymbolTableRecord
100
AcDbLayerTableRecord
  2
UMRISS03_-PSPAC_
 70
     0
 62
     7
  6
Continuous
370
    -3
390
F
  0
LAYER
  5
89
330
2
100
AcDbSymbolTableRecord
100
AcDbLayerTableRecord
  2
ACA_VARSAVE
 70
     0
 62
     7
  6
Continuous
370
    -3
390
F
  0
LAYER
  5
8A
330
2
100
AcDbSymbolTableRecord
100
AcDbLayerTableRecord
  2
KONTUREN
 70
     0
 62
     7
  6
Continuous
370
    -3
390
F
  0
LAYER
  5
8B
330
2
100
AcDbSymbolTableRecord
100
AcDbLayerTableRecord
  2
ACHSE
 70
     0
 62
     7
  6
Continuous
370
    -3
390
F
  0
LAYER
  5
8C
330
2
100
AcDbSymbolTableRecord
100
AcDbLayerTableRecord
  2
UNSICHTBAR
 70
     0
 62
     7
  6
Continuous
370
    -3
390
F
  0
LAYER
  5
8D
330
2
100
AcDbSymbolTableRecord
100
AcDbLayerTableRecord
  2
MASSE
 70
     0
 62
     7
  6
Continuous
370
    -3
390
F
  0
LAYER
  5
8E
330
2
100
AcDbSymbolTableRecord
100
AcDbLayerTableRecord
  2
RAND
 70
     0
 62
     7
  6
Continuous
370
    -3
390
F
  0
LAYER
  5
8F
330
2
100
AcDbSymbolTableRecord
100
AcDbLayerTableRecord
  2
D-TEXT
 70
     0
 62
     7
  6
Continuous
370
    -3
390
F
  0
LAYER
  5
90
330
2
100
AcDbSymbolTableRecord
100
AcDbLayerTableRecord
  2
F-TEXT
 70
     0
 62
     7
  6
Continuous
370
    -3
390
F
  0
LAYER
  5
91
330
2
100
AcDbSymbolTableRecord
100
AcDbLayerTableRecord
  2
I-TEXT
 70
     0
 62
     7
  6
Continuous
370
    -3
390
F
  0
LAYER
  5
92
330
2
100
AcDbSymbolTableRecord
100
AcDbLayerTableRecord
  2
D-TEXT-FETT
 70
     0
 62
     7
  6
Continuous
370
    -3
390
F
  0
LAYER
  5
93
330
2
100
AcDbSymbolTableRecord
100
AcDbLayerTableRecord
  2
F-TEXT-FETT
 70
     0
 62
     7
  6
Continuous
370
    -3
390
F
  0
LAYER
  5
94
330
2
100
AcDbSymbolTableRecord
100
AcDbLayerTableRecord
  2
I-TEXT-FETT
 70
     0
 62
     7
  6
Continuous
370
    -3
390
F
  0
LAYER
  5
95
330
2
100
AcDbSymbolTableRecord
100
AcDbLayerTableRecord
  2
TEXT-D-F-I
 70
     0
 62
     7
  6
Continuous
370
    -3
390
F
  0
LAYER
  5
96
330
2
100
AcDbSymbolTableRecord
100
AcDbLayerTableRecord
  2
TEXT-D-F-I-FETT
 70
     0
 62
     7
  6
Continuous
370
    -3
390
F
  0
ENDTAB
  0
TABLE
  2
STYLE
  5
3
330
0
100
AcDbSymbolTable
 70
     2
  0
STYLE
  5
11
330
3
100
AcDbSymbolTableRecord
100
AcDbTextStyleTableRecord
  2
Standard
 70
     0
 40
0.0
 41
1.0
 50
0.0
 71
     0
 42
3.5
  3
txt
  4

  0
STYLE
  5
C6
330
3
100
AcDbSymbolTableRecord
100
AcDbTextStyleTableRecord
  2
SLDTEXTSTYLE0
 70
     0
 40
0.0
 41
0.75
 50
0.0
 71
     0
 42
3.5
  3
TXT
  4

  0
ENDTAB
  0
TABLE
  2
VIEW
  5
6
330
0
100
AcDbSymbolTable
 70
     0
  0
ENDTAB
  0
TABLE
  2
UCS
  5
7
330
0
100
AcDbSymbolTable
 70
     0
  0
ENDTAB
  0
TABLE
  2
APPID
  5
9
330
0
100
AcDbSymbolTable
 70
     1
  0
APPID
  5
12
330
9
100
AcDbSymbolTableRecord
100
AcDbRegAppTableRecord
  2
ACAD
 70
     0
  0
ENDTAB
  0
TABLE
  2
DIMSTYLE
  5
A
330
0
100
AcDbSymbolTable
 70
     1
100
AcDbDimStyleTable
  0
DIMSTYLE
105
27
330
A
100
AcDbSymbolTableRecord
100
AcDbDimStyleTableRecord
  2
ISO-25
 70
     0
 41
2.5
 42
0.625
 43
3.75
 44
1.25
 73
     0
 74
     0
 77
     1
 78
     8
140
2.5
141
2.5
143
0.0393700787
147
0.625
171
     3
172
     1
178
     0
271
     2
272
     2
274
     3
278
    44
283
     0
284
     8
340
11
  0
ENDTAB
  0
TABLE
  2
BLOCK_RECORD
  5
1
330
0
100
AcDbSymbolTable
 70
     3
  0
BLOCK_RECORD
  5
1F
330
1
100
AcDbSymbolTableRecord
100
AcDbBlockTableRecord
  2
*Model_Space
340
22
  0
BLOCK_RECORD
  5
1B
330
1
100
AcDbSymbolTableRecord
100
AcDbBlockTableRecord
  2
*Paper_Space
340
1E
  0
BLOCK_RECORD
  5
23
330
1
100
AcDbSymbolTableRecord
100
AcDbBlockTableRecord
  2
*Paper_Space0
340
26
  0
BLOCK_RECORD
  5
194
330
1
100
AcDbSymbolTableRecord
100
AcDbBlockTableRecord
  2
SW_NOTE_0
340
0
102
{BLKREFS
331
199
102
}
  0
BLOCK_RECORD
  5
293
330
1
100
AcDbSymbolTableRecord
100
AcDbBlockTableRecord
  2
SW_NOTE_1
340
0
102
{BLKREFS
331
298
102
}
  0
ENDTAB
  0
ENDSEC
  0
SECTION
  2
BLOCKS
  0
BLOCK
  5
20
330
1F
100
AcDbEntity
  8
0
100
AcDbBlockBegin
  2
*Model_Space
 70
     0
 10
0.0
 20
0.0
 30
0.0
  3
*Model_Space
  1

  0
ENDBLK
  5
21
330
1F
100
AcDbEntity
  8
0
100
AcDbBlockEnd
  0
BLOCK
  5
1C
330
1B
100
AcDbEntity
 67
     1
  8
0
100
AcDbBlockBegin
  2
*Paper_Space
 70
     0
 10
0.0
 20
0.0
 30
0.0
  3
*Paper_Space
  1

  0
ENDBLK
  5
1D
330
1B
100
AcDbEntity
 67
     1
  8
0
100
AcDbBlockEnd
  0
BLOCK
  5
24
330
23
100
AcDbEntity
  8
0
100
AcDbBlockBegin
  2
*Paper_Space0
 70
     0
 10
0.0
 20
0.0
 30
0.0
  3
*Paper_Space0
  1

  0
ENDBLK
  5
25
330
23
100
AcDbEntity
  8
0
100
AcDbBlockEnd
  0
BLOCK
  5
195
330
194
100
AcDbEntity
  8
0
100
AcDbBlockBegin
  2
SW_NOTE_0
 70
     0
 10
0.0
 20
0.0
 30
0.0
  3
SW_NOTE_0
  1

  0
MTEXT
  5
197
330
194
100
AcDbEntity
  8
O-TEKST
 62
     0
100
AcDbMText
 10
16.0734375
 20
8.1855801476
 30
0.0
 40
6.35
 41
0.0
 71
     2
 72
     1
  1
SCHNITT
  7
SLDTEXTSTYLE0
 73
     1
 44
1.0
  0
MTEXT
  5
198
330
194
100
AcDbEntity
  8
O-TEKST
 62
     0
100
AcDbMText
 10
38.5538176
 20
5.3469457771
 30
0.0
 40
3.5
 41
0.0
 71
     2
 72
     1
  1
A-A
  7
SLDTEXTSTYLE0
 73
     1
 44
1.0
  0
ENDBLK
  5
196
330
194
100
AcDbEntity
  8
0
100
AcDbBlockEnd
  0
BLOCK
  5
294
330
293
100
AcDbEntity
  8
0
100
AcDbBlockBegin
  2
SW_NOTE_1
 70
     0
 10
0.0
 20
0.0
 30
0.0
  3
SW_NOTE_1
  1

  0
MTEXT
  5
296
330
293
100
AcDbEntity
  8
O-TEKST
 62
     0
100
AcDbMText
 10
16.0734375
 20
8.1855801476
 30
0.0
 40
6.35
 41
0.0
 71
     2
 72
     1
  1
SCHNITT
  7
SLDTEXTSTYLE0
 73
     1
 44
1.0
  0
MTEXT
  5
297
330
293
100
AcDbEntity
  8
O-TEKST
 62
     0
100
AcDbMText
 10
38.0069426
 20
5.3469457771
 30
0.0
 40
3.5
 41
0.0
 71
     2
 72
     1
  1
B-B
  7
SLDTEXTSTYLE0
 73
     1
 44
1.0
  0
ENDBLK
  5
295
330
293
100
AcDbEntity
  8
0
100
AcDbBlockEnd
  0
ENDSEC
  0
SECTION
  2
ENTITIES
  0
LINE
  5
97
330
1F
100
AcDbEntity
  8
0
  6
Continuous
 62
     7
370
    25
100
AcDbLine
 10
123.5859379957
 20
36.0904586009
 30
0.0
 11
56.3859389017
 21
36.0904586009
 31
0.0
  0
ARC
  5
98
330
1F
100
AcDbEntity
  8
0
  6
Continuous
 62
     7
370
    25
100
AcDbCircle
 10
56.3859384487
 20
38.0904592208
 30
0.0
 40
2.0
100
AcDbArc
 50
180.0
 51
270.0
  0
LINE
  5
99
330
1F
100
AcDbEntity
  8
0
  6
Continuous
 62
     7
370
    25
100
AcDbLine
 10
54.3859378288
 20
38.0904596738
 30
0.0
 11
54.3859378288
 21
105.2904587678
 31
0.0
  0
ARC
  5
9A
330
1F
100
AcDbEntity
  8
0
  6
Continuous
 62
     7
370
    25
100
AcDbCircle
 10
56.3859384487
 20
105.2904592208
 30
0.0
 40
2.000000000000014
100
AcDbArc
 50
90.0
 51
180.0
  0
LINE
  5
9B
330
1F
100
AcDbEntity
  8
0
  6
Continuous
 62
     7
370
    25
100
AcDbLine
 10
56.3859389017
 20
107.2904598407
 30
0.0
 11
123.5859379957
 21
107.2904598407
 31
0.0
  0
ARC
  5
9C
330
1F
100
AcDbEntity
  8
0
  6
Continuous
 62
     7
370
    25
100
AcDbCircle
 10
123.5859384487
 20
105.2904592208
 30
0.0
 40
2.000000000000014
100
AcDbArc
 50
0.0
 51
90.0
  0
ARC
  5
9D
330
1F
100
AcDbEntity
  8
0
  6
Continuous
 62
     7
370
    25
100
AcDbCircle
 10
123.5859384487
 20
38.0904592208
 30
0.0
 40
2.0
100
AcDbArc
 50
270.0
 51
0.0
  0
LINE
  5
9E
330
1F
100
AcDbEntity
  8
0
  6
Continuous
 62
     7
370
    25
100
AcDbLine
 10
111.6359383652
 20
71.190459232
 30
0.0
 11
111.2104386876
 21
71.190459232
 31
0.0
  0
ARC
  5
9F
330
1F
100
AcDbEntity
  8
0
  6
Continuous
 62
     7
370
    25
100
AcDbCircle
 10
111.6359384487
 20
71.6904592208
 30
0.0
 40
0.5
100
AcDbArc
 50
270.0
 51
90.0
  0
LINE
  5
A0
330
1F
100
AcDbEntity
  8
0
  6
Continuous
 62
     7
370
    25
100
AcDbLine
 10
111.2104386876
 20
72.1904592096
 30
0.0
 11
111.6359383652
 21
72.1904592096
 31
0.0
  0
ARC
  5
A1
330
1F
100
AcDbEntity
  8
0
  6
Continuous
 62
     7
370
    25
100
AcDbCircle
 10
110.5859384487
 20
71.6904592208
 30
0.0
 40
0.7999999999999993
100
AcDbArc
 50
38.6821874535
 51
141.3178125465
  0
LINE
  5
A2
330
1F
100
AcDbEntity
  8
0
  6
Continuous
 62
     7
370
    25
100
AcDbLine
 10
109.5359385798
 20
72.1904592096
 30
0.0
 11
109.9614382575
 21
72.1904592096
 31
0.0
  0
ARC
  5
A3
330
1F
100
AcDbEntity
  8
0
  6
Continuous
 62
     7
370
    25
100
AcDbCircle
 10
109.5359384487
 20
71.6904592208
 30
0.0
 40
0.5
100
AcDbArc
 50
90.0
 51
270.0
  0
LINE
  5
A4
330
1F
100
AcDbEntity
  8
0
  6
Continuous
 62
     7
370
    25
100
AcDbLine
 10
109.9614382575
 20
71.190459232
 30
0.0
 11
109.5359385798
 21
71.190459232
 31
0.0
  0
ARC
  5
A5
330
1F
100
AcDbEntity
  8
0
  6
Continuous
 62
     7
370
    25
100
AcDbCircle
 10
110.5859384487
 20
71.6904592208
 30
0.0
 40
0.7999999999999993
100
AcDbArc
 50
218.6821874535
 51
321.3178125465
  0
LINE
  5
A6
330
1F
100
AcDbEntity
  8
0
  6
Continuous
 62
     7
370
    25
100
AcDbLine
 10
70.0104386399
 20
71.190459232
 30
0.0
 11
70.4359383175
 21
71.190459232
 31
0.0
  0
ARC
  5
A7
330
1F
100
AcDbEntity
  8
0
  6
Continuous
 62
     7
370
    25
100
AcDbCircle
 10
70.4359384487
 20
71.6904592208
 30
0.0
 40
0.5
100
AcDbArc
 50
270.0
 51
90.0
  0
LINE
  5
A8
330
1F
100
AcDbEntity
  8
0
  6
Continuous
 62
     7
370
    25
100
AcDbLine
 10
70.4359383175
 20
72.1904592096
 30
0.0
 11
70.0104386399
 21
72.1904592096
 31
0.0
  0
ARC
  5
A9
330
1F
100
AcDbEntity
  8
0
  6
Continuous
 62
     7
370
    25
100
AcDbCircle
 10
69.3859384487
 20
71.6904592208
 30
0.0
 40
0.7999999999999993
100
AcDbArc
 50
38.6821874535
 51
141.3178125465
  0
LINE
  5
AA
330
1F
100
AcDbEntity
  8
0
  6
Continuous
 62
     7
370
    25
100
AcDbLine
 10
68.7614382098
 20
72.1904592096
 30
0.0
 11
68.3359385321
 21
72.1904592096
 31
0.0
  0
ARC
  5
AB
330
1F
100
AcDbEntity
  8
0
  6
Continuous
 62
     7
370
    25
100
AcDbCircle
 10
68.3359384487
 20
71.6904592208
 30
0.0
 40
0.5
100
AcDbArc
 50
90.0
 51
270.0
  0
LINE
  5
AC
330
1F
100
AcDbEntity
  8
0
  6
Continuous
 62
     7
370
    25
100
AcDbLine
 10
68.3359385321
 20
71.190459232
 30
0.0
 11
68.7614382098
 21
71.190459232
 31
0.0
  0
ARC
  5
AD
330
1F
100
AcDbEntity
  8
0
  6
Continuous
 62
     7
370
    25
100
AcDbCircle
 10
69.3859384487
 20
71.6904592208
 30
0.0
 40
0.7999999999999993
100
AcDbArc
 50
218.6821874535
 51
321.3178125465
  0
LINE
  5
AE
330
1F
100
AcDbEntity
  8
0
  6
Continuous
 62
     7
370
    25
100
AcDbLine
 10
125.5859390686
 20
105.2904587678
 30
0.0
 11
125.5859390686
 21
38.0904596738
 31
0.0
  0
LINE
  5
AF
330
1F
100
AcDbEntity
  8
0
  6
Continuous
 62
     7
370
    25
100
AcDbLine
 10
54.1859374235
 20
35.8904581956
 30
0.0
 11
53.9859370182
 21
35.6904577903
 31
0.0
  0
LINE
  5
B0
330
1F
100
AcDbEntity
  8
0
  6
Continuous
 62
     7
370
    25
100
AcDbLine
 10
53.9859370182
 20
107.6904606513
 30
0.0
 11
53.9859370182
 21
35.6904577903
 31
0.0
  0
LINE
  5
B1
330
1F
100
AcDbEntity
  8
0
  6
Continuous
 62
     7
370
    25
100
AcDbLine
 10
54.1859374235
 20
107.490460246
 30
0.0
 11
53.9859370182
 21
107.6904606513
 31
0.0
  0
LINE
  5
B2
330
1F
100
AcDbEntity
  8
0
  6
Continuous
 62
     7
370
    25
100
AcDbLine
 10
54.1859374235
 20
35.8904581956
 30
0.0
 11
54.1859374235
 21
107.490460246
 31
0.0
  0
LINE
  5
B3
330
1F
100
AcDbEntity
  8
0
  6
Continuous
 62
     7
370
    25
100
AcDbLine
 10
125.9859398792
 20
35.6904577903
 30
0.0
 11
125.7859394739
 21
35.8904581956
 31
0.0
  0
LINE
  5
B4
330
1F
100
AcDbEntity
  8
0
  6
Continuous
 62
     7
370
    25
100
AcDbLine
 10
53.9859370182
 20
35.6904577903
 30
0.0
 11
125.9859398792
 21
35.6904577903
 31
0.0
  0
LINE
  5
B5
330
1F
100
AcDbEntity
  8
0
  6
Continuous
 62
     7
370
    25
100
AcDbLine
 10
125.7859394739
 20
35.8904581956
 30
0.0
 11
54.1859374235
 21
35.8904581956
 31
0.0
  0
LINE
  5
B6
330
1F
100
AcDbEntity
  8
0
  6
Continuous
 62
     7
370
    25
100
AcDbLine
 10
125.7859394739
 20
35.8904581956
 30
0.0
 11
125.7859394739
 21
107.490460246
 31
0.0
  0
LINE
  5
B7
330
1F
100
AcDbEntity
  8
0
  6
Continuous
 62
     7
370
    25
100
AcDbLine
 10
125.7859394739
 20
107.490460246
 30
0.0
 11
54.1859374235
 21
107.490460246
 31
0.0
  0
LINE
  5
B8
330
1F
100
AcDbEntity
  8
0
  6
Continuous
 62
     7
370
    25
100
AcDbLine
 10
125.9859398792
 20
107.6904606513
 30
0.0
 11
125.7859394739
 21
107.490460246
 31
0.0
  0
LINE
  5
B9
330
1F
100
AcDbEntity
  8
0
  6
Continuous
 62
     7
370
    25
100
AcDbLine
 10
125.9859398792
 20
35.6904577903
 30
0.0
 11
125.9859398792
 21
107.6904606513
 31
0.0
  0
LINE
  5
BA
330
1F
100
AcDbEntity
  8
0
  6
Continuous
 62
     7
370
    25
100
AcDbLine
 10
125.9859398792
 20
107.6904606513
 30
0.0
 11
53.9859370182
 21
107.6904606513
 31
0.0
  0
LINE
  5
BB
330
1F
100
AcDbEntity
  8
0
  6
Continuous
 62
     7
370
    25
100
AcDbLine
 10
129.9859390447
 20
31.6904586247
 30
0.0
 11
129.9859390447
 21
111.6904598168
 31
0.0
  0
LINE
  5
BC
330
1F
100
AcDbEntity
  8
0
  6
Continuous
 62
     7
370
    25
100
AcDbLine
 10
49.9859378526
 20
111.6904598168
 30
0.0
 11
49.9859378526
 21
31.6904586247
 31
0.0
  0
LINE
  5
BD
330
1F
100
AcDbEntity
  8
0
  6
Continuous
 62
     7
370
    25
100
AcDbLine
 10
49.9859378526
 20
31.6904586247
 30
0.0
 11
129.9859390447
 21
31.6904586247
 31
0.0
  0
LINE
  5
BE
330
1F
100
AcDbEntity
  8
0
  6
Continuous
 62
     7
370
    25
100
AcDbLine
 10
129.9859390447
 20
111.6904598168
 30
0.0
 11
49.9859378526
 21
111.6904598168
 31
0.0
  0
LINE
  5
BF
330
1F
100
AcDbEntity
  8
0
  6
Continuous
 62
     7
370
    25
100
AcDbLine
 10
69.9859381507
 20
72.2196094665
 30
0.0
 11
69.9859381507
 21
71.1613089751
 31
0.0
  0
LINE
  5
C0
330
1F
100
AcDbEntity
  8
0
  6
Continuous
 62
     7
370
    25
100
AcDbLine
 10
109.9859387467
 20
71.1613089751
 30
0.0
 11
109.9859387467
 21
72.2196094665
 31
0.0
  0
LINE
  5
C1
330
1F
100
AcDbEntity
  8
0
  6
PHANTOM
 62
     7
370
    35
100
AcDbLine
 10
89.9859384487
 20
122.1802557055
 30
0.0
 11
89.9859384487
 21
21.2006627361
 31
0.0
  0
LINE
  5
C2
330
1F
100
AcDbEntity
  8
0
  6
Continuous
 62
     7
370
    35
100
AcDbLine
 10
77.9859384487
 20
120.1802557055
 30
0.0
 11
89.9859384487
 21
120.1802557055
 31
0.0
  0
SOLID
  5
C3
330
1F
100
AcDbEntity
  8
0
  6
Continuous
 62
     7
370
    35
100
AcDbTrace
 10
89.9859384487
 20
120.1802557055
 30
0.0
 11
83.9859384487
 21
121.6802557055
 31
0.0
 12
83.9859384487
 22
118.6802557055
 32
0.0
 13
83.9859384487
 23
118.6802557055
 33
0.0
  0
LINE
  5
C4
330
1F
100
AcDbEntity
  8
0
  6
Continuous
 62
     7
370
    35
100
AcDbLine
 10
77.9859384487
 20
23.2006627361
 30
0.0
 11
89.9859384487
 21
23.2006627361
 31
0.0
  0
SOLID
  5
C5
330
1F
100
AcDbEntity
  8
0
  6
Continuous
 62
     7
370
    35
100
AcDbTrace
 10
89.9859384487
 20
23.2006627361
 30
0.0
 11
83.9859384487
 21
24.7006627361
 31
0.0
 12
83.9859384487
 22
21.7006627361
 32
0.0
 13
83.9859384487
 23
21.7006627361
 33
0.0
  0
MTEXT
  5
C7
330
1F
100
AcDbEntity
  8
0
  6
Continuous
 62
     7
100
AcDbMText
 10
77.9859384487
 20
130.2637506715
 30
0.0
 40
6.35
 41
0.0
 71
     1
 72
     1
  1
A
  7
SLDTEXTSTYLE0
 73
     1
 44
1.0
  0
MTEXT
  5
C8
330
1F
100
AcDbEntity
  8
0
  6
Continuous
 62
     7
100
AcDbMText
 10
77.9859384487
 20
19.8428589124
 30
0.0
 40
6.35
 41
0.0
 71
     1
 72
     1
  1
A
  7
SLDTEXTSTYLE0
 73
     1
 44
1.0
  0
LINE
  5
C9
330
1F
100
AcDbEntity
  8
0
  6
PHANTOM
 62
     7
370
    35
100
AcDbLine
 10
140.4757349334
 20
71.6904592208
 30
0.0
 11
39.4961419639
 21
71.6904592208
 31
0.0
  0
LINE
  5
CA
330
1F
100
AcDbEntity
  8
0
  6
Continuous
 62
     7
370
    35
100
AcDbLine
 10
138.4757349334
 20
59.6904592208
 30
0.0
 11
138.4757349334
 21
71.6904592208
 31
0.0
  0
SOLID
  5
CB
330
1F
100
AcDbEntity
  8
0
  6
Continuous
 62
     7
370
    35
100
AcDbTrace
 10
138.4757349334
 20
71.6904592208
 30
0.0
 11
136.9757349334
 21
65.6904592208
 31
0.0
 12
139.9757349334
 22
65.6904592208
 32
0.0
 13
139.9757349334
 23
65.6904592208
 33
0.0
  0
LINE
  5
CC
330
1F
100
AcDbEntity
  8
0
  6
Continuous
 62
     7
370
    35
100
AcDbLine
 10
41.4961419639
 20
59.6904592208
 30
0.0
 11
41.4961419639
 21
71.6904592208
 31
0.0
  0
SOLID
  5
CD
330
1F
100
AcDbEntity
  8
0
  6
Continuous
 62
     7
370
    35
100
AcDbTrace
 10
41.4961419639
 20
71.6904592208
 30
0.0
 11
39.9961419639
 21
65.6904592208
 31
0.0
 12
42.9961419639
 22
65.6904592208
 32
0.0
 13
42.9961419639
 23
65.6904592208
 33
0.0
  0
MTEXT
  5
CE
330
1F
100
AcDbEntity
  8
0
  6
Continuous
 62
     7
100
AcDbMText
 10
140.420104112
 20
69.7739541868
 30
0.0
 40
6.35
 41
0.0
 71
     1
 72
     1
  1
B
  7
SLDTEXTSTYLE0
 73
     1
 44
1.0
  0
MTEXT
  5
CF
330
1F
100
AcDbEntity
  8
0
  6
Continuous
 62
     7
100
AcDbMText
 10
34.690849839
 20
69.7739541868
 30
0.0
 40
6.35
 41
0.0
 71
     1
 72
     1
  1
B
  7
SLDTEXTSTYLE0
 73
     1
 44
1.0
  0
LINE
  5
D0
330
1F
100
AcDbEntity
  8
0
  6
Continuous
 62
     7
370
    25
100
AcDbLine
 10
324.4684115125
 20
42.1904605321
 30
0.0
 11
324.4684115125
 21
101.1904579095
 31
0.0
  0
LINE
  5
D1
330
1F
100
AcDbEntity
  8
0
  6
Continuous
 62
     7
370
    25
100
AcDbLine
 10
324.4684115125
 20
42.1904605321
 30
0.0
 11
324.2684021664
 21
42.1904605321
 31
0.0
  0
LINE
  5
D2
330
1F
100
AcDbEntity
  8
0
  6
Continuous
 62
     7
370
    25
100
AcDbLine
 10
324.2684021664
 20
42.1904605321
 30
0.0
 11
324.2684021664
 21
101.1904579095
 31
0.0
  0
LINE
  5
D3
330
1F
100
AcDbEntity
  8
0
  6
Continuous
 62
     7
370
    25
100
AcDbLine
 10
324.4684115125
 20
101.1904579095
 30
0.0
 11
324.2684021664
 21
101.1904579095
 31
0.0
  0
LINE
  5
D4
330
1F
100
AcDbEntity
  8
0
  6
Continuous
 62
     7
370
    25
100
AcDbLine
 10
329.0684118939
 20
101.1904579095
 30
0.0
 11
329.0684118939
 21
42.1904605321
 31
0.0
  0
LINE
  5
D5
330
1F
100
AcDbEntity
  8
0
  6
Continuous
 62
     7
370
    25
100
AcDbLine
 10
329.268409319
 20
101.1904579095
 30
0.0
 11
329.268409319
 21
42.1904605321
 31
0.0
  0
LINE
  5
D6
330
1F
100
AcDbEntity
  8
0
  6
Continuous
 62
     7
370
    25
100
AcDbLine
 10
329.268409319
 20
42.1904605321
 30
0.0
 11
329.0684118939
 21
42.1904605321
 31
0.0
  0
LINE
  5
D7
330
1F
100
AcDbEntity
  8
0
  6
Continuous
 62
     7
370
    25
100
AcDbLine
 10
329.268409319
 20
101.1904579095
 30
0.0
 11
329.0684118939
 21
101.1904579095
 31
0.0
  0
LINE
  5
D8
330
1F
100
AcDbEntity
  8
0
  6
Continuous
 62
     7
370
    25
100
AcDbLine
 10
324.4684115125
 20
42.1904605321
 30
0.0
 11
324.6684089375
 21
42.1904605321
 31
0.0
  0
LINE
  5
D9
330
1F
100
AcDbEntity
  8
0
  6
Continuous
 62
     7
370
    25
100
AcDbLine
 10
324.4684115125
 20
101.1904579095
 30
0.0
 11
324.6684089375
 21
101.1904579095
 31
0.0
  0
LINE
  5
DA
330
1F
100
AcDbEntity
  8
0
  6
Continuous
 62
     7
370
    25
100
AcDbLine
 10
328.8684025479
 20
42.1904605321
 30
0.0
 11
329.0684118939
 21
42.1904605321
 31
0.0
  0
LINE
  5
DB
330
1F
100
AcDbEntity
  8
0
  6
Continuous
 62
     7
370
    25
100
AcDbLine
 10
328.8684025479
 20
101.1904579095
 30
0.0
 11
329.0684118939
 21
101.1904579095
 31
0.0
  0
LINE
  5
DC
330
1F
100
AcDbEntity
  8
0
  6
Continuous
 62
     7
370
    25
100
AcDbLine
 10
324.6684089375
 20
42.1904605321
 30
0.0
 11
328.8684025479
 21
42.1904605321
 31
0.0
  0
LINE
  5
DD
330
1F
100
AcDbEntity
  8
0
  6
Continuous
 62
     7
370
    25
100
AcDbLine
 10
324.6684089375
 20
101.1904579095
 30
0.0
 11
328.8684025479
 21
101.1904579095
 31
0.0
  0
LINE
  5
DE
330
1F
100
AcDbEntity
  8
0
  6
Continuous
 62
     7
370
    25
100
AcDbLine
 10
329.268409319
 20
107.2904598407
 30
0.0
 11
329.268409319
 21
36.0904586009
 31
0.0
  0
LINE
  5
DF
330
1F
100
AcDbEntity
  8
0
  6
Continuous
 62
     7
370
    25
100
AcDbLine
 10
329.268409319
 20
107.2904598407
 30
0.0
 11
329.5684114171
 21
107.2904598407
 31
0.0
  0
LINE
  5
E0
330
1F
100
AcDbEntity
  8
0
  6
Continuous
 62
     7
370
    25
100
AcDbLine
 10
329.5684114171
 20
107.2904598407
 30
0.0
 11
329.5684114171
 21
36.0904586009
 31
0.0
  0
LINE
  5
E1
330
1F
100
AcDbEntity
  8
0
  6
Continuous
 62
     7
370
    25
100
AcDbLine
 10
329.5684114171
 20
36.0904586009
 30
0.0
 11
329.268409319
 21
36.0904586009
 31
0.0
  0
LINE
  5
E2
330
1F
100
AcDbEntity
  8
0
  6
Continuous
 62
     7
370
    25
100
AcDbLine
 10
263.268928237
 20
107.6904606513
 30
0.0
 11
259.768407054
 21
107.6904606513
 31
0.0
  0
LINE
  5
E3
330
1F
100
AcDbEntity
  8
0
  6
Continuous
 62
     7
370
    25
100
AcDbLine
 10
265.7684072924
 20
111.6904598168
 30
0.0
 11
263.268928237
 21
107.6904606513
 31
0.0
  0
LINE
  5
E4
330
1F
100
AcDbEntity
  8
0
  6
Continuous
 62
     7
370
    25
100
AcDbLine
 10
270.7684055043
 20
107.6904606513
 30
0.0
 11
270.7684055043
 21
111.6904598168
 31
0.0
  0
LINE
  5
E5
330
1F
100
AcDbEntity
  8
0
  6
Continuous
 62
     7
370
    25
100
AcDbLine
 10
270.7684055043
 20
107.6904606513
 30
0.0
 11
274.2684081269
 21
107.490460246
 31
0.0
  0
LINE
  5
E6
330
1F
100
AcDbEntity
  8
0
  6
Continuous
 62
     7
370
    25
100
AcDbLine
 10
274.2684081269
 20
107.490460246
 30
0.0
 11
274.2684081269
 21
101.6904604129
 31
0.0
  0
LINE
  5
E7
330
1F
100
AcDbEntity
  8
0
  6
Continuous
 62
     7
370
    25
100
AcDbLine
 10
263.2684066964
 20
101.6904604129
 30
0.0
 11
274.2684081269
 21
101.6904604129
 31
0.0
  0
ARC
  5
E8
330
1F
100
AcDbEntity
  8
0
  6
Continuous
 62
     7
370
    25
100
AcDbCircle
 10
263.2684059811
 20
105.1904592208
 30
0.0
 40
3.5
100
AcDbArc
 50
180.0
 51
270.0
  0
LINE
  5
E9
330
1F
100
AcDbEntity
  8
0
  6
Continuous
 62
     7
370
    25
100
AcDbLine
 10
240.2684062792
 20
105.1904600552
 30
0.0
 11
259.768407054
 21
105.1904600552
 31
0.0
  0
LINE
  5
EA
330
1F
100
AcDbEntity
  8
0
  6
Continuous
 62
     7
370
    25
100
AcDbLine
 10
240.2684062792
 20
105.1904600552
 30
0.0
 11
240.2684062792
 21
106.6904586247
 31
0.0
  0
LINE
  5
EB
330
1F
100
AcDbEntity
  8
0
  6
Continuous
 62
     7
370
    25
100
AcDbLine
 10
259.768407054
 20
106.6904586247
 30
0.0
 11
240.2684062792
 21
106.6904586247
 31
0.0
  0
LINE
  5
EC
330
1F
100
AcDbEntity
  8
0
  6
Continuous
 62
     7
370
    25
100
AcDbLine
 10
259.768407054
 20
107.6904606513
 30
0.0
 11
259.768407054
 21
106.6904586247
 31
0.0
  0
LINE
  5
ED
330
1F
100
AcDbEntity
  8
0
  6
Continuous
 62
     7
370
    25
100
AcDbLine
 10
265.7684072924
 20
111.6904598168
 30
0.0
 11
270.7684055043
 21
111.6904598168
 31
0.0
  0
ARC
  5
EE
330
1F
100
AcDbEntity
  8
0
  6
Continuous
 62
     7
370
    25
100
AcDbCircle
 10
263.2684059811
 20
38.1904592208
 30
0.0
 40
3.500000000000007
100
AcDbArc
 50
90.0
 51
180.0
  0
LINE
  5
EF
330
1F
100
AcDbEntity
  8
0
  6
Continuous
 62
     7
370
    25
100
AcDbLine
 10
274.2684081269
 20
41.6904580287
 30
0.0
 11
263.2684066964
 21
41.6904580287
 31
0.0
  0
LINE
  5
F0
330
1F
100
AcDbEntity
  8
0
  6
Continuous
 62
     7
370
    25
100
AcDbLine
 10
274.2684081269
 20
41.6904580287
 30
0.0
 11
274.2684081269
 21
35.8904581956
 31
0.0
  0
LINE
  5
F1
330
1F
100
AcDbEntity
  8
0
  6
Continuous
 62
     7
370
    25
100
AcDbLine
 10
274.2684081269
 20
35.8904581956
 30
0.0
 11
270.7684055043
 21
35.6904577903
 31
0.0
  0
LINE
  5
F2
330
1F
100
AcDbEntity
  8
0
  6
Continuous
 62
     7
370
    25
100
AcDbLine
 10
270.7684055043
 20
31.6904586247
 30
0.0
 11
270.7684055043
 21
35.6904577903
 31
0.0
  0
LINE
  5
F3
330
1F
100
AcDbEntity
  8
0
  6
Continuous
 62
     7
370
    25
100
AcDbLine
 10
265.7684072924
 20
31.6904586247
 30
0.0
 11
263.268928237
 21
35.6904577903
 31
0.0
  0
LINE
  5
F4
330
1F
100
AcDbEntity
  8
0
  6
Continuous
 62
     7
370
    25
100
AcDbLine
 10
259.768407054
 20
35.6904577903
 30
0.0
 11
263.268928237
 21
35.6904577903
 31
0.0
  0
LINE
  5
F5
330
1F
100
AcDbEntity
  8
0
  6
Continuous
 62
     7
370
    25
100
AcDbLine
 10
259.768407054
 20
35.6904577903
 30
0.0
 11
259.768407054
 21
36.6904598168
 31
0.0
  0
LINE
  5
F6
330
1F
100
AcDbEntity
  8
0
  6
Continuous
 62
     7
370
    25
100
AcDbLine
 10
240.2684062792
 20
36.6904598168
 30
0.0
 11
259.768407054
 21
36.6904598168
 31
0.0
  0
LINE
  5
F7
330
1F
100
AcDbEntity
  8
0
  6
Continuous
 62
     7
370
    25
100
AcDbLine
 10
240.2684062792
 20
36.6904598168
 30
0.0
 11
240.2684062792
 21
38.1904583863
 31
0.0
  0
LINE
  5
F8
330
1F
100
AcDbEntity
  8
0
  6
Continuous
 62
     7
370
    25
100
AcDbLine
 10
259.768407054
 20
38.1904583863
 30
0.0
 11
240.2684062792
 21
38.1904583863
 31
0.0
  0
LINE
  5
F9
330
1F
100
AcDbEntity
  8
0
  6
Continuous
 62
     7
370
    25
100
AcDbLine
 10
270.7684055043
 20
31.6904586247
 30
0.0
 11
265.7684072924
 21
31.6904586247
 31
0.0
  0
LINE
  5
FA
330
1F
100
AcDbEntity
  8
0
  6
Continuous
 62
     7
370
    25
100
AcDbLine
 10
241.166661687
 20
36.6904598168
 30
0.0
 11
241.166661687
 21
35.6904577903
 31
0.0
  0
LINE
  5
FB
330
1F
100
AcDbEntity
  8
0
  6
Continuous
 62
     7
370
    25
100
AcDbLine
 10
241.166661687
 20
35.6904577903
 30
0.0
 11
259.768407054
 21
35.6904577903
 31
0.0
  0
LINE
  5
FC
330
1F
100
AcDbEntity
  8
0
  6
Continuous
 62
     7
370
    25
100
AcDbLine
 10
241.166661687
 20
106.6904586247
 30
0.0
 11
241.166661687
 21
107.6904606513
 31
0.0
  0
LINE
  5
FD
330
1F
100
AcDbEntity
  8
0
  6
Continuous
 62
     7
370
    25
100
AcDbLine
 10
241.166661687
 20
107.6904606513
 30
0.0
 11
259.768407054
 21
107.6904606513
 31
0.0
  0
LINE
  5
FE
330
1F
100
AcDbEntity
  8
0
  6
Continuous
 62
     7
370
    25
100
AcDbLine
 10
263.2684066964
 20
101.6904604129
 30
0.0
 11
249.7684046698
 21
101.6904604129
 31
0.0
  0
LINE
  5
FF
330
1F
100
AcDbEntity
  8
0
  6
Continuous
 62
     7
370
    25
100
AcDbLine
 10
249.7684046698
 20
41.6904580287
 30
0.0
 11
263.2684066964
 21
41.6904580287
 31
0.0
  0
LINE
  5
100
330
1F
100
AcDbEntity
  8
0
  6
Continuous
 62
     7
370
    25
100
AcDbLine
 10
249.7684046698
 20
31.6904586247
 30
0.0
 11
265.7684072924
 21
31.6904586247
 31
0.0
  0
LINE
  5
101
330
1F
100
AcDbEntity
  8
0
  6
Continuous
 62
     7
370
    25
100
AcDbLine
 10
249.7684046698
 20
111.6904598168
 30
0.0
 11
265.7684072924
 21
111.6904598168
 31
0.0
  0
LINE
  5
102
330
1F
100
AcDbEntity
  8
0
  6
Continuous
 62
     7
370
    25
100
AcDbLine
 10
240.0686249209
 20
35.6904577903
 30
0.0
 11
240.2684062792
 21
35.7025664739
 31
0.0
  0
LINE
  5
103
330
1F
100
AcDbEntity
  8
0
  6
Continuous
 62
     7
370
    25
100
AcDbLine
 10
240.2684062792
 20
35.7025664739
 30
0.0
 11
240.2684062792
 21
36.6904598168
 31
0.0
  0
LINE
  5
104
330
1F
100
AcDbEntity
  8
0
  6
Continuous
 62
     7
370
    25
100
AcDbLine
 10
240.0686249209
 20
35.6904577903
 30
0.0
 11
241.166661687
 21
35.6904577903
 31
0.0
  0
LINE
  5
105
330
1F
100
AcDbEntity
  8
0
  6
Continuous
 62
     7
370
    25
100
AcDbLine
 10
240.0686249209
 20
107.6904606513
 30
0.0
 11
240.2684062792
 21
107.6783519677
 31
0.0
  0
LINE
  5
106
330
1F
100
AcDbEntity
  8
0
  6
Continuous
 62
     7
370
    25
100
AcDbLine
 10
240.2684062792
 20
107.6783519677
 30
0.0
 11
240.2684062792
 21
106.6904586247
 31
0.0
  0
LINE
  5
107
330
1F
100
AcDbEntity
  8
0
  6
Continuous
 62
     7
370
    25
100
AcDbLine
 10
240.0686249209
 20
107.6904606513
 30
0.0
 11
241.166661687
 21
107.6904606513
 31
0.0
  0
LINE
  5
108
330
1F
100
AcDbEntity
  8
0
  6
Continuous
 62
     7
370
    25
100
AcDbLine
 10
240.2684062792
 20
38.1904583863
 30
0.0
 11
240.2684062792
 21
41.6904580287
 31
0.0
  0
LINE
  5
109
330
1F
100
AcDbEntity
  8
0
  6
Continuous
 62
     7
370
    25
100
AcDbLine
 10
240.2684062792
 20
41.6904580287
 30
0.0
 11
249.7684046698
 21
41.6904580287
 31
0.0
  0
LINE
  5
10A
330
1F
100
AcDbEntity
  8
0
  6
Continuous
 62
     7
370
    25
100
AcDbLine
 10
249.7684046698
 20
101.6904604129
 30
0.0
 11
240.2684062792
 21
101.6904604129
 31
0.0
  0
LINE
  5
10B
330
1F
100
AcDbEntity
  8
0
  6
Continuous
 62
     7
370
    25
100
AcDbLine
 10
240.2684062792
 20
101.6904604129
 30
0.0
 11
240.2684062792
 21
105.1904600552
 31
0.0
  0
LINE
  5
10C
330
1F
100
AcDbEntity
  8
0
  6
Continuous
 62
     7
370
    25
100
AcDbLine
 10
236.7684066368
 20
107.8904580764
 30
0.0
 11
236.7684066368
 21
111.6904598168
 31
0.0
  0
LINE
  5
10D
330
1F
100
AcDbEntity
  8
0
  6
Continuous
 62
     7
370
    25
100
AcDbLine
 10
236.7684066368
 20
107.8904580764
 30
0.0
 11
240.0686249209
 21
107.6904606513
 31
0.0
  0
LINE
  5
10E
330
1F
100
AcDbEntity
  8
0
  6
Continuous
 62
     7
370
    25
100
AcDbLine
 10
236.7684066368
 20
111.6904598168
 30
0.0
 11
249.7684046698
 21
111.6904598168
 31
0.0
  0
LINE
  5
10F
330
1F
100
AcDbEntity
  8
0
  6
Continuous
 62
     7
370
    25
100
AcDbLine
 10
236.7684066368
 20
35.4904603652
 30
0.0
 11
236.7684066368
 21
31.6904586247
 31
0.0
  0
LINE
  5
110
330
1F
100
AcDbEntity
  8
0
  6
Continuous
 62
     7
370
    25
100
AcDbLine
 10
236.7684066368
 20
35.4904603652
 30
0.0
 11
240.0686249209
 21
35.6904577903
 31
0.0
  0
LINE
  5
111
330
1F
100
AcDbEntity
  8
0
  6
Continuous
 62
     7
370
    25
100
AcDbLine
 10
236.7684066368
 20
31.6904586247
 30
0.0
 11
249.7684046698
 21
31.6904586247
 31
0.0
  0
LINE
  5
112
330
1F
100
AcDbEntity
  8
0
  6
Continuous
 62
     7
370
    25
100
AcDbLine
 10
274.2684081269
 20
41.6904580287
 30
0.0
 11
274.2684081269
 21
101.6904604129
 31
0.0
  0
LINE
  5
113
330
1F
100
AcDbEntity
  8
0
  6
Continuous
 62
     7
370
    25
100
AcDbLine
 10
240.2684062792
 20
68.1904592059
 30
0.0
 11
240.2684062792
 21
75.1904592357
 31
0.0
  0
LINE
  5
114
330
1F
100
AcDbEntity
  8
0
  6
Continuous
 62
     7
370
    25
100
AcDbLine
 10
240.2684062792
 20
44.6904581479
 30
0.0
 11
249.7684046698
 21
44.6904581479
 31
0.0
  0
LINE
  5
115
330
1F
100
AcDbEntity
  8
0
  6
Continuous
 62
     7
370
    25
100
AcDbLine
 10
240.2684062792
 20
41.6904580287
 30
0.0
 11
240.2684062792
 21
44.6904581479
 31
0.0
  0
LINE
  5
116
330
1F
100
AcDbEntity
  8
0
  6
Continuous
 62
     7
370
    25
100
AcDbLine
 10
249.7684046698
 20
78.6904592506
 30
0.0
 11
240.2684062792
 21
78.6904592506
 31
0.0
  0
LINE
  5
117
330
1F
100
AcDbEntity
  8
0
  6
Continuous
 62
     7
370
    25
100
AcDbLine
 10
240.2684062792
 20
75.1904592357
 30
0.0
 11
240.2684062792
 21
78.6904592506
 31
0.0
  0
LINE
  5
118
330
1F
100
AcDbEntity
  8
0
  6
Continuous
 62
     7
370
    25
100
AcDbLine
 10
240.2684062792
 20
64.690459191
 30
0.0
 11
249.7684046698
 21
64.690459191
 31
0.0
  0
LINE
  5
119
330
1F
100
AcDbEntity
  8
0
  6
Continuous
 62
     7
370
    25
100
AcDbLine
 10
240.2684062792
 20
64.690459191
 30
0.0
 11
240.2684062792
 21
68.1904592059
 31
0.0
  0
LINE
  5
11A
330
1F
100
AcDbEntity
  8
0
  6
Continuous
 62
     7
370
    25
100
AcDbLine
 10
249.7684046698
 20
98.6904602937
 30
0.0
 11
240.2684062792
 21
98.6904602937
 31
0.0
  0
LINE
  5
11B
330
1F
100
AcDbEntity
  8
0
  6
Continuous
 62
     7
370
    25
100
AcDbLine
 10
240.2684062792
 20
98.6904602937
 30
0.0
 11
240.2684062792
 21
101.6904604129
 31
0.0
  0
SPLINE
  5
11C
330
1F
100
AcDbEntity
  8
0
  6
Continuous
 62
     7
370
    25
100
AcDbSpline
210
0.0
220
0.0
230
1.0
 70
     8
 71
     3
 72
    11
 73
     7
 74
     0
 42
0.000000001
 43
0.00000001
 40
0.0
 40
0.0
 40
0.0
 40
0.0
 40
0.2476539826215844
 40
0.4953118087790737
 40
0.7476614952230938
 40
1.0
 40
1.0
 40
1.0
 40
1.0
 10
249.7684046698399
 20
44.69045814789553
 30
0.0
 10
249.9938137112082
 20
44.69483175390148
 30
0.0
 10
250.4446352922439
 20
44.7035790337908
 30
0.0
 10
251.1217177876449
 20
44.77570420989956
 30
0.0
 10
251.7975623558886
 20
44.88816566834849
 30
0.0
 10
252.2423527140122
 20
45.00327573262739
 30
0.0
 10
252.4647429657765
 20
45.06082948960086
 30
0.0
  0
ARC
  5
11D
330
1F
100
AcDbEntity
  8
0
  6
Continuous
 62
     7
370
    25
100
AcDbCircle
 10
249.7684059811
 20
88.6904592208
 30
0.0
 40
10.00000000000001
100
AcDbArc
 50
270.0
 51
74.357528987
  0
ARC
  5
11E
330
1F
100
AcDbEntity
  8
0
  6
Continuous
 62
     7
370
    25
100
AcDbCircle
 10
249.7684059811
 20
54.6904592208
 30
0.0
 40
10.00000000000001
100
AcDbArc
 50
285.642471013
 51
90.0
  0
SPLINE
  5
11F
330
1F
100
AcDbEntity
  8
0
  6
Continuous
 62
     7
370
    25
100
AcDbSpline
210
0.0
220
0.0
230
1.0
 70
     8
 71
     3
 72
    12
 73
     8
 74
     0
 42
0.000000001
 43
0.00000001
 40
0.0
 40
0.0
 40
0.0
 40
0.0
 40
0.0980167397584761
 40
0.3217983030965202
 40
0.5455844135373863
 40
0.7727932155135151
 40
1.0
 40
1.0
 40
1.0
 40
1.0
 10
252.4647429657765
 20
98.32008895195743
 30
0.0
 10
252.3786536824451
 20
98.34343498860126
 30
0.0
 10
252.0960143561514
 20
98.42008225308416
 30
0.0
 10
251.6104658028268
 20
98.52547536152746
 30
0.0
 10
251.0036237735749
 20
98.61988007137745
 30
0.0
 10
250.3887760480257
 20
98.6792972102839
 30
0.0
 10
249.9751945171696
 20
98.68673927688343
 30
0.0
 10
249.7684046698399
 20
98.69046029366274
 30
0.0
  0
LINE
  5
120
330
1F
100
AcDbEntity
  8
0
  6
Continuous
 62
     7
370
    25
100
AcDbLine
 10
240.2684062792
 20
98.6904602937
 30
0.0
 11
240.2684062792
 21
78.6904592506
 31
0.0
  0
LINE
  5
121
330
1F
100
AcDbEntity
  8
0
  6
Continuous
 62
     7
370
    25
100
AcDbLine
 10
240.2684062792
 20
64.690459191
 30
0.0
 11
240.2684062792
 21
44.6904581479
 31
0.0
  0
LINE
  5
122
330
1F
100
AcDbEntity
  8
0
  6
Continuous
 62
     7
370
    25
100
AcDbLine
 10
240.0686249209
 20
59.7904589466
 30
0.0
 11
240.0686249209
 21
68.1909818641
 31
0.0
  0
LINE
  5
123
330
1F
100
AcDbEntity
  8
0
  6
Continuous
 62
     7
370
    25
100
AcDbLine
 10
240.0686249209
 20
68.1909818641
 30
0.0
 11
239.2684057427
 21
68.2212848655
 31
0.0
  0
LINE
  5
124
330
1F
100
AcDbEntity
  8
0
  6
Continuous
 62
     7
370
    25
100
AcDbLine
 10
239.2684057427
 20
75.159633576
 30
0.0
 11
240.0686249209
 21
75.1899365775
 31
0.0
  0
LINE
  5
125
330
1F
100
AcDbEntity
  8
0
  6
Continuous
 62
     7
370
    25
100
AcDbLine
 10
240.0686249209
 20
75.1899365775
 30
0.0
 11
240.0686249209
 21
83.590459495
 31
0.0
  0
LINE
  5
126
330
1F
100
AcDbEntity
  8
0
  6
Continuous
 62
     7
370
    25
100
AcDbLine
 10
240.2684062792
 20
59.7904589466
 30
0.0
 11
240.0686249209
 21
59.7904589466
 31
0.0
  0
LINE
  5
127
330
1F
100
AcDbEntity
  8
0
  6
Continuous
 62
     7
370
    25
100
AcDbLine
 10
240.0686249209
 20
83.590459495
 30
0.0
 11
240.2684062792
 21
83.590459495
 31
0.0
  0
LINE
  5
128
330
1F
100
AcDbEntity
  8
0
  6
Continuous
 62
     7
370
    25
100
AcDbLine
 10
239.2684057427
 20
41.1596339635
 30
0.0
 11
240.0686249209
 21
41.1899369649
 31
0.0
  0
LINE
  5
129
330
1F
100
AcDbEntity
  8
0
  6
Continuous
 62
     7
370
    25
100
AcDbLine
 10
240.0686249209
 20
41.1899369649
 30
0.0
 11
240.0686249209
 21
49.5904591373
 31
0.0
  0
LINE
  5
12A
330
1F
100
AcDbEntity
  8
0
  6
Continuous
 62
     7
370
    25
100
AcDbLine
 10
240.0686249209
 20
49.5904591373
 30
0.0
 11
240.2684062792
 21
49.5904591373
 31
0.0
  0
LINE
  5
12B
330
1F
100
AcDbEntity
  8
0
  6
Continuous
 62
     7
370
    25
100
AcDbLine
 10
236.7684066368
 20
35.915641158
 30
0.0
 11
236.7684066368
 21
35.4904603652
 31
0.0
  0
LINE
  5
12C
330
1F
100
AcDbEntity
  8
0
  6
Continuous
 62
     7
370
    25
100
AcDbLine
 10
240.0686249209
 20
93.7904593042
 30
0.0
 11
240.0686249209
 21
102.1909814767
 31
0.0
  0
LINE
  5
12D
330
1F
100
AcDbEntity
  8
0
  6
Continuous
 62
     7
370
    25
100
AcDbLine
 10
240.0686249209
 20
102.1909814767
 30
0.0
 11
239.2684057427
 21
102.2212844781
 31
0.0
  0
LINE
  5
12E
330
1F
100
AcDbEntity
  8
0
  6
Continuous
 62
     7
370
    25
100
AcDbLine
 10
240.2684062792
 20
93.7904593042
 30
0.0
 11
240.0686249209
 21
93.7904593042
 31
0.0
  0
LINE
  5
12F
330
1F
100
AcDbEntity
  8
0
  6
Continuous
 62
     7
370
    25
100
AcDbLine
 10
236.7684066368
 20
107.8904580764
 30
0.0
 11
236.7684066368
 21
107.4652772836
 31
0.0
  0
LINE
  5
130
330
1F
100
AcDbEntity
  8
0
  6
Continuous
 62
     7
370
    25
100
AcDbLine
 10
275.2684071732
 20
35.7025664739
 30
0.0
 11
275.2684071732
 21
41.6904580287
 31
0.0
  0
LINE
  5
131
330
1F
100
AcDbEntity
  8
0
  6
Continuous
 62
     7
370
    25
100
AcDbLine
 10
329.268409319
 20
41.6904580287
 30
0.0
 11
275.2684071732
 21
41.6904580287
 31
0.0
  0
LINE
  5
132
330
1F
100
AcDbEntity
  8
0
  6
Continuous
 62
     7
370
    25
100
AcDbLine
 10
329.268409319
 20
41.6904580287
 30
0.0
 11
329.268409319
 21
35.8904581956
 31
0.0
  0
LINE
  5
133
330
1F
100
AcDbEntity
  8
0
  6
Continuous
 62
     7
370
    25
100
AcDbLine
 10
329.268409319
 20
35.8904581956
 30
0.0
 11
325.7684007359
 21
35.6904577903
 31
0.0
  0
LINE
  5
134
330
1F
100
AcDbEntity
  8
0
  6
Continuous
 62
     7
370
    25
100
AcDbLine
 10
325.7684007359
 20
31.6904586247
 30
0.0
 11
325.7684007359
 21
35.6904577903
 31
0.0
  0
LINE
  5
135
330
1F
100
AcDbEntity
  8
0
  6
Continuous
 62
     7
370
    25
100
AcDbLine
 10
325.7684007359
 20
31.6904586247
 30
0.0
 11
271.7684045506
 21
31.6904586247
 31
0.0
  0
LINE
  5
136
330
1F
100
AcDbEntity
  8
0
  6
Continuous
 62
     7
370
    25
100
AcDbLine
 10
271.7684045506
 20
35.4904603652
 30
0.0
 11
271.7684045506
 21
31.6904586247
 31
0.0
  0
LINE
  5
137
330
1F
100
AcDbEntity
  8
0
  6
Continuous
 62
     7
370
    25
100
AcDbLine
 10
271.7684045506
 20
35.4904603652
 30
0.0
 11
275.2684071732
 21
35.7025664739
 31
0.0
  0
LINE
  5
138
330
1F
100
AcDbEntity
  8
0
  6
Continuous
 62
     7
370
    25
100
AcDbLine
 10
275.2684071732
 20
107.6783519677
 30
0.0
 11
271.7684045506
 21
107.8904580764
 31
0.0
  0
LINE
  5
139
330
1F
100
AcDbEntity
  8
0
  6
Continuous
 62
     7
370
    25
100
AcDbLine
 10
271.7684045506
 20
111.6904598168
 30
0.0
 11
271.7684045506
 21
107.8904580764
 31
0.0
  0
LINE
  5
13A
330
1F
100
AcDbEntity
  8
0
  6
Continuous
 62
     7
370
    25
100
AcDbLine
 10
271.7684045506
 20
111.6904598168
 30
0.0
 11
325.7684007359
 21
111.6904598168
 31
0.0
  0
LINE
  5
13B
330
1F
100
AcDbEntity
  8
0
  6
Continuous
 62
     7
370
    25
100
AcDbLine
 10
325.7684007359
 20
107.6904606513
 30
0.0
 11
325.7684007359
 21
111.6904598168
 31
0.0
  0
LINE
  5
13C
330
1F
100
AcDbEntity
  8
0
  6
Continuous
 62
     7
370
    25
100
AcDbLine
 10
325.7684007359
 20
107.6904606513
 30
0.0
 11
329.268409319
 21
107.490460246
 31
0.0
  0
LINE
  5
13D
330
1F
100
AcDbEntity
  8
0
  6
Continuous
 62
     7
370
    25
100
AcDbLine
 10
329.268409319
 20
107.490460246
 30
0.0
 11
329.268409319
 21
101.6904604129
 31
0.0
  0
LINE
  5
13E
330
1F
100
AcDbEntity
  8
0
  6
Continuous
 62
     7
370
    25
100
AcDbLine
 10
275.2684071732
 20
101.6904604129
 30
0.0
 11
329.268409319
 21
101.6904604129
 31
0.0
  0
LINE
  5
13F
330
1F
100
AcDbEntity
  8
0
  6
Continuous
 62
     7
370
    25
100
AcDbLine
 10
275.2684071732
 20
101.6904604129
 30
0.0
 11
275.2684071732
 21
107.6783519677
 31
0.0
  0
LINE
  5
140
330
1F
100
AcDbEntity
  8
0
  6
Continuous
 62
     7
370
    25
100
AcDbLine
 10
284.7684040738
 20
61.6904590718
 30
0.0
 11
275.2684071732
 21
61.6904590718
 31
0.0
  0
LINE
  5
141
330
1F
100
AcDbEntity
  8
0
  6
Continuous
 62
     7
370
    25
100
AcDbLine
 10
275.2684071732
 20
58.1904586843
 30
0.0
 11
275.2684071732
 21
61.6904590718
 31
0.0
  0
LINE
  5
142
330
1F
100
AcDbEntity
  8
0
  6
Continuous
 62
     7
370
    25
100
AcDbLine
 10
275.2684071732
 20
81.6904593698
 30
0.0
 11
284.7684040738
 21
81.6904593698
 31
0.0
  0
LINE
  5
143
330
1F
100
AcDbEntity
  8
0
  6
Continuous
 62
     7
370
    25
100
AcDbLine
 10
275.2684071732
 20
81.6904593698
 30
0.0
 11
275.2684071732
 21
85.1904597572
 31
0.0
  0
LINE
  5
144
330
1F
100
AcDbEntity
  8
0
  6
Continuous
 62
     7
370
    25
100
AcDbLine
 10
275.2684071732
 20
85.1904597572
 30
0.0
 11
275.2684071732
 21
101.6904604129
 31
0.0
  0
LINE
  5
145
330
1F
100
AcDbEntity
  8
0
  6
Continuous
 62
     7
370
    25
100
AcDbLine
 10
275.2684071732
 20
41.6904580287
 30
0.0
 11
275.2684071732
 21
58.1904586843
 31
0.0
  0
ARC
  5
146
330
1F
100
AcDbEntity
  8
0
  6
Continuous
 62
     7
370
    25
100
AcDbCircle
 10
284.7684059811
 20
71.6904592208
 30
0.0
 40
10.0
100
AcDbArc
 50
270.0
 51
90.0
  0
LINE
  5
147
330
1F
100
AcDbEntity
  8
0
  6
Continuous
 62
     7
370
    25
100
AcDbLine
 10
275.2684071732
 20
81.6904593698
 30
0.0
 11
275.2684071732
 21
61.6904590718
 31
0.0
  0
LINE
  5
148
330
1F
100
AcDbEntity
  8
0
  6
Continuous
 62
     7
370
    25
100
AcDbLine
 10
274.2684081269
 20
58.1596341423
 30
0.0
 11
275.0686243249
 21
58.1899371437
 31
0.0
  0
LINE
  5
149
330
1F
100
AcDbEntity
  8
0
  6
Continuous
 62
     7
370
    25
100
AcDbLine
 10
275.0686243249
 20
58.1899371437
 30
0.0
 11
275.0686243249
 21
66.5904593161
 31
0.0
  0
LINE
  5
14A
330
1F
100
AcDbEntity
  8
0
  6
Continuous
 62
     7
370
    25
100
AcDbLine
 10
275.0686243249
 20
66.5904593161
 30
0.0
 11
275.2684071732
 21
66.5904593161
 31
0.0
  0
LINE
  5
14B
330
1F
100
AcDbEntity
  8
0
  6
Continuous
 62
     7
370
    25
100
AcDbLine
 10
271.7684045506
 20
35.7476007632
 30
0.0
 11
271.7684045506
 21
35.4904603652
 31
0.0
  0
LINE
  5
14C
330
1F
100
AcDbEntity
  8
0
  6
Continuous
 62
     7
370
    25
100
AcDbLine
 10
275.0686243249
 20
76.7904591254
 30
0.0
 11
275.0686243249
 21
85.1909812979
 31
0.0
  0
LINE
  5
14D
330
1F
100
AcDbEntity
  8
0
  6
Continuous
 62
     7
370
    25
100
AcDbLine
 10
275.0686243249
 20
85.1909812979
 30
0.0
 11
274.2684081269
 21
85.2212842993
 31
0.0
  0
LINE
  5
14E
330
1F
100
AcDbEntity
  8
0
  6
Continuous
 62
     7
370
    25
100
AcDbLine
 10
275.2684071732
 20
76.7904591254
 30
0.0
 11
275.0686243249
 21
76.7904591254
 31
0.0
  0
LINE
  5
14F
330
1F
100
AcDbEntity
  8
0
  6
Continuous
 62
     7
370
    25
100
AcDbLine
 10
271.7684045506
 20
107.8904580764
 30
0.0
 11
271.7684045506
 21
107.6333176783
 31
0.0
  0
LINE
  5
150
330
1F
100
AcDbEntity
  8
0
  6
Continuous
 62
     7
370
    25
100
AcDbLine
 10
235.7684061004
 20
111.6904598168
 30
0.0
 11
225.7684059513
 21
111.6904598168
 31
0.0
  0
LINE
  5
151
330
1F
100
AcDbEntity
  8
0
  6
Continuous
 62
     7
370
    25
100
AcDbLine
 10
235.7684061004
 20
107.5352024726
 30
0.0
 11
235.7684061004
 21
111.6904598168
 31
0.0
  0
LINE
  5
152
330
1F
100
AcDbEntity
  8
0
  6
Continuous
 62
     7
370
    25
100
AcDbLine
 10
239.2684057427
 20
107.2904598407
 30
0.0
 11
235.7684061004
 21
107.5352024726
 31
0.0
  0
LINE
  5
153
330
1F
100
AcDbEntity
  8
0
  6
Continuous
 62
     7
370
    25
100
AcDbLine
 10
239.2684057427
 20
107.2904598407
 30
0.0
 11
239.2684057427
 21
101.6904604129
 31
0.0
  0
LINE
  5
154
330
1F
100
AcDbEntity
  8
0
  6
Continuous
 62
     7
370
    25
100
AcDbLine
 10
239.2684057427
 20
101.6904604129
 30
0.0
 11
229.2684063388
 21
101.6904604129
 31
0.0
  0
LINE
  5
155
330
1F
100
AcDbEntity
  8
0
  6
Continuous
 62
     7
370
    25
100
AcDbLine
 10
229.2684063388
 20
107.6904606513
 30
0.0
 11
229.2684063388
 21
101.6904604129
 31
0.0
  0
LINE
  5
156
330
1F
100
AcDbEntity
  8
0
  6
Continuous
 62
     7
370
    25
100
AcDbLine
 10
229.2684063388
 20
107.6904606513
 30
0.0
 11
225.7684059513
 21
107.6904606513
 31
0.0
  0
LINE
  5
157
330
1F
100
AcDbEntity
  8
0
  6
Continuous
 62
     7
370
    25
100
AcDbLine
 10
225.7684059513
 20
111.6904598168
 30
0.0
 11
225.7684059513
 21
107.6904606513
 31
0.0
  0
LINE
  5
158
330
1F
100
AcDbEntity
  8
0
  6
Continuous
 62
     7
370
    25
100
AcDbLine
 10
239.2684057427
 20
41.6904580287
 30
0.0
 11
239.2684057427
 21
36.0904586009
 31
0.0
  0
LINE
  5
159
330
1F
100
AcDbEntity
  8
0
  6
Continuous
 62
     7
370
    25
100
AcDbLine
 10
235.7684061004
 20
35.845715969
 30
0.0
 11
239.2684057427
 21
36.0904586009
 31
0.0
  0
LINE
  5
15A
330
1F
100
AcDbEntity
  8
0
  6
Continuous
 62
     7
370
    25
100
AcDbLine
 10
235.7684061004
 20
31.6904586247
 30
0.0
 11
235.7684061004
 21
35.845715969
 31
0.0
  0
LINE
  5
15B
330
1F
100
AcDbEntity
  8
0
  6
Continuous
 62
     7
370
    25
100
AcDbLine
 10
225.7684059513
 20
35.6904577903
 30
0.0
 11
229.2684063388
 21
35.6904577903
 31
0.0
  0
LINE
  5
15C
330
1F
100
AcDbEntity
  8
0
  6
Continuous
 62
     7
370
    25
100
AcDbLine
 10
229.2684063388
 20
41.6904580287
 30
0.0
 11
229.2684063388
 21
35.6904577903
 31
0.0
  0
LINE
  5
15D
330
1F
100
AcDbEntity
  8
0
  6
Continuous
 62
     7
370
    25
100
AcDbLine
 10
229.2684063388
 20
41.6904580287
 30
0.0
 11
239.2684057427
 21
41.6904580287
 31
0.0
  0
LINE
  5
15E
330
1F
100
AcDbEntity
  8
0
  6
Continuous
 62
     7
370
    25
100
AcDbLine
 10
225.7684059513
 20
31.6904586247
 30
0.0
 11
235.7684061004
 21
31.6904586247
 31
0.0
  0
LINE
  5
15F
330
1F
100
AcDbEntity
  8
0
  6
Continuous
 62
     7
370
    25
100
AcDbLine
 10
225.7684059513
 20
35.6904577903
 30
0.0
 11
225.7684059513
 21
31.6904586247
 31
0.0
  0
LINE
  5
160
330
1F
100
AcDbEntity
  8
0
  6
Continuous
 62
     7
370
    25
100
AcDbLine
 10
239.2684057427
 20
41.6904580287
 30
0.0
 11
239.2684057427
 21
101.6904604129
 31
0.0
  0
LINE
  5
161
330
1F
100
AcDbEntity
  8
0
  6
Continuous
 62
     7
370
    25
100
AcDbLine
 10
229.2684063388
 20
41.6904580287
 30
0.0
 11
229.2684063388
 21
101.6904604129
 31
0.0
  0
LINE
  5
162
330
1F
100
AcDbEntity
  8
0
  6
Continuous
 62
     7
370
    25
100
AcDbLine
 10
225.7684059513
 20
107.6904606513
 30
0.0
 11
225.7684059513
 21
107.490460246
 31
0.0
  0
LINE
  5
163
330
1F
100
AcDbEntity
  8
0
  6
Continuous
 62
     7
370
    25
100
AcDbLine
 10
225.7684059513
 20
35.8904581956
 30
0.0
 11
225.7684059513
 21
35.6904577903
 31
0.0
  0
LINE
  5
164
330
1F
100
AcDbEntity
  8
0
  6
Continuous
 62
     7
370
    25
100
AcDbLine
 10
220.2684059811
 20
107.490460246
 30
0.0
 11
220.2684059811
 21
91.6904595188
 31
0.0
  0
LINE
  5
165
330
1F
100
AcDbEntity
  8
0
  6
Continuous
 62
     7
370
    25
100
AcDbLine
 10
228.2684058023
 20
107.490460246
 30
0.0
 11
220.2684059811
 21
107.490460246
 31
0.0
  0
LINE
  5
166
330
1F
100
AcDbEntity
  8
0
  6
Continuous
 62
     7
370
    25
100
AcDbLine
 10
228.2684058023
 20
91.6904595188
 30
0.0
 11
228.2684058023
 21
107.490460246
 31
0.0
  0
LINE
  5
167
330
1F
100
AcDbEntity
  8
0
  6
Continuous
 62
     7
370
    25
100
AcDbLine
 10
228.2684058023
 20
91.6904595188
 30
0.0
 11
220.2684059811
 21
91.6904595188
 31
0.0
  0
LINE
  5
168
330
1F
100
AcDbEntity
  8
0
  6
Continuous
 62
     7
370
    25
100
AcDbLine
 10
228.2684058023
 20
35.8904581956
 30
0.0
 11
228.2684058023
 21
51.6904589228
 31
0.0
  0
LINE
  5
169
330
1F
100
AcDbEntity
  8
0
  6
Continuous
 62
     7
370
    25
100
AcDbLine
 10
220.2684059811
 20
51.6904589228
 30
0.0
 11
228.2684058023
 21
51.6904589228
 31
0.0
  0
LINE
  5
16A
330
1F
100
AcDbEntity
  8
0
  6
Continuous
 62
     7
370
    25
100
AcDbLine
 10
220.2684059811
 20
51.6904589228
 30
0.0
 11
220.2684059811
 21
35.8904581956
 31
0.0
  0
LINE
  5
16B
330
1F
100
AcDbEntity
  8
0
  6
Continuous
 62
     7
370
    25
100
AcDbLine
 10
220.2684059811
 20
35.8904581956
 30
0.0
 11
228.2684058023
 21
35.8904581956
 31
0.0
  0
LINE
  5
16C
330
1F
100
AcDbEntity
  8
0
  6
Continuous
 62
     7
370
    25
100
AcDbLine
 10
220.2684059811
 20
31.6904586247
 30
0.0
 11
224.76840616
 21
31.6904586247
 31
0.0
  0
LINE
  5
16D
330
1F
100
AcDbEntity
  8
0
  6
Continuous
 62
     7
370
    25
100
AcDbLine
 10
224.76840616
 20
31.6904586247
 30
0.0
 11
224.76840616
 21
35.8904581956
 31
0.0
  0
LINE
  5
16E
330
1F
100
AcDbEntity
  8
0
  6
Continuous
 62
     7
370
    25
100
AcDbLine
 10
220.2684059811
 20
31.6904586247
 30
0.0
 11
220.2684059811
 21
35.8904581956
 31
0.0
  0
LINE
  5
16F
330
1F
100
AcDbEntity
  8
0
  6
Continuous
 62
     7
370
    25
100
AcDbLine
 10
220.2684059811
 20
111.6904598168
 30
0.0
 11
224.76840616
 21
111.6904598168
 31
0.0
  0
LINE
  5
170
330
1F
100
AcDbEntity
  8
0
  6
Continuous
 62
     7
370
    25
100
AcDbLine
 10
224.76840616
 20
107.490460246
 30
0.0
 11
224.76840616
 21
111.6904598168
 31
0.0
  0
LINE
  5
171
330
1F
100
AcDbEntity
  8
0
  6
Continuous
 62
     7
370
    25
100
AcDbLine
 10
220.2684059811
 20
107.490460246
 30
0.0
 11
220.2684059811
 21
111.6904598168
 31
0.0
  0
LINE
  5
172
330
1F
100
AcDbEntity
  8
0
  6
Continuous
 62
     7
370
    25
100
AcDbLine
 10
228.2684058023
 20
51.6904589228
 30
0.0
 11
228.2684058023
 21
91.6904595188
 31
0.0
  0
LINE
  5
173
330
1F
100
AcDbEntity
  8
0
  6
Continuous
 62
     7
370
    25
100
AcDbLine
 10
220.2684059811
 20
51.6904589228
 30
0.0
 11
220.2684059811
 21
91.6904595188
 31
0.0
  0
LINE
  5
174
330
1F
100
AcDbEntity
  8
0
  6
PHANTOM
 62
     8
370
    18
100
AcDbLine
 10
324.6684089375
 20
42.1904605321
 30
0.0
 11
324.6684089375
 21
101.1904579095
 31
0.0
  0
LINE
  5
175
330
1F
100
AcDbEntity
  8
0
  6
PHANTOM
 62
     8
370
    18
100
AcDbLine
 10
328.8684025479
 20
42.1904605321
 30
0.0
 11
328.8684025479
 21
101.1904579095
 31
0.0
  0
LINE
  5
176
330
1F
100
AcDbEntity
  8
0
  6
PHANTOM
 62
     8
370
    18
100
AcDbLine
 10
249.7684046698
 20
101.6904604129
 30
0.0
 11
249.7684046698
 21
105.1904600552
 31
0.0
  0
LINE
  5
177
330
1F
100
AcDbEntity
  8
0
  6
PHANTOM
 62
     8
370
    18
100
AcDbLine
 10
249.7684046698
 20
41.6904580287
 30
0.0
 11
249.7684046698
 21
38.1904583863
 31
0.0
  0
LINE
  5
178
330
1F
100
AcDbEntity
  8
0
  6
PHANTOM
 62
     8
370
    18
100
AcDbLine
 10
249.7684046698
 20
35.6904577903
 30
0.0
 11
249.7684046698
 21
31.6904586247
 31
0.0
  0
LINE
  5
179
330
1F
100
AcDbEntity
  8
0
  6
PHANTOM
 62
     8
370
    18
100
AcDbLine
 10
249.7684046698
 20
107.6904606513
 30
0.0
 11
249.7684046698
 21
111.6904598168
 31
0.0
  0
LINE
  5
17A
330
1F
100
AcDbEntity
  8
0
  6
PHANTOM
 62
     8
370
    18
100
AcDbLine
 10
249.7684046698
 20
75.1904592357
 30
0.0
 11
240.2684062792
 21
75.1904592357
 31
0.0
  0
ARC
  5
17B
330
1F
100
AcDbEntity
  8
0
  6
PHANTOM
 62
     8
370
    18
100
AcDbCircle
 10
249.7684059811
 20
88.6904592208
 30
0.0
 40
13.50000000000001
100
AcDbArc
 50
270.0
 51
74.357528987
  0
ARC
  5
17C
330
1F
100
AcDbEntity
  8
0
  6
PHANTOM
 62
     8
370
    18
100
AcDbCircle
 10
249.7684059811
 20
54.6904592208
 30
0.0
 40
13.50000000000002
100
AcDbArc
 50
285.642471013
 51
90.0
  0
LINE
  5
17D
330
1F
100
AcDbEntity
  8
0
  6
PHANTOM
 62
     8
370
    18
100
AcDbLine
 10
240.2684062792
 20
68.1904592059
 30
0.0
 11
249.7684046698
 21
68.1904592059
 31
0.0
  0
LINE
  5
17E
330
1F
100
AcDbEntity
  8
0
  6
PHANTOM
 62
     8
370
    18
100
AcDbLine
 10
249.7684046698
 20
41.6904580287
 30
0.0
 11
249.7684046698
 21
44.6904581479
 31
0.0
  0
LINE
  5
17F
330
1F
100
AcDbEntity
  8
0
  6
PHANTOM
 62
     8
370
    18
100
AcDbLine
 10
249.7684046698
 20
75.1904592357
 30
0.0
 11
249.7684046698
 21
78.6904592506
 31
0.0
  0
LINE
  5
180
330
1F
100
AcDbEntity
  8
0
  6
PHANTOM
 62
     8
370
    18
100
AcDbLine
 10
249.7684046698
 20
68.1904592059
 30
0.0
 11
249.7684046698
 21
64.690459191
 31
0.0
  0
LINE
  5
181
330
1F
100
AcDbEntity
  8
0
  6
PHANTOM
 62
     8
370
    18
100
AcDbLine
 10
249.7684046698
 20
101.6904604129
 30
0.0
 11
249.7684046698
 21
98.6904602937
 31
0.0
  0
LWPOLYLINE
  5
182
330
1F
100
AcDbEntity
  8
0
  6
PHANTOM
 62
     8
370
    18
100
AcDbPolyline
 90
       16
 70
   128
 43
0.0
 10
253.4084603263
 20
41.6904580287
 10
253.3098146392
 20
42.0427602223
 10
253.2122507764
 20
42.391200035
 10
253.116835661
 20
42.7319597892
 10
253.0246153546
 20
43.0613112143
 10
252.9366031361
 20
43.3756452493
 10
252.8537586404
 20
43.6715137652
 10
252.7769908381
 20
43.9456772498
 10
252.7071431351
 20
44.1951316289
 10
252.6449784709
 20
44.4171470097
 10
252.5911763383
 20
44.6092855624
 10
252.5463327838
 20
44.7694462232
 10
252.510930605
 20
44.895870655
 10
252.4853661729
 20
44.9871790103
 10
252.4699136687
 20
45.0423669509
 10
252.4647429658
 20
45.0608294896
  0
LWPOLYLINE
  5
183
330
1F
100
AcDbEntity
  8
0
  6
PHANTOM
 62
     8
370
    18
100
AcDbPolyline
 90
       16
 70
   128
 43
0.0
 10
253.4084603263
 20
101.6904604129
 10
253.3098146392
 20
101.3381582192
 10
253.2122507764
 20
100.9897184066
 10
253.116835661
 20
100.6489586524
 10
253.0246153546
 20
100.3196072272
 10
252.9366031361
 20
100.0052731923
 10
252.8537586404
 20
99.7094046763
 10
252.7769908381
 20
99.4352411918
 10
252.7071431351
 20
99.1857868127
 10
252.6449784709
 20
98.9637714318
 10
252.5911763383
 20
98.7716328792
 10
252.5463327838
 20
98.6114722184
 10
252.510930605
 20
98.4850477866
 10
252.4853661729
 20
98.3937394313
 10
252.4699136687
 20
98.3385514907
 10
252.4647429658
 20
98.320088952
  0
LINE
  5
184
330
1F
100
AcDbEntity
  8
0
  6
PHANTOM
 62
     8
370
    18
100
AcDbLine
 10
284.7684040738
 20
58.1904586843
 30
0.0
 11
275.2684071732
 21
58.1904586843
 31
0.0
  0
LINE
  5
185
330
1F
100
AcDbEntity
  8
0
  6
PHANTOM
 62
     8
370
    18
100
AcDbLine
 10
284.7684040738
 20
58.1904586843
 30
0.0
 11
284.7684040738
 21
61.6904590718
 31
0.0
  0
LINE
  5
186
330
1F
100
AcDbEntity
  8
0
  6
PHANTOM
 62
     8
370
    18
100
AcDbLine
 10
275.2684071732
 20
85.1904597572
 30
0.0
 11
284.7684040738
 21
85.1904597572
 31
0.0
  0
LINE
  5
187
330
1F
100
AcDbEntity
  8
0
  6
PHANTOM
 62
     8
370
    18
100
AcDbLine
 10
284.7684040738
 20
85.1904597572
 30
0.0
 11
284.7684040738
 21
81.6904593698
 31
0.0
  0
ARC
  5
188
330
1F
100
AcDbEntity
  8
0
  6
PHANTOM
 62
     8
370
    18
100
AcDbCircle
 10
284.7684059811
 20
71.6904592208
 30
0.0
 40
13.5
100
AcDbArc
 50
270.0
 51
90.0
  0
HATCH
  5
189
330
1F
100
AcDbEntity
  8
0
  6
Continuous
 62
     7
370
    18
100
AcDbHatch
 10
0.0
 20
0.0
 30
0.0
210
0.0
220
0.0
230
1.0
  2
ANSI34
 70
     0
 71
     0
 91
        1
 92
        0
 93
        4
 72
     1
 10
228.2684059811421
 20
51.69045922077915
 11
220.2684059811421
 21
51.69045922077915
 72
     1
 10
220.2684059811421
 20
51.69045922077915
 11
220.2684059811421
 21
35.89045922077915
 72
     1
 10
220.2684059811421
 20
35.89045922077915
 11
228.2684059811421
 21
35.89045922077915
 72
     1
 10
228.2684059811421
 20
35.89045922077915
 11
228.2684059811421
 21
51.69045922077915
 97
        0
 75
     0
 76
     1
 52
0.0
 41
1.0
 77
     0
 78
     4
 53
45.0
 43
0.0
 44
0.0
 45
-13.47038418160373
 46
13.47038418160373
 79
     0
 53
45.0
 43
4.49013
 44
0.0
 45
-13.47038418160373
 46
13.47038418160373
 79
     0
 53
45.0
 43
8.98026
 44
0.0
 45
-13.47038418160373
 46
13.47038418160373
 79
     0
 53
45.0
 43
13.4704
 44
0.0
 45
-13.47038418160373
 46
13.47038418160373
 79
     0
 98
        1
 10
0.0
 20
0.0
  0
HATCH
  5
18A
330
1F
100
AcDbEntity
  8
0
  6
Continuous
 62
     7
370
    18
100
AcDbHatch
 10
0.0
 20
0.0
 30
0.0
210
0.0
220
0.0
230
1.0
  2
ANSI34
 70
     0
 71
     0
 91
        1
 92
        0
 93
        4
 72
     1
 10
220.2684059811421
 20
91.69045922077918
 11
228.2684059811421
 21
91.69045922077918
 72
     1
 10
228.2684059811421
 20
91.69045922077918
 11
228.2684059811421
 21
107.4904592207792
 72
     1
 10
228.2684059811421
 20
107.4904592207792
 11
220.2684059811421
 21
107.4904592207792
 72
     1
 10
220.2684059811421
 20
107.4904592207792
 11
220.2684059811421
 21
91.69045922077918
 97
        0
 75
     0
 76
     1
 52
0.0
 41
1.0
 77
     0
 78
     4
 53
45.0
 43
0.0
 44
0.0
 45
-13.47038418160373
 46
13.47038418160373
 79
     0
 53
45.0
 43
4.49013
 44
0.0
 45
-13.47038418160373
 46
13.47038418160373
 79
     0
 53
45.0
 43
8.98026
 44
0.0
 45
-13.47038418160373
 46
13.47038418160373
 79
     0
 53
45.0
 43
13.4704
 44
0.0
 45
-13.47038418160373
 46
13.47038418160373
 79
     0
 98
        1
 10
0.0
 20
0.0
  0
HATCH
  5
18B
330
1F
100
AcDbEntity
  8
0
  6
Continuous
 62
     7
370
    18
100
AcDbHatch
 10
0.0
 20
0.0
 30
0.0
210
0.0
220
0.0
230
1.0
  2
ANSI34
 70
     0
 71
     0
 91
        1
 92
        0
 93
        8
 72
     1
 10
225.7684059811421
 20
107.6904592207791
 11
229.2684059811421
 21
107.6904592207791
 72
     1
 10
229.2684059811421
 20
107.6904592207791
 11
229.2684059811421
 21
101.6904592207791
 72
     1
 10
229.2684059811421
 20
101.6904592207791
 11
239.2684059811421
 21
101.6904592207791
 72
     1
 10
239.2684059811421
 20
101.6904592207791
 11
239.2684059811421
 21
107.2904592207791
 72
     1
 10
239.2684059811421
 20
107.2904592207791
 11
235.7684059811421
 21
107.5352030625814
 72
     1
 10
235.7684059811421
 20
107.5352030625814
 11
235.7684059811421
 21
111.6904592207791
 72
     1
 10
235.7684059811421
 20
111.6904592207791
 11
225.7684059811421
 21
111.6904592207791
 72
     1
 10
225.7684059811421
 20
111.6904592207791
 11
225.7684059811421
 21
107.6904592207791
 97
        0
 75
     0
 76
     1
 52
0.0
 41
1.0
 77
     0
 78
     4
 53
45.0
 43
0.0
 44
0.0
 45
-13.47038418160373
 46
13.47038418160373
 79
     0
 53
45.0
 43
4.49013
 44
0.0
 45
-13.47038418160373
 46
13.47038418160373
 79
     0
 53
45.0
 43
8.98026
 44
0.0
 45
-13.47038418160373
 46
13.47038418160373
 79
     0
 53
45.0
 43
13.4704
 44
0.0
 45
-13.47038418160373
 46
13.47038418160373
 79
     0
 98
        1
 10
0.0
 20
0.0
  0
HATCH
  5
18C
330
1F
100
AcDbEntity
  8
0
  6
Continuous
 62
     7
370
    18
100
AcDbHatch
 10
0.0
 20
0.0
 30
0.0
210
0.0
220
0.0
230
1.0
  2
ANSI34
 70
     0
 71
     0
 91
        1
 92
        0
 93
        8
 72
     1
 10
239.2684059811421
 20
41.69045922077914
 11
229.2684059811421
 21
41.69045922077914
 72
     1
 10
229.2684059811421
 20
41.69045922077914
 11
229.2684059811421
 21
35.69045922077913
 72
     1
 10
229.2684059811421
 20
35.69045922077913
 11
225.7684059811421
 21
35.69045922077913
 72
     1
 10
225.7684059811421
 20
35.69045922077913
 11
225.7684059811421
 21
31.69045922077914
 72
     1
 10
225.7684059811421
 20
31.69045922077914
 11
235.7684059811421
 21
31.69045922077914
 72
     1
 10
235.7684059811421
 20
31.69045922077914
 11
235.7684059811421
 21
35.84571537897684
 72
     1
 10
235.7684059811421
 20
35.84571537897684
 11
239.2684059811421
 21
36.09045922077913
 72
     1
 10
239.2684059811421
 20
36.09045922077913
 11
239.2684059811421
 21
41.69045922077914
 97
        0
 75
     0
 76
     1
 52
0.0
 41
1.0
 77
     0
 78
     4
 53
45.0
 43
0.0
 44
0.0
 45
-13.47038418160373
 46
13.47038418160373
 79
     0
 53
45.0
 43
4.49013
 44
0.0
 45
-13.47038418160373
 46
13.47038418160373
 79
     0
 53
45.0
 43
8.98026
 44
0.0
 45
-13.47038418160373
 46
13.47038418160373
 79
     0
 53
45.0
 43
13.4704
 44
0.0
 45
-13.47038418160373
 46
13.47038418160373
 79
     0
 98
        1
 10
0.0
 20
0.0
  0
HATCH
  5
18D
330
1F
100
AcDbEntity
  8
0
  6
Continuous
 62
     7
370
    18
100
AcDbHatch
 10
0.0
 20
0.0
 30
0.0
210
0.0
220
0.0
230
1.0
  2
ANSI34
 70
     0
 71
     0
 91
        1
 92
        0
 93
        8
 72
     1
 10
275.2684059811421
 20
35.70256637683313
 11
271.7684059811421
 21
35.49045922077914
 72
     1
 10
271.7684059811421
 20
35.49045922077914
 11
271.7684059811421
 21
31.69045922077914
 72
     1
 10
271.7684059811421
 20
31.69045922077914
 11
325.7684059811421
 21
31.69045922077914
 72
     1
 10
325.7684059811421
 20
31.69045922077914
 11
325.7684059811421
 21
35.69045922077915
 72
     1
 10
325.7684059811421
 20
35.69045922077915
 11
329.2684059811421
 21
35.89045922077915
 72
     1
 10
329.2684059811421
 20
35.89045922077915
 11
329.2684059811421
 21
41.69045922077915
 72
     1
 10
329.2684059811421
 20
41.69045922077915
 11
275.2684059811421
 21
41.69045922077915
 72
     1
 10
275.2684059811421
 20
41.69045922077915
 11
275.2684059811421
 21
35.70256637683313
 97
        0
 75
     0
 76
     1
 52
0.0
 41
1.0
 77
     0
 78
     4
 53
45.0
 43
0.0
 44
0.0
 45
-13.47038418160373
 46
13.47038418160373
 79
     0
 53
45.0
 43
4.49013
 44
0.0
 45
-13.47038418160373
 46
13.47038418160373
 79
     0
 53
45.0
 43
8.98026
 44
0.0
 45
-13.47038418160373
 46
13.47038418160373
 79
     0
 53
45.0
 43
13.4704
 44
0.0
 45
-13.47038418160373
 46
13.47038418160373
 79
     0
 98
        1
 10
0.0
 20
0.0
  0
HATCH
  5
18E
330
1F
100
AcDbEntity
  8
0
  6
Continuous
 62
     7
370
    18
100
AcDbHatch
 10
0.0
 20
0.0
 30
0.0
210
0.0
220
0.0
230
1.0
  2
ANSI34
 70
     0
 71
     0
 91
        1
 92
        0
 93
        8
 72
     1
 10
275.2684059811421
 20
107.6783520647251
 11
275.2684059811421
 21
101.6904592207791
 72
     1
 10
275.2684059811421
 20
101.6904592207791
 11
329.2684059811421
 21
101.6904592207791
 72
     1
 10
329.2684059811421
 20
101.6904592207791
 11
329.2684059811421
 21
107.4904592207791
 72
     1
 10
329.2684059811421
 20
107.4904592207791
 11
325.7684059811421
 21
107.6904592207791
 72
     1
 10
325.7684059811421
 20
107.6904592207791
 11
325.7684059811421
 21
111.6904592207791
 72
     1
 10
325.7684059811421
 20
111.6904592207791
 11
271.7684059811421
 21
111.6904592207791
 72
     1
 10
271.7684059811421
 20
111.6904592207791
 11
271.7684059811421
 21
107.8904592207791
 72
     1
 10
271.7684059811421
 20
107.8904592207791
 11
275.2684059811421
 21
107.6783520647251
 97
        0
 75
     0
 76
     1
 52
0.0
 41
1.0
 77
     0
 78
     4
 53
45.0
 43
0.0
 44
0.0
 45
-13.47038418160373
 46
13.47038418160373
 79
     0
 53
45.0
 43
4.49013
 44
0.0
 45
-13.47038418160373
 46
13.47038418160373
 79
     0
 53
45.0
 43
8.98026
 44
0.0
 45
-13.47038418160373
 46
13.47038418160373
 79
     0
 53
45.0
 43
13.4704
 44
0.0
 45
-13.47038418160373
 46
13.47038418160373
 79
     0
 98
        1
 10
0.0
 20
0.0
  0
HATCH
  5
18F
330
1F
100
AcDbEntity
  8
0
  6
Continuous
 62
     7
370
    18
100
AcDbHatch
 10
0.0
 20
0.0
 30
0.0
210
0.0
220
0.0
230
1.0
  2
ANSI34
 70
     0
 71
     0
 91
        1
 92
        0
 93
       12
 72
     1
 10
259.7684059811421
 20
107.6904592207791
 11
259.7684059811421
 21
106.6904592207791
 72
     1
 10
259.7684059811421
 20
106.6904592207791
 11
240.2684059811421
 21
106.6904592207791
 72
     1
 10
240.2684059811421
 20
106.6904592207791
 11
240.2684059811421
 21
105.1904592207791
 72
     1
 10
240.2684059811421
 20
105.1904592207791
 11
259.7684059811421
 21
105.1904592207791
 72
     2
 10
263.2684059811421
 20
105.1904592207791
 40
3.5
 50
180.0
 51
270.0000000000008
 73
     1
 72
     1
 10
263.2684059811421
 20
101.6904592207791
 11
274.2684059811421
 21
101.6904592207791
 72
     1
 10
274.2684059811421
 20
101.6904592207791
 11
274.2684059811421
 21
107.4904592207791
 72
     1
 10
274.2684059811421
 20
107.4904592207791
 11
270.7684059811421
 21
107.6904592207791
 72
     1
 10
270.7684059811421
 20
107.6904592207791
 11
270.7684059811421
 21
111.6904592207791
 72
     1
 10
270.7684059811421
 20
111.6904592207791
 11
265.7684059811421
 21
111.6904592207791
 72
     1
 10
265.7684059811421
 20
111.6904592207791
 11
263.2689285735048
 21
107.6904592207791
 72
     1
 10
263.2689285735048
 20
107.6904592207791
 11
259.7684059811421
 21
107.6904592207791
 97
        0
 75
     0
 76
     1
 52
0.0
 41
1.0
 77
     0
 78
     4
 53
45.0
 43
0.0
 44
0.0
 45
-13.47038418160373
 46
13.47038418160373
 79
     0
 53
45.0
 43
4.49013
 44
0.0
 45
-13.47038418160373
 46
13.47038418160373
 79
     0
 53
45.0
 43
8.98026
 44
0.0
 45
-13.47038418160373
 46
13.47038418160373
 79
     0
 53
45.0
 43
13.4704
 44
0.0
 45
-13.47038418160373
 46
13.47038418160373
 79
     0
 98
        1
 10
0.0
 20
0.0
  0
HATCH
  5
190
330
1F
100
AcDbEntity
  8
0
  6
Continuous
 62
     7
370
    18
100
AcDbHatch
 10
0.0
 20
0.0
 30
0.0
210
0.0
220
0.0
230
1.0
  2
ANSI34
 70
     0
 71
     0
 91
        1
 92
        0
 93
       12
 72
     1
 10
240.2684059811421
 20
38.19045922077915
 11
240.2684059811421
 21
36.69045922077915
 72
     1
 10
240.2684059811421
 20
36.69045922077915
 11
259.7684059811421
 21
36.69045922077915
 72
     1
 10
259.7684059811421
 20
36.69045922077915
 11
259.7684059811421
 21
35.69045922077915
 72
     1
 10
259.7684059811421
 20
35.69045922077915
 11
263.2689285735048
 21
35.69045922077915
 72
     1
 10
263.2689285735048
 20
35.69045922077915
 11
265.7684059811421
 21
31.69045922077914
 72
     1
 10
265.7684059811421
 20
31.69045922077914
 11
270.7684059811421
 21
31.69045922077914
 72
     1
 10
270.7684059811421
 20
31.69045922077914
 11
270.7684059811421
 21
35.69045922077915
 72
     1
 10
270.7684059811421
 20
35.69045922077915
 11
274.2684059811421
 21
35.89045922077914
 72
     1
 10
274.2684059811421
 20
35.89045922077914
 11
274.2684059811421
 21
41.69045922077915
 72
     1
 10
274.2684059811421
 20
41.69045922077915
 11
263.2684059811421
 21
41.69045922077915
 72
     2
 10
263.2684059811421
 20
38.19045922077915
 40
3.5
 50
90.0
 51
180.0
 73
     1
 72
     1
 10
259.7684059811421
 20
38.19045922077915
 11
240.2684059811421
 21
38.19045922077915
 97
        0
 75
     0
 76
     1
 52
0.0
 41
1.0
 77
     0
 78
     4
 53
45.0
 43
0.0
 44
0.0
 45
-13.47038418160373
 46
13.47038418160373
 79
     0
 53
45.0
 43
4.49013
 44
0.0
 45
-13.47038418160373
 46
13.47038418160373
 79
     0
 53
45.0
 43
8.98026
 44
0.0
 45
-13.47038418160373
 46
13.47038418160373
 79
     0
 53
45.0
 43
13.4704
 44
0.0
 45
-13.47038418160373
 46
13.47038418160373
 79
     0
 98
        1
 10
0.0
 20
0.0
  0
HATCH
  5
191
330
1F
100
AcDbEntity
  8
0
  6
Continuous
 62
     7
370
    18
100
AcDbHatch
 10
0.0
 20
0.0
 30
0.0
210
0.0
220
0.0
230
1.0
  2
DIN 201 Stahl und Stahlguss
 70
     0
 71
     0
 91
        1
 92
        0
 93
        4
 72
     1
 10
329.2684059811421
 20
36.0904592207791
 11
329.5684059811421
 21
36.0904592207791
 72
     1
 10
329.5684059811421
 20
36.0904592207791
 11
329.5684059811421
 21
107.2904592207792
 72
     1
 10
329.5684059811421
 20
107.2904592207792
 11
329.2684059811421
 21
107.2904592207792
 72
     1
 10
329.2684059811421
 20
107.2904592207792
 11
329.2684059811421
 21
36.0904592207791
 97
        0
 75
     0
 76
     2
 52
90.0
 41
1.0
 77
     0
 78
     4
 53
135.0000020971719
 43
0.0
 44
0.0
 45
-13.47038368855324
 46
-13.4703846746542
 79
     0
 53
135.0000020971719
 43
-0.0000000000000157
 44
4.490128
 45
-13.47038368855324
 46
-13.4703846746542
 79
     0
 53
135.0000020971719
 43
-0.0000000000000314
 44
8.980256
 45
-13.47038368855324
 46
-13.4703846746542
 79
     0
 53
135.0000020971719
 43
-0.000000000000047
 44
13.47038
 45
-13.47038368855324
 46
-13.4703846746542
 79
     0
 98
        1
 10
0.0
 20
0.0
  0
HATCH
  5
192
330
1F
100
AcDbEntity
  8
0
  6
Continuous
 62
     7
370
    18
100
AcDbHatch
 10
0.0
 20
0.0
 30
0.0
210
0.0
220
0.0
230
1.0
  2
DIN 201 Stahl und Stahlguss
 70
     0
 71
     0
 91
        1
 92
        0
 93
        4
 72
     1
 10
329.2684059811421
 20
42.19045922077915
 11
329.2684059811421
 21
101.1904592207791
 72
     1
 10
329.2684059811421
 20
101.1904592207791
 11
329.0684059811421
 21
101.1904592207791
 72
     1
 10
329.0684059811421
 20
101.1904592207791
 11
329.0684059811421
 21
42.19045922077915
 72
     1
 10
329.0684059811421
 20
42.19045922077915
 11
329.2684059811421
 21
42.19045922077915
 97
        0
 75
     0
 76
     2
 52
0.0
 41
1.0
 77
     0
 78
     4
 53
45.00000209717174
 43
0.0
 44
0.0
 45
-13.47038467465416
 46
13.47038368855329
 79
     0
 53
45.00000209717174
 43
4.490128
 44
0.0
 45
-13.47038467465416
 46
13.47038368855329
 79
     0
 53
45.00000209717174
 43
8.980256
 44
0.0
 45
-13.47038467465416
 46
13.47038368855329
 79
     0
 53
45.00000209717174
 43
13.47038
 44
0.0
 45
-13.47038467465416
 46
13.47038368855329
 79
     0
 98
        1
 10
0.0
 20
0.0
  0
HATCH
  5
193
330
1F
100
AcDbEntity
  8
0
  6
Continuous
 62
     7
370
    18
100
AcDbHatch
 10
0.0
 20
0.0
 30
0.0
210
0.0
220
0.0
230
1.0
  2
DIN 201 Stahl und Stahlguss
 70
     0
 71
     0
 91
        1
 92
        0
 93
        4
 72
     1
 10
324.2684059811421
 20
101.1904592207791
 11
324.2684059811421
 21
42.19045922077915
 72
     1
 10
324.2684059811421
 20
42.19045922077915
 11
324.4684059811422
 21
42.19045922077915
 72
     1
 10
324.4684059811422
 20
42.19045922077915
 11
324.4684059811422
 21
101.1904592207791
 72
     1
 10
324.4684059811422
 20
101.1904592207791
 11
324.2684059811421
 21
101.1904592207791
 97
        0
 75
     0
 76
     2
 52
0.0
 41
1.0
 77
     0
 78
     4
 53
45.00000209717174
 43
0.0
 44
0.0
 45
-13.47038467465416
 46
13.47038368855329
 79
     0
 53
45.00000209717174
 43
4.490128
 44
0.0
 45
-13.47038467465416
 46
13.47038368855329
 79
     0
 53
45.00000209717174
 43
8.980256
 44
0.0
 45
-13.47038467465416
 46
13.47038368855329
 79
     0
 53
45.00000209717174
 43
13.47038
 44
0.0
 45
-13.47038467465416
 46
13.47038368855329
 79
     0
 98
        1
 10
0.0
 20
0.0
  0
INSERT
  5
199
330
1F
100
AcDbEntity
  8
O-TEKST
100
AcDbBlockReference
  2
SW_NOTE_0
 10
253.3835123194
 20
11.4434628149
 30
0.0
  0
LINE
  5
19A
330
1F
100
AcDbEntity
  8
0
  6
Continuous
 62
     7
370
    25
100
AcDbLine
 10
87.4859384114
 20
277.1209752681
 30
0.0
 11
87.4859384114
 21
272.9209816577
 31
0.0
  0
ARC
  5
19B
330
1F
100
AcDbEntity
  8
0
  6
Continuous
 62
     7
370
    25
100
AcDbCircle
 10
87.8859384487
 20
277.1209787013
 30
0.0
 40
0.2000000000000171
100
AcDbArc
 50
90.0
 51
180.0
  0
LINE
  5
19C
330
1F
100
AcDbEntity
  8
0
  6
Continuous
 62
     7
370
    25
100
AcDbLine
 10
87.6859384442
 20
277.1209752681
 30
0.0
 11
87.6859384442
 21
272.9209816577
 31
0.0
  0
ARC
  5
19D
330
1F
100
AcDbEntity
  8
0
  6
Continuous
 62
     7
370
    25
100
AcDbCircle
 10
87.8859384487
 20
272.9209787013
 30
0.0
 40
0.4000000000000341
100
AcDbArc
 50
180.0
 51
270.0
  0
ARC
  5
19E
330
1F
100
AcDbEntity
  8
0
  6
Continuous
 62
     7
370
    25
100
AcDbCircle
 10
87.8859384487
 20
277.1209787013
 30
0.0
 40
0.4000000000000199
100
AcDbArc
 50
90.0
 51
180.0
  0
ARC
  5
19F
330
1F
100
AcDbEntity
  8
0
  6
Continuous
 62
     7
370
    25
100
AcDbCircle
 10
87.8859384487
 20
272.9209787013
 30
0.0
 40
0.2000000000000455
100
AcDbArc
 50
180.0
 51
270.0
  0
LINE
  5
1A0
330
1F
100
AcDbEntity
  8
0
  6
Continuous
 62
     7
370
    25
100
AcDbLine
 10
92.0859384204
 20
277.3209846141
 30
0.0
 11
87.885938477
 21
277.3209846141
 31
0.0
  0
ARC
  5
1A1
330
1F
100
AcDbEntity
  8
0
  6
Continuous
 62
     7
370
    25
100
AcDbCircle
 10
92.0859384487
 20
277.1209787013
 30
0.0
 40
0.2000000000000028
100
AcDbArc
 50
0.0
 51
90.0
  0
LINE
  5
1A2
330
1F
100
AcDbEntity
  8
0
  6
Continuous
 62
     7
370
    25
100
AcDbLine
 10
87.885938477
 20
272.5209748866
 30
0.0
 11
92.0859384204
 21
272.5209748866
 31
0.0
  0
ARC
  5
1A3
330
1F
100
AcDbEntity
  8
0
  6
Continuous
 62
     7
370
    25
100
AcDbCircle
 10
92.0859384487
 20
272.9209787013
 30
0.0
 40
0.4000000000000341
100
AcDbArc
 50
270.0
 51
0.0
  0
LINE
  5
1A4
330
1F
100
AcDbEntity
  8
0
  6
Continuous
 62
     7
370
    25
100
AcDbLine
 10
92.4859384859
 20
272.9209816577
 30
0.0
 11
92.4859384859
 21
277.1209752681
 31
0.0
  0
ARC
  5
1A5
330
1F
100
AcDbEntity
  8
0
  6
Continuous
 62
     7
370
    25
100
AcDbCircle
 10
92.0859384487
 20
277.1209787013
 30
0.0
 40
0.4000000000000057
100
AcDbArc
 50
0.0
 51
90.0
  0
LINE
  5
1A6
330
1F
100
AcDbEntity
  8
0
  6
Continuous
 62
     7
370
    25
100
AcDbLine
 10
92.0859384204
 20
277.5209820392
 30
0.0
 11
87.885938477
 21
277.5209820392
 31
0.0
  0
ARC
  5
1A7
330
1F
100
AcDbEntity
  8
0
  6
Continuous
 62
     7
370
    25
100
AcDbCircle
 10
92.0859384487
 20
272.9209787013
 30
0.0
 40
0.2000000000000455
100
AcDbArc
 50
270.0
 51
0.0
  0
LINE
  5
1A8
330
1F
100
AcDbEntity
  8
0
  6
Continuous
 62
     7
370
    25
100
AcDbLine
 10
87.885938477
 20
272.7209842326
 30
0.0
 11
92.0859384204
 21
272.7209842326
 31
0.0
  0
LINE
  5
1A9
330
1F
100
AcDbEntity
  8
0
  6
Continuous
 62
     7
370
    25
100
AcDbLine
 10
92.2859384531
 20
272.9209816577
 30
0.0
 11
92.2859384531
 21
277.1209752681
 31
0.0
  0
LINE
  5
1AA
330
1F
100
AcDbEntity
  8
0
  6
Continuous
 62
     7
370
    25
100
AcDbLine
 10
112.1359378884
 20
277.5209820392
 30
0.0
 11
112.1359378884
 21
277.8209841372
 31
0.0
  0
LINE
  5
1AB
330
1F
100
AcDbEntity
  8
0
  6
Continuous
 62
     7
370
    25
100
AcDbLine
 10
125.5859390686
 20
277.5209820392
 30
0.0
 11
125.5859390686
 21
277.8209841372
 31
0.0
  0
LINE
  5
1AC
330
1F
100
AcDbEntity
  8
0
  6
Continuous
 62
     7
370
    25
100
AcDbLine
 10
125.5859390686
 20
277.5209820392
 30
0.0
 11
112.1359378884
 21
277.5209820392
 31
0.0
  0
LINE
  5
1AD
330
1F
100
AcDbEntity
  8
0
  6
Continuous
 62
     7
370
    25
100
AcDbLine
 10
125.5859390686
 20
277.8209841372
 30
0.0
 11
112.1359378884
 21
277.8209841372
 31
0.0
  0
LINE
  5
1AE
330
1F
100
AcDbEntity
  8
0
  6
Continuous
 62
     7
370
    25
100
AcDbLine
 10
70.9359378407
 20
277.8209841372
 30
0.0
 11
70.9359378407
 21
277.5209820392
 31
0.0
  0
LINE
  5
1AF
330
1F
100
AcDbEntity
  8
0
  6
Continuous
 62
     7
370
    25
100
AcDbLine
 10
70.9359378407
 20
277.5209820392
 30
0.0
 11
70.4359383175
 21
277.5209820392
 31
0.0
  0
LINE
  5
1B0
330
1F
100
AcDbEntity
  8
0
  6
Continuous
 62
     7
370
    25
100
AcDbLine
 10
70.9359378407
 20
277.8209841372
 30
0.0
 11
70.4359383175
 21
277.8209841372
 31
0.0
  0
LINE
  5
1B1
330
1F
100
AcDbEntity
  8
0
  6
Continuous
 62
     7
370
    25
100
AcDbLine
 10
109.0359390566
 20
277.8209841372
 30
0.0
 11
109.0359390566
 21
277.5209820392
 31
0.0
  0
LINE
  5
1B2
330
1F
100
AcDbEntity
  8
0
  6
Continuous
 62
     7
370
    25
100
AcDbLine
 10
109.0359390566
 20
277.5209820392
 30
0.0
 11
70.9359378407
 21
277.5209820392
 31
0.0
  0
LINE
  5
1B3
330
1F
100
AcDbEntity
  8
0
  6
Continuous
 62
     7
370
    25
100
AcDbLine
 10
109.0359390566
 20
277.8209841372
 30
0.0
 11
70.9359378407
 21
277.8209841372
 31
0.0
  0
LINE
  5
1B4
330
1F
100
AcDbEntity
  8
0
  6
Continuous
 62
     7
370
    25
100
AcDbLine
 10
67.835939009
 20
277.5209820392
 30
0.0
 11
67.835939009
 21
277.8209841372
 31
0.0
  0
LINE
  5
1B5
330
1F
100
AcDbEntity
  8
0
  6
Continuous
 62
     7
370
    25
100
AcDbLine
 10
54.3859378288
 20
277.8209841372
 30
0.0
 11
54.3859378288
 21
277.5209820392
 31
0.0
  0
LINE
  5
1B6
330
1F
100
AcDbEntity
  8
0
  6
Continuous
 62
     7
370
    25
100
AcDbLine
 10
67.835939009
 20
277.5209820392
 30
0.0
 11
54.3859378288
 21
277.5209820392
 31
0.0
  0
LINE
  5
1B7
330
1F
100
AcDbEntity
  8
0
  6
Continuous
 62
     7
370
    25
100
AcDbLine
 10
67.835939009
 20
277.8209841372
 30
0.0
 11
54.3859378288
 21
277.8209841372
 31
0.0
  0
LINE
  5
1B8
330
1F
100
AcDbEntity
  8
0
  6
Continuous
 62
     7
370
    25
100
AcDbLine
 10
111.6359383652
 20
277.5209820392
 30
0.0
 11
112.1359378884
 21
277.5209820392
 31
0.0
  0
LINE
  5
1B9
330
1F
100
AcDbEntity
  8
0
  6
Continuous
 62
     7
370
    25
100
AcDbLine
 10
111.6359383652
 20
277.8209841372
 30
0.0
 11
112.1359378884
 21
277.8209841372
 31
0.0
  0
LINE
  5
1BA
330
1F
100
AcDbEntity
  8
0
  6
Continuous
 62
     7
370
    25
100
AcDbLine
 10
68.3359385321
 20
277.5209820392
 30
0.0
 11
67.835939009
 21
277.5209820392
 31
0.0
  0
LINE
  5
1BB
330
1F
100
AcDbEntity
  8
0
  6
Continuous
 62
     7
370
    25
100
AcDbLine
 10
68.3359385321
 20
277.8209841372
 30
0.0
 11
67.835939009
 21
277.8209841372
 31
0.0
  0
LINE
  5
1BC
330
1F
100
AcDbEntity
  8
0
  6
Continuous
 62
     7
370
    25
100
AcDbLine
 10
109.0359390566
 20
277.5209820392
 30
0.0
 11
109.5359385798
 21
277.5209820392
 31
0.0
  0
LINE
  5
1BD
330
1F
100
AcDbEntity
  8
0
  6
Continuous
 62
     7
370
    25
100
AcDbLine
 10
109.0359390566
 20
277.8209841372
 30
0.0
 11
109.5359385798
 21
277.8209841372
 31
0.0
  0
LINE
  5
1BE
330
1F
100
AcDbEntity
  8
0
  6
Continuous
 62
     7
370
    25
100
AcDbLine
 10
70.0104386399
 20
277.5209820392
 30
0.0
 11
70.0104386399
 21
277.8209841372
 31
0.0
  0
LINE
  5
1BF
330
1F
100
AcDbEntity
  8
0
  6
Continuous
 62
     7
370
    25
100
AcDbLine
 10
68.7614382098
 20
277.5209820392
 30
0.0
 11
68.7614382098
 21
277.8209841372
 31
0.0
  0
LINE
  5
1C0
330
1F
100
AcDbEntity
  8
0
  6
Continuous
 62
     7
370
    25
100
AcDbLine
 10
70.0104386399
 20
277.5209820392
 30
0.0
 11
68.7614382098
 21
277.5209820392
 31
0.0
  0
LINE
  5
1C1
330
1F
100
AcDbEntity
  8
0
  6
Continuous
 62
     7
370
    25
100
AcDbLine
 10
70.0104386399
 20
277.8209841372
 30
0.0
 11
68.7614382098
 21
277.8209841372
 31
0.0
  0
LINE
  5
1C2
330
1F
100
AcDbEntity
  8
0
  6
Continuous
 62
     7
370
    25
100
AcDbLine
 10
70.4359383175
 20
277.5209820392
 30
0.0
 11
70.0104386399
 21
277.5209820392
 31
0.0
  0
LINE
  5
1C3
330
1F
100
AcDbEntity
  8
0
  6
Continuous
 62
     7
370
    25
100
AcDbLine
 10
70.4359383175
 20
277.8209841372
 30
0.0
 11
70.0104386399
 21
277.8209841372
 31
0.0
  0
LINE
  5
1C4
330
1F
100
AcDbEntity
  8
0
  6
Continuous
 62
     7
370
    25
100
AcDbLine
 10
68.7614382098
 20
277.5209820392
 30
0.0
 11
68.3359385321
 21
277.5209820392
 31
0.0
  0
LINE
  5
1C5
330
1F
100
AcDbEntity
  8
0
  6
Continuous
 62
     7
370
    25
100
AcDbLine
 10
68.7614382098
 20
277.8209841372
 30
0.0
 11
68.3359385321
 21
277.8209841372
 31
0.0
  0
LINE
  5
1C6
330
1F
100
AcDbEntity
  8
0
  6
Continuous
 62
     7
370
    25
100
AcDbLine
 10
111.2104386876
 20
277.5209820392
 30
0.0
 11
111.2104386876
 21
277.8209841372
 31
0.0
  0
LINE
  5
1C7
330
1F
100
AcDbEntity
  8
0
  6
Continuous
 62
     7
370
    25
100
AcDbLine
 10
109.9614382575
 20
277.5209820392
 30
0.0
 11
109.9614382575
 21
277.8209841372
 31
0.0
  0
LINE
  5
1C8
330
1F
100
AcDbEntity
  8
0
  6
Continuous
 62
     7
370
    25
100
AcDbLine
 10
109.9614382575
 20
277.5209820392
 30
0.0
 11
111.2104386876
 21
277.5209820392
 31
0.0
  0
LINE
  5
1C9
330
1F
100
AcDbEntity
  8
0
  6
Continuous
 62
     7
370
    25
100
AcDbLine
 10
109.9614382575
 20
277.8209841372
 30
0.0
 11
111.2104386876
 21
277.8209841372
 31
0.0
  0
LINE
  5
1CA
330
1F
100
AcDbEntity
  8
0
  6
Continuous
 62
     7
370
    25
100
AcDbLine
 10
109.5359385798
 20
277.5209820392
 30
0.0
 11
109.9614382575
 21
277.5209820392
 31
0.0
  0
LINE
  5
1CB
330
1F
100
AcDbEntity
  8
0
  6
Continuous
 62
     7
370
    25
100
AcDbLine
 10
109.5359385798
 20
277.8209841372
 30
0.0
 11
109.9614382575
 21
277.8209841372
 31
0.0
  0
LINE
  5
1CC
330
1F
100
AcDbEntity
  8
0
  6
Continuous
 62
     7
370
    25
100
AcDbLine
 10
111.2104386876
 20
277.5209820392
 30
0.0
 11
111.6359383652
 21
277.5209820392
 31
0.0
  0
LINE
  5
1CD
330
1F
100
AcDbEntity
  8
0
  6
Continuous
 62
     7
370
    25
100
AcDbLine
 10
111.2104386876
 20
277.8209841372
 30
0.0
 11
111.6359383652
 21
277.8209841372
 31
0.0
  0
LINE
  5
1CE
330
1F
100
AcDbEntity
  8
0
  6
Continuous
 62
     7
370
    25
100
AcDbLine
 10
119.9859396408
 20
188.5209789993
 30
0.0
 11
119.9859396408
 21
222.5209808471
 31
0.0
  0
LINE
  5
1CF
330
1F
100
AcDbEntity
  8
0
  6
Continuous
 62
     7
370
    25
100
AcDbLine
 10
125.7859394739
 20
222.5209808471
 30
0.0
 11
119.9859396408
 21
222.5209808471
 31
0.0
  0
LINE
  5
1D0
330
1F
100
AcDbEntity
  8
0
  6
Continuous
 62
     7
370
    25
100
AcDbLine
 10
125.9859398792
 20
219.0209782245
 30
0.0
 11
125.7859394739
 21
222.5209808471
 31
0.0
  0
LINE
  5
1D1
330
1F
100
AcDbEntity
  8
0
  6
Continuous
 62
     7
370
    25
100
AcDbLine
 10
129.9859390447
 20
185.0209793569
 30
0.0
 11
129.9859390447
 21
219.0209782245
 31
0.0
  0
LINE
  5
1D2
330
1F
100
AcDbEntity
  8
0
  6
Continuous
 62
     7
370
    25
100
AcDbLine
 10
129.9859390447
 20
185.0209793569
 30
0.0
 11
126.1859373043
 21
185.0209793569
 31
0.0
  0
LINE
  5
1D3
330
1F
100
AcDbEntity
  8
0
  6
Continuous
 62
     7
370
    25
100
AcDbLine
 10
125.9738311956
 20
188.5209789993
 30
0.0
 11
126.1859373043
 21
185.0209793569
 31
0.0
  0
LINE
  5
1D4
330
1F
100
AcDbEntity
  8
0
  6
Continuous
 62
     7
370
    25
100
AcDbLine
 10
119.9859396408
 20
188.5209789993
 30
0.0
 11
125.9738311956
 21
188.5209789993
 31
0.0
  0
LINE
  5
1D5
330
1F
100
AcDbEntity
  8
0
  6
Continuous
 62
     7
370
    25
100
AcDbLine
 10
125.9859398792
 20
219.0209782245
 30
0.0
 11
129.9859390447
 21
219.0209782245
 31
0.0
  0
LINE
  5
1D6
330
1F
100
AcDbEntity
  8
0
  6
Continuous
 62
     7
370
    25
100
AcDbLine
 10
53.9980457017
 20
188.5209789993
 30
0.0
 11
59.9859372566
 21
188.5209789993
 31
0.0
  0
LINE
  5
1D7
330
1F
100
AcDbEntity
  8
0
  6
Continuous
 62
     7
370
    25
100
AcDbLine
 10
53.7859395931
 20
185.0209793569
 30
0.0
 11
53.9980457017
 21
188.5209789993
 31
0.0
  0
LINE
  5
1D8
330
1F
100
AcDbEntity
  8
0
  6
Continuous
 62
     7
370
    25
100
AcDbLine
 10
54.1859374235
 20
222.5209808471
 30
0.0
 11
53.9859370182
 21
219.0209782245
 31
0.0
  0
LINE
  5
1D9
330
1F
100
AcDbEntity
  8
0
  6
Continuous
 62
     7
370
    25
100
AcDbLine
 10
59.9859372566
 20
222.5209808471
 30
0.0
 11
54.1859374235
 21
222.5209808471
 31
0.0
  0
LINE
  5
1DA
330
1F
100
AcDbEntity
  8
0
  6
Continuous
 62
     7
370
    25
100
AcDbLine
 10
59.9859372566
 20
222.5209808471
 30
0.0
 11
59.9859372566
 21
188.5209789993
 31
0.0
  0
LINE
  5
1DB
330
1F
100
AcDbEntity
  8
0
  6
Continuous
 62
     7
370
    25
100
AcDbLine
 10
49.9859378526
 20
219.0209782245
 30
0.0
 11
49.9859378526
 21
185.0209793569
 31
0.0
  0
LINE
  5
1DC
330
1F
100
AcDbEntity
  8
0
  6
Continuous
 62
     7
370
    25
100
AcDbLine
 10
53.7859395931
 20
185.0209793569
 30
0.0
 11
49.9859378526
 21
185.0209793569
 31
0.0
  0
LINE
  5
1DD
330
1F
100
AcDbEntity
  8
0
  6
Continuous
 62
     7
370
    25
100
AcDbLine
 10
49.9859378526
 20
219.0209782245
 30
0.0
 11
53.9859370182
 21
219.0209782245
 31
0.0
  0
LINE
  5
1DE
330
1F
100
AcDbEntity
  8
0
  6
Continuous
 62
     7
370
    25
100
AcDbLine
 10
76.4859379122
 20
188.5209789993
 30
0.0
 11
59.9859372566
 21
188.5209789993
 31
0.0
  0
LINE
  5
1DF
330
1F
100
AcDbEntity
  8
0
  6
Continuous
 62
     7
370
    25
100
AcDbLine
 10
119.9859396408
 20
188.5209789993
 30
0.0
 11
103.4859389851
 21
188.5209789993
 31
0.0
  0
LINE
  5
1E0
330
1F
100
AcDbEntity
  8
0
  6
Continuous
 62
     7
370
    25
100
AcDbLine
 10
119.9859396408
 20
222.5209808471
 30
0.0
 11
59.9859372566
 21
222.5209808471
 31
0.0
  0
LINE
  5
1E1
330
1F
100
AcDbEntity
  8
0
  6
Continuous
 62
     7
370
    25
100
AcDbLine
 10
99.9859385977
 20
198.02097739
 30
0.0
 11
99.9859385977
 21
188.5209789993
 31
0.0
  0
LINE
  5
1E2
330
1F
100
AcDbEntity
  8
0
  6
Continuous
 62
     7
370
    25
100
AcDbLine
 10
103.4859389851
 20
188.5209789993
 30
0.0
 11
99.9859385977
 21
188.5209789993
 31
0.0
  0
LINE
  5
1E3
330
1F
100
AcDbEntity
  8
0
  6
Continuous
 62
     7
370
    25
100
AcDbLine
 10
79.9859382997
 20
188.5209789993
 30
0.0
 11
79.9859382997
 21
198.02097739
 31
0.0
  0
LINE
  5
1E4
330
1F
100
AcDbEntity
  8
0
  6
Continuous
 62
     7
370
    25
100
AcDbLine
 10
79.9859382997
 20
188.5209789993
 30
0.0
 11
76.4859379122
 21
188.5209789993
 31
0.0
  0
ARC
  5
1E5
330
1F
100
AcDbEntity
  8
0
  6
Continuous
 62
     7
370
    25
100
AcDbCircle
 10
89.9859384487
 20
198.0209787013
 30
0.0
 40
10.0
100
AcDbArc
 50
0.0
 51
180.0
  0
LINE
  5
1E6
330
1F
100
AcDbEntity
  8
0
  6
Continuous
 62
     7
370
    25
100
AcDbLine
 10
79.9859382997
 20
188.5209789993
 30
0.0
 11
99.9859385977
 21
188.5209789993
 31
0.0
  0
LINE
  5
1E7
330
1F
100
AcDbEntity
  8
0
  6
Continuous
 62
     7
370
    25
100
AcDbLine
 10
103.5167635272
 20
187.5209784629
 30
0.0
 11
103.4864605258
 21
188.3211976411
 31
0.0
  0
LINE
  5
1E8
330
1F
100
AcDbEntity
  8
0
  6
Continuous
 62
     7
370
    25
100
AcDbLine
 10
103.4864605258
 20
188.3211976411
 30
0.0
 11
95.0859383533
 21
188.3211976411
 31
0.0
  0
LINE
  5
1E9
330
1F
100
AcDbEntity
  8
0
  6
Continuous
 62
     7
370
    25
100
AcDbLine
 10
95.0859383533
 20
188.3211976411
 30
0.0
 11
95.0859383533
 21
188.5209789993
 31
0.0
  0
LINE
  5
1EA
330
1F
100
AcDbEntity
  8
0
  6
Continuous
 62
     7
370
    25
100
AcDbLine
 10
125.7607565115
 20
185.0209793569
 30
0.0
 11
126.1859373043
 21
185.0209793569
 31
0.0
  0
LINE
  5
1EB
330
1F
100
AcDbEntity
  8
0
  6
Continuous
 62
     7
370
    25
100
AcDbLine
 10
84.885938544
 20
188.3211976411
 30
0.0
 11
76.4854163716
 21
188.3211976411
 31
0.0
  0
LINE
  5
1EC
330
1F
100
AcDbEntity
  8
0
  6
Continuous
 62
     7
370
    25
100
AcDbLine
 10
76.4854163716
 20
188.3211976411
 30
0.0
 11
76.4551133702
 21
187.5209784629
 31
0.0
  0
LINE
  5
1ED
330
1F
100
AcDbEntity
  8
0
  6
Continuous
 62
     7
370
    25
100
AcDbLine
 10
84.885938544
 20
188.5209789993
 30
0.0
 11
84.885938544
 21
188.3211976411
 31
0.0
  0
LINE
  5
1EE
330
1F
100
AcDbEntity
  8
0
  6
Continuous
 62
     7
370
    25
100
AcDbLine
 10
53.7859395931
 20
185.0209793569
 30
0.0
 11
54.2111203859
 21
185.0209793569
 31
0.0
  0
LINE
  5
1EF
330
1F
100
AcDbEntity
  8
0
  6
Continuous
 62
     7
370
    25
100
AcDbLine
 10
123.4859392831
 20
223.5209798934
 30
0.0
 11
124.9859378526
 21
223.5209798934
 31
0.0
  0
LINE
  5
1F0
330
1F
100
AcDbEntity
  8
0
  6
Continuous
 62
     7
370
    25
100
AcDbLine
 10
123.4859392831
 20
223.5209798934
 30
0.0
 11
123.4859392831
 21
243.0209791781
 31
0.0
  0
ARC
  5
1F1
330
1F
100
AcDbEntity
  8
0
  6
Continuous
 62
     7
370
    25
100
AcDbCircle
 10
123.4859384487
 20
246.5209787013
 30
0.0
 40
3.500000000000014
100
AcDbArc
 50
180.0
 51
270.0
  0
LINE
  5
1F2
330
1F
100
AcDbEntity
  8
0
  6
Continuous
 62
     7
370
    25
100
AcDbLine
 10
119.9859396408
 20
246.5209758403
 30
0.0
 11
119.9859396408
 21
277.5209820392
 31
0.0
  0
LINE
  5
1F3
330
1F
100
AcDbEntity
  8
0
  6
Continuous
 62
     7
370
    25
100
AcDbLine
 10
125.7859394739
 20
277.5209820392
 30
0.0
 11
119.9859396408
 21
277.5209820392
 31
0.0
  0
LINE
  5
1F4
330
1F
100
AcDbEntity
  8
0
  6
Continuous
 62
     7
370
    25
100
AcDbLine
 10
125.9859398792
 20
274.0209734561
 30
0.0
 11
129.9859390447
 21
274.0209734561
 31
0.0
  0
LINE
  5
1F5
330
1F
100
AcDbEntity
  8
0
  6
Continuous
 62
     7
370
    25
100
AcDbLine
 10
129.9859390447
 20
249.0209794166
 30
0.0
 11
129.9859390447
 21
274.0209734561
 31
0.0
  0
LINE
  5
1F6
330
1F
100
AcDbEntity
  8
0
  6
Continuous
 62
     7
370
    25
100
AcDbLine
 10
129.9859390447
 20
249.0209794166
 30
0.0
 11
125.9859398792
 21
246.5215003611
 31
0.0
  0
LINE
  5
1F7
330
1F
100
AcDbEntity
  8
0
  6
Continuous
 62
     7
370
    25
100
AcDbLine
 10
125.9859398792
 20
246.5215003611
 30
0.0
 11
125.9859398792
 21
243.0209791781
 31
0.0
  0
LINE
  5
1F8
330
1F
100
AcDbEntity
  8
0
  6
Continuous
 62
     7
370
    25
100
AcDbLine
 10
125.9859398792
 20
243.0209791781
 30
0.0
 11
124.9859378526
 21
243.0209791781
 31
0.0
  0
LINE
  5
1F9
330
1F
100
AcDbEntity
  8
0
  6
Continuous
 62
     7
370
    25
100
AcDbLine
 10
124.9859378526
 20
243.0209791781
 30
0.0
 11
124.9859378526
 21
223.5209798934
 31
0.0
  0
LINE
  5
1FA
330
1F
100
AcDbEntity
  8
0
  6
Continuous
 62
     7
370
    25
100
AcDbLine
 10
125.9859398792
 20
274.0209734561
 30
0.0
 11
125.7859394739
 21
277.5209820392
 31
0.0
  0
LINE
  5
1FB
330
1F
100
AcDbEntity
  8
0
  6
Continuous
 62
     7
370
    25
100
AcDbLine
 10
49.9859378526
 20
249.0209794166
 30
0.0
 11
49.9859378526
 21
233.0209767939
 31
0.0
  0
LINE
  5
1FC
330
1F
100
AcDbEntity
  8
0
  6
Continuous
 62
     7
370
    25
100
AcDbLine
 10
49.9859378526
 20
249.0209794166
 30
0.0
 11
53.9859370182
 21
246.5215003611
 31
0.0
  0
LINE
  5
1FD
330
1F
100
AcDbEntity
  8
0
  6
Continuous
 62
     7
370
    25
100
AcDbLine
 10
54.9859390447
 20
224.4192338111
 30
0.0
 11
53.9859370182
 21
224.4192338111
 31
0.0
  0
LINE
  5
1FE
330
1F
100
AcDbEntity
  8
0
  6
Continuous
 62
     7
370
    25
100
AcDbLine
 10
53.9859370182
 20
243.0209791781
 30
0.0
 11
53.9859370182
 21
224.4192338111
 31
0.0
  0
LINE
  5
1FF
330
1F
100
AcDbEntity
  8
0
  6
Continuous
 62
     7
370
    25
100
AcDbLine
 10
53.9859370182
 20
243.0209791781
 30
0.0
 11
54.9859390447
 21
243.0209791781
 31
0.0
  0
LINE
  5
200
330
1F
100
AcDbEntity
  8
0
  6
Continuous
 62
     7
370
    25
100
AcDbLine
 10
129.9859390447
 20
249.0209794166
 30
0.0
 11
129.9859390447
 21
233.0209767939
 31
0.0
  0
LINE
  5
201
330
1F
100
AcDbEntity
  8
0
  6
Continuous
 62
     7
370
    25
100
AcDbLine
 10
124.9859378526
 20
224.4192338111
 30
0.0
 11
125.9859398792
 21
224.4192338111
 31
0.0
  0
LINE
  5
202
330
1F
100
AcDbEntity
  8
0
  6
Continuous
 62
     7
370
    25
100
AcDbLine
 10
125.9859398792
 20
243.0209791781
 30
0.0
 11
125.9859398792
 21
224.4192338111
 31
0.0
  0
ARC
  5
203
330
1F
100
AcDbEntity
  8
0
  6
Continuous
 62
     7
370
    25
100
AcDbCircle
 10
56.4859384487
 20
246.5209787013
 30
0.0
 40
3.5
100
AcDbArc
 50
270.0
 51
0.0
  0
LINE
  5
204
330
1F
100
AcDbEntity
  8
0
  6
Continuous
 62
     7
370
    25
100
AcDbLine
 10
59.9859372566
 20
277.5209820392
 30
0.0
 11
59.9859372566
 21
246.5209758403
 31
0.0
  0
LINE
  5
205
330
1F
100
AcDbEntity
  8
0
  6
Continuous
 62
     7
370
    25
100
AcDbLine
 10
49.9859378526
 20
274.0209734561
 30
0.0
 11
49.9859378526
 21
249.0209794166
 31
0.0
  0
LINE
  5
206
330
1F
100
AcDbEntity
  8
0
  6
Continuous
 62
     7
370
    25
100
AcDbLine
 10
54.9859390447
 20
223.5209798934
 30
0.0
 11
56.4859376142
 21
223.5209798934
 31
0.0
  0
LINE
  5
207
330
1F
100
AcDbEntity
  8
0
  6
Continuous
 62
     7
370
    25
100
AcDbLine
 10
56.4859376142
 20
243.0209791781
 30
0.0
 11
56.4859376142
 21
223.5209798934
 31
0.0
  0
LINE
  5
208
330
1F
100
AcDbEntity
  8
0
  6
Continuous
 62
     7
370
    25
100
AcDbLine
 10
53.9859370182
 20
243.0209791781
 30
0.0
 11
53.9859370182
 21
246.5215003611
 31
0.0
  0
LINE
  5
209
330
1F
100
AcDbEntity
  8
0
  6
Continuous
 62
     7
370
    25
100
AcDbLine
 10
59.9859372566
 20
277.5209820392
 30
0.0
 11
54.1859374235
 21
277.5209820392
 31
0.0
  0
LINE
  5
20A
330
1F
100
AcDbEntity
  8
0
  6
Continuous
 62
     7
370
    25
100
AcDbLine
 10
54.1859374235
 20
277.5209820392
 30
0.0
 11
53.9859370182
 21
274.0209734561
 31
0.0
  0
LINE
  5
20B
330
1F
100
AcDbEntity
  8
0
  6
Continuous
 62
     7
370
    25
100
AcDbLine
 10
54.9859390447
 20
223.5209798934
 30
0.0
 11
54.9859390447
 21
243.0209791781
 31
0.0
  0
LINE
  5
20C
330
1F
100
AcDbEntity
  8
0
  6
Continuous
 62
     7
370
    25
100
AcDbLine
 10
49.9859378526
 20
274.0209734561
 30
0.0
 11
53.9859370182
 21
274.0209734561
 31
0.0
  0
LINE
  5
20D
330
1F
100
AcDbEntity
  8
0
  6
Continuous
 62
     7
370
    25
100
AcDbLine
 10
59.9859372566
 20
246.5209758403
 30
0.0
 11
59.9859372566
 21
233.0209767939
 31
0.0
  0
LINE
  5
20E
330
1F
100
AcDbEntity
  8
0
  6
Continuous
 62
     7
370
    25
100
AcDbLine
 10
119.9859396408
 20
233.0209767939
 30
0.0
 11
119.9859396408
 21
246.5209758403
 31
0.0
  0
LINE
  5
20F
330
1F
100
AcDbEntity
  8
0
  6
Continuous
 62
     7
370
    25
100
AcDbLine
 10
53.9980457017
 20
223.5209798934
 30
0.0
 11
53.9859370182
 21
223.321197045
 31
0.0
  0
LINE
  5
210
330
1F
100
AcDbEntity
  8
0
  6
Continuous
 62
     7
370
    25
100
AcDbLine
 10
54.9859390447
 20
223.5209798934
 30
0.0
 11
53.9980457017
 21
223.5209798934
 31
0.0
  0
LINE
  5
211
330
1F
100
AcDbEntity
  8
0
  6
Continuous
 62
     7
370
    25
100
AcDbLine
 10
53.9859370182
 20
224.4192338111
 30
0.0
 11
53.9859370182
 21
223.321197045
 31
0.0
  0
LINE
  5
212
330
1F
100
AcDbEntity
  8
0
  6
Continuous
 62
     7
370
    25
100
AcDbLine
 10
125.9738311956
 20
223.5209798934
 30
0.0
 11
125.9859398792
 21
223.321197045
 31
0.0
  0
LINE
  5
213
330
1F
100
AcDbEntity
  8
0
  6
Continuous
 62
     7
370
    25
100
AcDbLine
 10
125.9859398792
 20
224.4192338111
 30
0.0
 11
125.9859398792
 21
223.321197045
 31
0.0
  0
LINE
  5
214
330
1F
100
AcDbEntity
  8
0
  6
Continuous
 62
     7
370
    25
100
AcDbLine
 10
124.9859378526
 20
223.5209798934
 30
0.0
 11
125.9738311956
 21
223.5209798934
 31
0.0
  0
LINE
  5
215
330
1F
100
AcDbEntity
  8
0
  6
Continuous
 62
     7
370
    25
100
AcDbLine
 10
59.9859372566
 20
233.0209767939
 30
0.0
 11
59.9859372566
 21
223.5209798934
 31
0.0
  0
LINE
  5
216
330
1F
100
AcDbEntity
  8
0
  6
Continuous
 62
     7
370
    25
100
AcDbLine
 10
59.9859372566
 20
223.5209798934
 30
0.0
 11
56.4859376142
 21
223.5209798934
 31
0.0
  0
LINE
  5
217
330
1F
100
AcDbEntity
  8
0
  6
Continuous
 62
     7
370
    25
100
AcDbLine
 10
119.9859396408
 20
223.5209798934
 30
0.0
 11
119.9859396408
 21
233.0209767939
 31
0.0
  0
LINE
  5
218
330
1F
100
AcDbEntity
  8
0
  6
Continuous
 62
     7
370
    25
100
AcDbLine
 10
123.4859392831
 20
223.5209798934
 30
0.0
 11
119.9859396408
 21
223.5209798934
 31
0.0
  0
LINE
  5
219
330
1F
100
AcDbEntity
  8
0
  6
Continuous
 62
     7
370
    25
100
AcDbLine
 10
129.9859390447
 20
220.0209772708
 30
0.0
 11
126.1859373043
 21
220.0209772708
 31
0.0
  0
LINE
  5
21A
330
1F
100
AcDbEntity
  8
0
  6
Continuous
 62
     7
370
    25
100
AcDbLine
 10
125.9859398792
 20
223.321197045
 30
0.0
 11
126.1859373043
 21
220.0209772708
 31
0.0
  0
LINE
  5
21B
330
1F
100
AcDbEntity
  8
0
  6
Continuous
 62
     7
370
    25
100
AcDbLine
 10
129.9859390447
 20
233.0209767939
 30
0.0
 11
129.9859390447
 21
220.0209772708
 31
0.0
  0
LINE
  5
21C
330
1F
100
AcDbEntity
  8
0
  6
Continuous
 62
     7
370
    25
100
AcDbLine
 10
49.9859378526
 20
220.0209772708
 30
0.0
 11
53.7859395931
 21
220.0209772708
 31
0.0
  0
LINE
  5
21D
330
1F
100
AcDbEntity
  8
0
  6
Continuous
 62
     7
370
    25
100
AcDbLine
 10
53.9859370182
 20
223.321197045
 30
0.0
 11
53.7859395931
 21
220.0209772708
 31
0.0
  0
LINE
  5
21E
330
1F
100
AcDbEntity
  8
0
  6
Continuous
 62
     7
370
    25
100
AcDbLine
 10
49.9859378526
 20
233.0209767939
 30
0.0
 11
49.9859378526
 21
220.0209772708
 31
0.0
  0
LINE
  5
21F
330
1F
100
AcDbEntity
  8
0
  6
Continuous
 62
     7
370
    25
100
AcDbLine
 10
62.9859373758
 20
233.0209767939
 30
0.0
 11
62.9859373758
 21
223.5209798934
 31
0.0
  0
LINE
  5
220
330
1F
100
AcDbEntity
  8
0
  6
Continuous
 62
     7
370
    25
100
AcDbLine
 10
62.9859373758
 20
223.5209798934
 30
0.0
 11
59.9859372566
 21
223.5209798934
 31
0.0
  0
SPLINE
  5
221
330
1F
100
AcDbEntity
  8
0
  6
Continuous
 62
     7
370
    25
100
AcDbSpline
210
0.0
220
0.0
230
1.0
 70
     8
 71
     3
 72
    12
 73
     8
 74
     0
 42
0.000000001
 43
0.00000001
 40
0.0
 40
0.0
 40
0.0
 40
0.0
 40
0.098017689389138
 40
0.321797945777421
 40
0.5455838155099867
 40
0.7727934599011528
 40
1.0
 40
1.0
 40
1.0
 40
1.0
 10
63.35630871749653
 20
235.7173180701185
 30
0.0
 10
63.33296273136882
 20
235.6312277806597
 30
0.0
 10
63.25631646042663
 20
235.3485882033354
 30
0.0
 10
63.15092173518902
 20
234.8630400518978
 30
0.0
 10
63.05651748882743
 20
234.2561978790024
 30
0.0
 10
62.99710056195218
 20
233.6413491580967
 30
0.0
 10
62.98965842089815
 20
233.2277666402181
 30
0.0
 10
62.9859373757912
 20
233.0209767939497
 30
0.0
  0
LINE
  5
222
330
1F
100
AcDbEntity
  8
0
  6
Continuous
 62
     7
370
    25
100
AcDbLine
 10
96.9859384785
 20
233.0209767939
 30
0.0
 11
96.9859384785
 21
223.5209798934
 31
0.0
  0
LINE
  5
223
330
1F
100
AcDbEntity
  8
0
  6
Continuous
 62
     7
370
    25
100
AcDbLine
 10
96.9859384785
 20
223.5209798934
 30
0.0
 11
93.4859384636
 21
223.5209798934
 31
0.0
  0
LINE
  5
224
330
1F
100
AcDbEntity
  8
0
  6
Continuous
 62
     7
370
    25
100
AcDbLine
 10
116.9859395216
 20
223.5209798934
 30
0.0
 11
116.9859395216
 21
233.0209767939
 31
0.0
  0
LINE
  5
225
330
1F
100
AcDbEntity
  8
0
  6
Continuous
 62
     7
370
    25
100
AcDbLine
 10
119.9859396408
 20
223.5209798934
 30
0.0
 11
116.9859395216
 21
223.5209798934
 31
0.0
  0
SPLINE
  5
226
330
1F
100
AcDbEntity
  8
0
  6
Continuous
 62
     7
370
    25
100
AcDbSpline
210
0.0
220
0.0
230
1.0
 70
     8
 71
     3
 72
    11
 73
     7
 74
     0
 42
0.000000001
 43
0.00000001
 40
0.0
 40
0.0
 40
0.0
 40
0.0
 40
0.2476537224331973
 40
0.4953102024385576
 40
0.7476606995801637
 40
1.0
 40
1.0
 40
1.0
 40
1.0
 10
116.9859395215584
 20
233.0209767939497
 30
0.0
 10
116.9815659687866
 20
233.2463858410913
 30
0.0
 10
116.9728188145445
 20
233.6972064452569
 30
0.0
 10
116.900692965029
 20
234.3742888518287
 30
0.0
 10
116.7882320500026
 20
235.0501344621011
 30
0.0
 10
116.6731219519835
 20
235.4949268234047
 30
0.0
 10
116.6155681798531
 20
235.7173180701185
 30
0.0
  0
ARC
  5
227
330
1F
100
AcDbEntity
  8
0
  6
Continuous
 62
     7
370
    25
100
AcDbCircle
 10
72.9859384487
 20
233.0209787013
 30
0.0
 40
10.00000000000001
100
AcDbArc
 50
0.0
 51
164.357528987
  0
ARC
  5
228
330
1F
100
AcDbEntity
  8
0
  6
Continuous
 62
     7
370
    25
100
AcDbCircle
 10
106.9859384487
 20
233.0209787013
 30
0.0
 40
10.00000000000002
100
AcDbArc
 50
15.642471013
 51
180.0
  0
LINE
  5
229
330
1F
100
AcDbEntity
  8
0
  6
Continuous
 62
     7
370
    25
100
AcDbLine
 10
93.4859384636
 20
223.5209798934
 30
0.0
 11
86.4859384338
 21
223.5209798934
 31
0.0
  0
LINE
  5
22A
330
1F
100
AcDbEntity
  8
0
  6
Continuous
 62
     7
370
    25
100
AcDbLine
 10
82.9859384189
 20
223.5209798934
 30
0.0
 11
82.9859384189
 21
233.0209767939
 31
0.0
  0
LINE
  5
22B
330
1F
100
AcDbEntity
  8
0
  6
Continuous
 62
     7
370
    25
100
AcDbLine
 10
86.4859384338
 20
223.5209798934
 30
0.0
 11
82.9859384189
 21
223.5209798934
 31
0.0
  0
LINE
  5
22C
330
1F
100
AcDbEntity
  8
0
  6
Continuous
 62
     7
370
    25
100
AcDbLine
 10
96.9859384785
 20
223.5209798934
 30
0.0
 11
116.9859395216
 21
223.5209798934
 31
0.0
  0
LINE
  5
22D
330
1F
100
AcDbEntity
  8
0
  6
Continuous
 62
     7
370
    25
100
AcDbLine
 10
62.9859373758
 20
223.5209798934
 30
0.0
 11
82.9859384189
 21
223.5209798934
 31
0.0
  0
LINE
  5
22E
330
1F
100
AcDbEntity
  8
0
  6
Continuous
 62
     7
370
    25
100
AcDbLine
 10
101.8859387229
 20
223.321197045
 30
0.0
 11
93.4854158053
 21
223.321197045
 31
0.0
  0
LINE
  5
22F
330
1F
100
AcDbEntity
  8
0
  6
Continuous
 62
     7
370
    25
100
AcDbLine
 10
93.4551128039
 20
222.5209808471
 30
0.0
 11
93.4854158053
 21
223.321197045
 31
0.0
  0
LINE
  5
230
330
1F
100
AcDbEntity
  8
0
  6
Continuous
 62
     7
370
    25
100
AcDbLine
 10
86.486461092
 20
223.321197045
 30
0.0
 11
86.5167640934
 21
222.5209808471
 31
0.0
  0
LINE
  5
231
330
1F
100
AcDbEntity
  8
0
  6
Continuous
 62
     7
370
    25
100
AcDbLine
 10
86.486461092
 20
223.321197045
 30
0.0
 11
78.0859381745
 21
223.321197045
 31
0.0
  0
LINE
  5
232
330
1F
100
AcDbEntity
  8
0
  6
Continuous
 62
     7
370
    25
100
AcDbLine
 10
101.8859387229
 20
223.321197045
 30
0.0
 11
101.8859387229
 21
223.5209798934
 31
0.0
  0
LINE
  5
233
330
1F
100
AcDbEntity
  8
0
  6
Continuous
 62
     7
370
    25
100
AcDbLine
 10
78.0859381745
 20
223.5209798934
 30
0.0
 11
78.0859381745
 21
223.321197045
 31
0.0
  0
LINE
  5
234
330
1F
100
AcDbEntity
  8
0
  6
Continuous
 62
     7
370
    25
100
AcDbLine
 10
59.4551131914
 20
222.5209808471
 30
0.0
 11
59.4854161928
 21
223.321197045
 31
0.0
  0
LINE
  5
235
330
1F
100
AcDbEntity
  8
0
  6
Continuous
 62
     7
370
    25
100
AcDbLine
 10
67.8859383652
 20
223.321197045
 30
0.0
 11
59.4854161928
 21
223.321197045
 31
0.0
  0
LINE
  5
236
330
1F
100
AcDbEntity
  8
0
  6
Continuous
 62
     7
370
    25
100
AcDbLine
 10
67.8859383652
 20
223.321197045
 30
0.0
 11
67.8859383652
 21
223.5209798934
 31
0.0
  0
LINE
  5
237
330
1F
100
AcDbEntity
  8
0
  6
Continuous
 62
     7
370
    25
100
AcDbLine
 10
53.7859395931
 20
220.0209772708
 30
0.0
 11
54.0430799911
 21
220.0209772708
 31
0.0
  0
LINE
  5
238
330
1F
100
AcDbEntity
  8
0
  6
Continuous
 62
     7
370
    25
100
AcDbLine
 10
120.4864607046
 20
223.321197045
 30
0.0
 11
120.516763706
 21
222.5209808471
 31
0.0
  0
LINE
  5
239
330
1F
100
AcDbEntity
  8
0
  6
Continuous
 62
     7
370
    25
100
AcDbLine
 10
120.4864607046
 20
223.321197045
 30
0.0
 11
112.0859385321
 21
223.321197045
 31
0.0
  0
LINE
  5
23A
330
1F
100
AcDbEntity
  8
0
  6
Continuous
 62
     7
370
    25
100
AcDbLine
 10
112.0859385321
 20
223.5209798934
 30
0.0
 11
112.0859385321
 21
223.321197045
 31
0.0
  0
LINE
  5
23B
330
1F
100
AcDbEntity
  8
0
  6
Continuous
 62
     7
370
    25
100
AcDbLine
 10
125.9287969062
 20
220.0209772708
 30
0.0
 11
126.1859373043
 21
220.0209772708
 31
0.0
  0
LINE
  5
23C
330
1F
100
AcDbEntity
  8
0
  6
Continuous
 62
     7
370
    25
100
AcDbLine
 10
125.5859390686
 20
187.5209784629
 30
0.0
 11
119.9859396408
 21
187.5209784629
 31
0.0
  0
LINE
  5
23D
330
1F
100
AcDbEntity
  8
0
  6
Continuous
 62
     7
370
    25
100
AcDbLine
 10
125.5859390686
 20
187.5209784629
 30
0.0
 11
125.8306817005
 21
184.0209788205
 31
0.0
  0
LINE
  5
23E
330
1F
100
AcDbEntity
  8
0
  6
Continuous
 62
     7
370
    25
100
AcDbLine
 10
125.8306817005
 20
184.0209788205
 30
0.0
 11
129.9859390447
 21
184.0209788205
 31
0.0
  0
LINE
  5
23F
330
1F
100
AcDbEntity
  8
0
  6
Continuous
 62
     7
370
    25
100
AcDbLine
 10
129.9859390447
 20
184.0209788205
 30
0.0
 11
129.9859390447
 21
174.0209786715
 31
0.0
  0
LINE
  5
240
330
1F
100
AcDbEntity
  8
0
  6
Continuous
 62
     7
370
    25
100
AcDbLine
 10
129.9859390447
 20
174.0209786715
 30
0.0
 11
125.9859398792
 21
174.0209786715
 31
0.0
  0
LINE
  5
241
330
1F
100
AcDbEntity
  8
0
  6
Continuous
 62
     7
370
    25
100
AcDbLine
 10
125.9859398792
 20
177.5209790589
 30
0.0
 11
125.9859398792
 21
174.0209786715
 31
0.0
  0
LINE
  5
242
330
1F
100
AcDbEntity
  8
0
  6
Continuous
 62
     7
370
    25
100
AcDbLine
 10
119.9859396408
 20
187.5209784629
 30
0.0
 11
119.9859396408
 21
177.5209790589
 31
0.0
  0
LINE
  5
243
330
1F
100
AcDbEntity
  8
0
  6
Continuous
 62
     7
370
    25
100
AcDbLine
 10
125.9859398792
 20
177.5209790589
 30
0.0
 11
119.9859396408
 21
177.5209790589
 31
0.0
  0
LINE
  5
244
330
1F
100
AcDbEntity
  8
0
  6
Continuous
 62
     7
370
    25
100
AcDbLine
 10
53.9859370182
 20
174.0209786715
 30
0.0
 11
53.9859370182
 21
177.5209790589
 31
0.0
  0
LINE
  5
245
330
1F
100
AcDbEntity
  8
0
  6
Continuous
 62
     7
370
    25
100
AcDbLine
 10
53.9859370182
 20
174.0209786715
 30
0.0
 11
49.9859378526
 21
174.0209786715
 31
0.0
  0
LINE
  5
246
330
1F
100
AcDbEntity
  8
0
  6
Continuous
 62
     7
370
    25
100
AcDbLine
 10
49.9859378526
 20
174.0209786715
 30
0.0
 11
49.9859378526
 21
184.0209788205
 31
0.0
  0
LINE
  5
247
330
1F
100
AcDbEntity
  8
0
  6
Continuous
 62
     7
370
    25
100
AcDbLine
 10
49.9859378526
 20
184.0209788205
 30
0.0
 11
54.1411951969
 21
184.0209788205
 31
0.0
  0
LINE
  5
248
330
1F
100
AcDbEntity
  8
0
  6
Continuous
 62
     7
370
    25
100
AcDbLine
 10
54.1411951969
 20
184.0209788205
 30
0.0
 11
54.3859378288
 21
187.5209784629
 31
0.0
  0
LINE
  5
249
330
1F
100
AcDbEntity
  8
0
  6
Continuous
 62
     7
370
    25
100
AcDbLine
 10
59.9859372566
 20
187.5209784629
 30
0.0
 11
54.3859378288
 21
187.5209784629
 31
0.0
  0
LINE
  5
24A
330
1F
100
AcDbEntity
  8
0
  6
Continuous
 62
     7
370
    25
100
AcDbLine
 10
59.9859372566
 20
177.5209790589
 30
0.0
 11
59.9859372566
 21
187.5209784629
 31
0.0
  0
LINE
  5
24B
330
1F
100
AcDbEntity
  8
0
  6
Continuous
 62
     7
370
    25
100
AcDbLine
 10
59.9859372566
 20
177.5209790589
 30
0.0
 11
53.9859370182
 21
177.5209790589
 31
0.0
  0
LINE
  5
24C
330
1F
100
AcDbEntity
  8
0
  6
Continuous
 62
     7
370
    25
100
AcDbLine
 10
119.9859396408
 20
187.5209784629
 30
0.0
 11
59.9859372566
 21
187.5209784629
 31
0.0
  0
LINE
  5
24D
330
1F
100
AcDbEntity
  8
0
  6
Continuous
 62
     7
370
    25
100
AcDbLine
 10
119.9859396408
 20
177.5209790589
 30
0.0
 11
59.9859372566
 21
177.5209790589
 31
0.0
  0
LINE
  5
24E
330
1F
100
AcDbEntity
  8
0
  6
Continuous
 62
     7
370
    25
100
AcDbLine
 10
53.9859370182
 20
174.0209786715
 30
0.0
 11
54.1859374235
 21
174.0209786715
 31
0.0
  0
LINE
  5
24F
330
1F
100
AcDbEntity
  8
0
  6
Continuous
 62
     7
370
    25
100
AcDbLine
 10
125.7859394739
 20
174.0209786715
 30
0.0
 11
125.9859398792
 21
174.0209786715
 31
0.0
  0
LINE
  5
250
330
1F
100
AcDbEntity
  8
0
  6
Continuous
 62
     7
370
    25
100
AcDbLine
 10
125.7859394739
 20
176.5209785225
 30
0.0
 11
125.7859394739
 21
168.5209787013
 31
0.0
  0
LINE
  5
251
330
1F
100
AcDbEntity
  8
0
  6
Continuous
 62
     7
370
    25
100
AcDbLine
 10
109.9859387467
 20
176.5209785225
 30
0.0
 11
109.9859387467
 21
168.5209787013
 31
0.0
  0
LINE
  5
252
330
1F
100
AcDbEntity
  8
0
  6
Continuous
 62
     7
370
    25
100
AcDbLine
 10
109.9859387467
 20
176.5209785225
 30
0.0
 11
125.7859394739
 21
176.5209785225
 31
0.0
  0
LINE
  5
253
330
1F
100
AcDbEntity
  8
0
  6
Continuous
 62
     7
370
    25
100
AcDbLine
 10
125.7859394739
 20
168.5209787013
 30
0.0
 11
109.9859387467
 21
168.5209787013
 31
0.0
  0
LINE
  5
254
330
1F
100
AcDbEntity
  8
0
  6
Continuous
 62
     7
370
    25
100
AcDbLine
 10
69.9859381507
 20
168.5209787013
 30
0.0
 11
69.9859381507
 21
176.5209785225
 31
0.0
  0
LINE
  5
255
330
1F
100
AcDbEntity
  8
0
  6
Continuous
 62
     7
370
    25
100
AcDbLine
 10
54.1859374235
 20
176.5209785225
 30
0.0
 11
69.9859381507
 21
176.5209785225
 31
0.0
  0
LINE
  5
256
330
1F
100
AcDbEntity
  8
0
  6
Continuous
 62
     7
370
    25
100
AcDbLine
 10
69.9859381507
 20
168.5209787013
 30
0.0
 11
54.1859374235
 21
168.5209787013
 31
0.0
  0
LINE
  5
257
330
1F
100
AcDbEntity
  8
0
  6
Continuous
 62
     7
370
    25
100
AcDbLine
 10
54.1859374235
 20
168.5209787013
 30
0.0
 11
54.1859374235
 21
176.5209785225
 31
0.0
  0
LINE
  5
258
330
1F
100
AcDbEntity
  8
0
  6
Continuous
 62
     7
370
    25
100
AcDbLine
 10
109.9859387467
 20
176.5209785225
 30
0.0
 11
69.9859381507
 21
176.5209785225
 31
0.0
  0
LINE
  5
259
330
1F
100
AcDbEntity
  8
0
  6
Continuous
 62
     7
370
    25
100
AcDbLine
 10
109.9859387467
 20
168.5209787013
 30
0.0
 11
69.9859381507
 21
168.5209787013
 31
0.0
  0
LINE
  5
25A
330
1F
100
AcDbEntity
  8
0
  6
Continuous
 62
     7
370
    25
100
AcDbLine
 10
129.9859390447
 20
168.5209787013
 30
0.0
 11
129.9859390447
 21
173.0209788801
 31
0.0
  0
LINE
  5
25B
330
1F
100
AcDbEntity
  8
0
  6
Continuous
 62
     7
370
    25
100
AcDbLine
 10
129.9859390447
 20
173.0209788801
 30
0.0
 11
125.7859394739
 21
173.0209788801
 31
0.0
  0
LINE
  5
25C
330
1F
100
AcDbEntity
  8
0
  6
Continuous
 62
     7
370
    25
100
AcDbLine
 10
129.9859390447
 20
168.5209787013
 30
0.0
 11
125.7859394739
 21
168.5209787013
 31
0.0
  0
LINE
  5
25D
330
1F
100
AcDbEntity
  8
0
  6
Continuous
 62
     7
370
    25
100
AcDbLine
 10
49.9859378526
 20
168.5209787013
 30
0.0
 11
49.9859378526
 21
173.0209788801
 31
0.0
  0
LINE
  5
25E
330
1F
100
AcDbEntity
  8
0
  6
Continuous
 62
     7
370
    25
100
AcDbLine
 10
54.1859374235
 20
173.0209788801
 30
0.0
 11
49.9859378526
 21
173.0209788801
 31
0.0
  0
LINE
  5
25F
330
1F
100
AcDbEntity
  8
0
  6
Continuous
 62
     7
370
    25
100
AcDbLine
 10
54.1859374235
 20
168.5209787013
 30
0.0
 11
49.9859378526
 21
168.5209787013
 31
0.0
  0
LINE
  5
260
330
1F
100
AcDbEntity
  8
0
  6
Continuous
 62
     7
370
    25
100
AcDbLine
 10
87.4859384114
 20
277.1209752681
 30
0.0
 11
87.4859384114
 21
277.5209820392
 31
0.0
  0
LINE
  5
261
330
1F
100
AcDbEntity
  8
0
  6
Continuous
 62
     7
370
    25
100
AcDbLine
 10
60.48593976
 20
277.1209752681
 30
0.0
 11
60.48593976
 21
277.5209820392
 31
0.0
  0
LINE
  5
262
330
1F
100
AcDbEntity
  8
0
  6
Continuous
 62
     7
370
    25
100
AcDbLine
 10
60.48593976
 20
272.5209748866
 30
0.0
 11
87.4859384114
 21
272.5209748866
 31
0.0
  0
LINE
  5
263
330
1F
100
AcDbEntity
  8
0
  6
Continuous
 62
     7
370
    25
100
AcDbLine
 10
87.4859384114
 20
272.5209748866
 30
0.0
 11
87.4859384114
 21
272.9209816577
 31
0.0
  0
LINE
  5
264
330
1F
100
AcDbEntity
  8
0
  6
Continuous
 62
     7
370
    25
100
AcDbLine
 10
60.48593976
 20
272.5209748866
 30
0.0
 11
60.48593976
 21
272.9209816577
 31
0.0
  0
LINE
  5
265
330
1F
100
AcDbEntity
  8
0
  6
Continuous
 62
     7
370
    25
100
AcDbLine
 10
60.48593976
 20
272.9209816577
 30
0.0
 11
60.48593976
 21
277.1209752681
 31
0.0
  0
LINE
  5
266
330
1F
100
AcDbEntity
  8
0
  6
Continuous
 62
     7
370
    25
100
AcDbLine
 10
92.4859384859
 20
272.5209748866
 30
0.0
 11
119.4859371374
 21
272.5209748866
 31
0.0
  0
LINE
  5
267
330
1F
100
AcDbEntity
  8
0
  6
Continuous
 62
     7
370
    25
100
AcDbLine
 10
92.4859384859
 20
272.5209748866
 30
0.0
 11
92.4859384859
 21
272.9209816577
 31
0.0
  0
LINE
  5
268
330
1F
100
AcDbEntity
  8
0
  6
Continuous
 62
     7
370
    25
100
AcDbLine
 10
119.4859371374
 20
272.5209748866
 30
0.0
 11
119.4859371374
 21
272.9209816577
 31
0.0
  0
LINE
  5
269
330
1F
100
AcDbEntity
  8
0
  6
Continuous
 62
     7
370
    25
100
AcDbLine
 10
92.4859384859
 20
277.1209752681
 30
0.0
 11
92.4859384859
 21
277.5209820392
 31
0.0
  0
LINE
  5
26A
330
1F
100
AcDbEntity
  8
0
  6
Continuous
 62
     7
370
    25
100
AcDbLine
 10
119.4859371374
 20
277.1209752681
 30
0.0
 11
119.4859371374
 21
277.5209820392
 31
0.0
  0
LINE
  5
26B
330
1F
100
AcDbEntity
  8
0
  6
Continuous
 62
     7
370
    25
100
AcDbLine
 10
119.4859371374
 20
272.9209816577
 30
0.0
 11
119.4859371374
 21
277.1209752681
 31
0.0
  0
LINE
  5
26C
330
1F
100
AcDbEntity
  8
0
  6
PHANTOM
 62
     8
370
    18
100
AcDbLine
 10
70.4359383175
 20
277.5209820392
 30
0.0
 11
70.4359383175
 21
277.8209841372
 31
0.0
  0
LINE
  5
26D
330
1F
100
AcDbEntity
  8
0
  6
PHANTOM
 62
     8
370
    18
100
AcDbLine
 10
111.6359383652
 20
277.5209820392
 30
0.0
 11
111.6359383652
 21
277.8209841372
 31
0.0
  0
LINE
  5
26E
330
1F
100
AcDbEntity
  8
0
  6
PHANTOM
 62
     8
370
    18
100
AcDbLine
 10
68.3359385321
 20
277.5209820392
 30
0.0
 11
68.3359385321
 21
277.8209841372
 31
0.0
  0
LINE
  5
26F
330
1F
100
AcDbEntity
  8
0
  6
PHANTOM
 62
     8
370
    18
100
AcDbLine
 10
109.5359385798
 20
277.5209820392
 30
0.0
 11
109.5359385798
 21
277.8209841372
 31
0.0
  0
LINE
  5
270
330
1F
100
AcDbEntity
  8
0
  6
PHANTOM
 62
     8
370
    18
100
AcDbLine
 10
76.4859379122
 20
188.5209789993
 30
0.0
 11
76.4859379122
 21
198.02097739
 31
0.0
  0
LINE
  5
271
330
1F
100
AcDbEntity
  8
0
  6
PHANTOM
 62
     8
370
    18
100
AcDbLine
 10
103.4859389851
 20
198.02097739
 30
0.0
 11
103.4859389851
 21
188.5209789993
 31
0.0
  0
ARC
  5
272
330
1F
100
AcDbEntity
  8
0
  6
PHANTOM
 62
     8
370
    18
100
AcDbCircle
 10
89.9859384487
 20
198.0209787013
 30
0.0
 40
13.5
100
AcDbArc
 50
0.0
 51
180.0
  0
LINE
  5
273
330
1F
100
AcDbEntity
  8
0
  6
PHANTOM
 62
     8
370
    18
100
AcDbLine
 10
103.4859389851
 20
198.02097739
 30
0.0
 11
99.9859385977
 21
198.02097739
 31
0.0
  0
LINE
  5
274
330
1F
100
AcDbEntity
  8
0
  6
PHANTOM
 62
     8
370
    18
100
AcDbLine
 10
76.4859379122
 20
198.02097739
 30
0.0
 11
79.9859382997
 21
198.02097739
 31
0.0
  0
LINE
  5
275
330
1F
100
AcDbEntity
  8
0
  6
PHANTOM
 62
     8
370
    18
100
AcDbLine
 10
53.9859370182
 20
233.0209767939
 30
0.0
 11
49.9859378526
 21
233.0209767939
 31
0.0
  0
LINE
  5
276
330
1F
100
AcDbEntity
  8
0
  6
PHANTOM
 62
     8
370
    18
100
AcDbLine
 10
125.9859398792
 20
233.0209767939
 30
0.0
 11
129.9859390447
 21
233.0209767939
 31
0.0
  0
LINE
  5
277
330
1F
100
AcDbEntity
  8
0
  6
PHANTOM
 62
     8
370
    18
100
AcDbLine
 10
59.9859372566
 20
233.0209767939
 30
0.0
 11
56.4859376142
 21
233.0209767939
 31
0.0
  0
LINE
  5
278
330
1F
100
AcDbEntity
  8
0
  6
PHANTOM
 62
     8
370
    18
100
AcDbLine
 10
119.9859396408
 20
233.0209767939
 30
0.0
 11
123.4859392831
 21
233.0209767939
 31
0.0
  0
LINE
  5
279
330
1F
100
AcDbEntity
  8
0
  6
PHANTOM
 62
     8
370
    18
100
AcDbLine
 10
59.9859372566
 20
233.0209767939
 30
0.0
 11
62.9859373758
 21
233.0209767939
 31
0.0
  0
LWPOLYLINE
  5
27A
330
1F
100
AcDbEntity
  8
0
  6
PHANTOM
 62
     8
370
    18
100
AcDbPolyline
 90
       16
 70
   128
 43
0.0
 10
59.9859372566
 20
236.6610324504
 10
60.3382394502
 20
236.5623867633
 10
60.6866792629
 20
236.4648258807
 10
61.0274390171
 20
236.3694107654
 10
61.3567904422
 20
236.277190459
 10
61.6711244772
 20
236.18917228
 10
61.9669929931
 20
236.1063277842
 10
62.2411564777
 20
236.0295629622
 10
62.4906108568
 20
235.959712279
 10
62.7126262376
 20
235.897550595
 10
62.9047647903
 20
235.8437514426
 10
63.064925451
 20
235.7989049079
 10
63.1913498828
 20
235.7635057094
 10
63.2826582382
 20
235.7379353167
 10
63.3378461788
 20
235.7224857928
 10
63.3563087175
 20
235.7173180701
  0
LINE
  5
27B
330
1F
100
AcDbEntity
  8
0
  6
PHANTOM
 62
     8
370
    18
100
AcDbLine
 10
93.4859384636
 20
223.5209798934
 30
0.0
 11
93.4859384636
 21
233.0209767939
 31
0.0
  0
LINE
  5
27C
330
1F
100
AcDbEntity
  8
0
  6
PHANTOM
 62
     8
370
    18
100
AcDbLine
 10
93.4859384636
 20
233.0209767939
 30
0.0
 11
96.9859384785
 21
233.0209767939
 31
0.0
  0
LINE
  5
27D
330
1F
100
AcDbEntity
  8
0
  6
PHANTOM
 62
     8
370
    18
100
AcDbLine
 10
119.9859396408
 20
233.0209767939
 30
0.0
 11
116.9859395216
 21
233.0209767939
 31
0.0
  0
LWPOLYLINE
  5
27E
330
1F
100
AcDbEntity
  8
0
  6
PHANTOM
 62
     8
370
    18
100
AcDbPolyline
 90
       16
 70
   128
 43
0.0
 10
119.9859396408
 20
236.6610324504
 10
119.6336374471
 20
236.5623867633
 10
119.2851976345
 20
236.4648258807
 10
118.9444378803
 20
236.3694107654
 10
118.6150864551
 20
236.277190459
 10
118.3007524202
 20
236.18917228
 10
118.0048839042
 20
236.1063277842
 10
117.7307204197
 20
236.0295629622
 10
117.4812660406
 20
235.959712279
 10
117.2592506597
 20
235.897550595
 10
117.067112107
 20
235.8437514426
 10
116.9069514463
 20
235.7989049079
 10
116.7805270145
 20
235.7635057094
 10
116.6892186592
 20
235.7379353167
 10
116.6340307186
 20
235.7224857928
 10
116.6155681799
 20
235.7173180701
  0
ARC
  5
27F
330
1F
100
AcDbEntity
  8
0
  6
PHANTOM
 62
     8
370
    18
100
AcDbCircle
 10
72.9859384487
 20
233.0209787013
 30
0.0
 40
13.50000000000001
100
AcDbArc
 50
0.0
 51
164.357528987
  0
LINE
  5
280
330
1F
100
AcDbEntity
  8
0
  6
PHANTOM
 62
     8
370
    18
100
AcDbLine
 10
86.4859384338
 20
233.0209767939
 30
0.0
 11
82.9859384189
 21
233.0209767939
 31
0.0
  0
ARC
  5
281
330
1F
100
AcDbEntity
  8
0
  6
PHANTOM
 62
     8
370
    18
100
AcDbCircle
 10
106.9859384487
 20
233.0209787013
 30
0.0
 40
13.5
100
AcDbArc
 50
15.642471013
 51
180.0
  0
LINE
  5
282
330
1F
100
AcDbEntity
  8
0
  6
PHANTOM
 62
     8
370
    18
100
AcDbLine
 10
86.4859384338
 20
233.0209767939
 30
0.0
 11
86.4859384338
 21
223.5209798934
 31
0.0
  0
LINE
  5
283
330
1F
100
AcDbEntity
  8
0
  6
PHANTOM
 62
     8
370
    18
100
AcDbLine
 10
60.48593976
 20
277.1209752681
 30
0.0
 11
87.4859384114
 21
277.1209752681
 31
0.0
  0
LINE
  5
284
330
1F
100
AcDbEntity
  8
0
  6
PHANTOM
 62
     8
370
    18
100
AcDbLine
 10
60.48593976
 20
272.9209816577
 30
0.0
 11
87.4859384114
 21
272.9209816577
 31
0.0
  0
LINE
  5
285
330
1F
100
AcDbEntity
  8
0
  6
PHANTOM
 62
     8
370
    18
100
AcDbLine
 10
92.4859384859
 20
272.9209816577
 30
0.0
 11
119.4859371374
 21
272.9209816577
 31
0.0
  0
LINE
  5
286
330
1F
100
AcDbEntity
  8
0
  6
PHANTOM
 62
     8
370
    18
100
AcDbLine
 10
92.4859384859
 20
277.1209752681
 30
0.0
 11
119.4859371374
 21
277.1209752681
 31
0.0
  0
HATCH
  5
287
330
1F
100
AcDbEntity
  8
0
  6
Continuous
 62
     7
370
    18
100
AcDbHatch
 10
0.0
 20
0.0
 30
0.0
210
0.0
220
0.0
230
1.0
  2
ANSI34
 70
     0
 71
     0
 91
        1
 92
        0
 93
        4
 72
     1
 10
54.18593844867479
 20
168.5209787012983
 11
69.98593844867479
 21
168.5209787012983
 72
     1
 10
69.98593844867479
 20
168.5209787012983
 11
69.98593844867479
 21
176.5209787012984
 72
     1
 10
69.98593844867479
 20
176.5209787012984
 11
54.18593844867479
 21
176.5209787012984
 72
     1
 10
54.18593844867479
 20
176.5209787012984
 11
54.18593844867479
 21
168.5209787012983
 97
        0
 75
     0
 76
     1
 52
0.0
 41
1.0
 77
     0
 78
     4
 53
45.0
 43
0.0
 44
0.0
 45
-13.47038418160373
 46
13.47038418160373
 79
     0
 53
45.0
 43
4.49013
 44
0.0
 45
-13.47038418160373
 46
13.47038418160373
 79
     0
 53
45.0
 43
8.98026
 44
0.0
 45
-13.47038418160373
 46
13.47038418160373
 79
     0
 53
45.0
 43
13.4704
 44
0.0
 45
-13.47038418160373
 46
13.47038418160373
 79
     0
 98
        1
 10
0.0
 20
0.0
  0
HATCH
  5
288
330
1F
100
AcDbEntity
  8
0
  6
Continuous
 62
     7
370
    18
100
AcDbHatch
 10
0.0
 20
0.0
 30
0.0
210
0.0
220
0.0
230
1.0
  2
ANSI34
 70
     0
 71
     0
 91
        1
 92
        0
 93
        4
 72
     1
 10
125.7859384486748
 20
176.5209787012984
 11
109.9859384486748
 21
176.5209787012984
 72
     1
 10
109.9859384486748
 20
176.5209787012984
 11
109.9859384486748
 21
168.5209787012983
 72
     1
 10
109.9859384486748
 20
168.5209787012983
 11
125.7859384486748
 21
168.5209787012983
 72
     1
 10
125.7859384486748
 20
168.5209787012983
 11
125.7859384486748
 21
176.5209787012984
 97
        0
 75
     0
 76
     1
 52
0.0
 41
1.0
 77
     0
 78
     4
 53
45.0
 43
0.0
 44
0.0
 45
-13.47038418160373
 46
13.47038418160373
 79
     0
 53
45.0
 43
4.49013
 44
0.0
 45
-13.47038418160373
 46
13.47038418160373
 79
     0
 53
45.0
 43
8.98026
 44
0.0
 45
-13.47038418160373
 46
13.47038418160373
 79
     0
 53
45.0
 43
13.4704
 44
0.0
 45
-13.47038418160373
 46
13.47038418160373
 79
     0
 98
        1
 10
0.0
 20
0.0
  0
HATCH
  5
289
330
1F
100
AcDbEntity
  8
0
  6
Continuous
 62
     7
370
    18
100
AcDbHatch
 10
0.0
 20
0.0
 30
0.0
210
0.0
220
0.0
230
1.0
  2
ANSI34
 70
     0
 71
     0
 91
        1
 92
        0
 93
        8
 72
     1
 10
53.9859384486748
 20
177.5209787012984
 11
59.9859384486748
 21
177.5209787012984
 72
     1
 10
59.9859384486748
 20
177.5209787012984
 11
59.9859384486748
 21
187.5209787012984
 72
     1
 10
59.9859384486748
 20
187.5209787012984
 11
54.3859384486748
 21
187.5209787012984
 72
     1
 10
54.3859384486748
 20
187.5209787012984
 11
54.14119460687252
 21
184.0209787012984
 72
     1
 10
54.14119460687252
 20
184.0209787012984
 11
49.9859384486748
 21
184.0209787012984
 72
     1
 10
49.9859384486748
 20
184.0209787012984
 11
49.9859384486748
 21
174.0209787012983
 72
     1
 10
49.9859384486748
 20
174.0209787012983
 11
53.9859384486748
 21
174.0209787012983
 72
     1
 10
53.9859384486748
 20
174.0209787012983
 11
53.9859384486748
 21
177.5209787012984
 97
        0
 75
     0
 76
     1
 52
0.0
 41
1.0
 77
     0
 78
     4
 53
45.0
 43
0.0
 44
0.0
 45
-13.47038418160373
 46
13.47038418160373
 79
     0
 53
45.0
 43
4.49013
 44
0.0
 45
-13.47038418160373
 46
13.47038418160373
 79
     0
 53
45.0
 43
8.98026
 44
0.0
 45
-13.47038418160373
 46
13.47038418160373
 79
     0
 53
45.0
 43
13.4704
 44
0.0
 45
-13.47038418160373
 46
13.47038418160373
 79
     0
 98
        1
 10
0.0
 20
0.0
  0
HATCH
  5
28A
330
1F
100
AcDbEntity
  8
0
  6
Continuous
 62
     7
370
    18
100
AcDbHatch
 10
0.0
 20
0.0
 30
0.0
210
0.0
220
0.0
230
1.0
  2
ANSI34
 70
     0
 71
     0
 91
        1
 92
        0
 93
        8
 72
     1
 10
119.9859384486748
 20
177.5209787012984
 11
125.9859384486748
 21
177.5209787012984
 72
     1
 10
125.9859384486748
 20
177.5209787012984
 11
125.9859384486748
 21
174.0209787012983
 72
     1
 10
125.9859384486748
 20
174.0209787012983
 11
129.9859384486748
 21
174.0209787012983
 72
     1
 10
129.9859384486748
 20
174.0209787012983
 11
129.9859384486748
 21
184.0209787012984
 72
     1
 10
129.9859384486748
 20
184.0209787012984
 11
125.8306822904771
 21
184.0209787012984
 72
     1
 10
125.8306822904771
 20
184.0209787012984
 11
125.5859384486748
 21
187.5209787012984
 72
     1
 10
125.5859384486748
 20
187.5209787012984
 11
119.9859384486748
 21
187.5209787012984
 72
     1
 10
119.9859384486748
 20
187.5209787012984
 11
119.9859384486748
 21
177.5209787012984
 97
        0
 75
     0
 76
     1
 52
0.0
 41
1.0
 77
     0
 78
     4
 53
45.0
 43
0.0
 44
0.0
 45
-13.47038418160373
 46
13.47038418160373
 79
     0
 53
45.0
 43
4.49013
 44
0.0
 45
-13.47038418160373
 46
13.47038418160373
 79
     0
 53
45.0
 43
8.98026
 44
0.0
 45
-13.47038418160373
 46
13.47038418160373
 79
     0
 53
45.0
 43
13.4704
 44
0.0
 45
-13.47038418160373
 46
13.47038418160373
 79
     0
 98
        1
 10
0.0
 20
0.0
  0
HATCH
  5
28B
330
1F
100
AcDbEntity
  8
0
  6
Continuous
 62
     7
370
    18
100
AcDbHatch
 10
0.0
 20
0.0
 30
0.0
210
0.0
220
0.0
230
1.0
  2
ANSI34
 70
     0
 71
     0
 91
        1
 92
        0
 93
       12
 72
     1
 10
54.98593844867481
 20
243.0209787012983
 11
54.9859384486748
 21
223.5209787012983
 72
     1
 10
54.9859384486748
 20
223.5209787012983
 11
56.48593844867481
 21
223.5209787012983
 72
     1
 10
56.48593844867481
 20
223.5209787012983
 11
56.48593844867482
 21
243.0209787012983
 72
     2
 10
56.48593844867482
 20
246.5209787012983
 40
3.5
 50
270.0000000000008
 51
360.0000000000008
 73
     1
 72
     1
 10
59.98593844867481
 20
246.5209787012983
 11
59.98593844867481
 21
277.5209787012983
 72
     1
 10
59.98593844867481
 20
277.5209787012983
 11
54.18593844867481
 21
277.5209787012983
 72
     1
 10
54.18593844867481
 20
277.5209787012983
 11
53.98593844867481
 21
274.0209787012983
 72
     1
 10
53.98593844867481
 20
274.0209787012983
 11
49.9859384486748
 21
274.0209787012983
 72
     1
 10
49.9859384486748
 20
274.0209787012983
 11
49.98593844867481
 21
249.0209787012983
 72
     1
 10
49.98593844867481
 20
249.0209787012983
 11
53.98593844867481
 21
246.521501293661
 72
     1
 10
53.98593844867481
 20
246.521501293661
 11
53.98593844867481
 21
243.0209787012983
 72
     1
 10
53.98593844867481
 20
243.0209787012983
 11
54.98593844867481
 21
243.0209787012983
 97
        0
 75
     0
 76
     1
 52
0.0
 41
1.0
 77
     0
 78
     4
 53
45.0
 43
0.0
 44
0.0
 45
-13.47038418160373
 46
13.47038418160373
 79
     0
 53
45.0
 43
4.49013
 44
0.0
 45
-13.47038418160373
 46
13.47038418160373
 79
     0
 53
45.0
 43
8.98026
 44
0.0
 45
-13.47038418160373
 46
13.47038418160373
 79
     0
 53
45.0
 43
13.4704
 44
0.0
 45
-13.47038418160373
 46
13.47038418160373
 79
     0
 98
        1
 10
0.0
 20
0.0
  0
HATCH
  5
28C
330
1F
100
AcDbEntity
  8
0
  6
Continuous
 62
     7
370
    18
100
AcDbHatch
 10
0.0
 20
0.0
 30
0.0
210
0.0
220
0.0
230
1.0
  2
ANSI34
 70
     0
 71
     0
 91
        1
 92
        0
 93
       12
 72
     1
 10
124.9859384486748
 20
223.5209787012983
 11
124.9859384486748
 21
243.0209787012983
 72
     1
 10
124.9859384486748
 20
243.0209787012983
 11
125.9859384486748
 21
243.0209787012983
 72
     1
 10
125.9859384486748
 20
243.0209787012983
 11
125.9859384486748
 21
246.521501293661
 72
     1
 10
125.9859384486748
 20
246.521501293661
 11
129.9859384486748
 21
249.0209787012983
 72
     1
 10
129.9859384486748
 20
249.0209787012983
 11
129.9859384486748
 21
274.0209787012983
 72
     1
 10
129.9859384486748
 20
274.0209787012983
 11
125.9859384486748
 21
274.0209787012983
 72
     1
 10
125.9859384486748
 20
274.0209787012983
 11
125.7859384486748
 21
277.5209787012983
 72
     1
 10
125.7859384486748
 20
277.5209787012983
 11
119.9859384486748
 21
277.5209787012983
 72
     1
 10
119.9859384486748
 20
277.5209787012983
 11
119.9859384486748
 21
246.5209787012983
 72
     2
 10
123.4859384486748
 20
246.5209787012983
 40
3.5
 50
180.0
 51
270.0000000000008
 73
     1
 72
     1
 10
123.4859384486748
 20
243.0209787012983
 11
123.4859384486748
 21
223.5209787012983
 72
     1
 10
123.4859384486748
 20
223.5209787012983
 11
124.9859384486748
 21
223.5209787012983
 97
        0
 75
     0
 76
     1
 52
0.0
 41
1.0
 77
     0
 78
     4
 53
45.0
 43
0.0
 44
0.0
 45
-13.47038418160373
 46
13.47038418160373
 79
     0
 53
45.0
 43
4.49013
 44
0.0
 45
-13.47038418160373
 46
13.47038418160373
 79
     0
 53
45.0
 43
8.98026
 44
0.0
 45
-13.47038418160373
 46
13.47038418160373
 79
     0
 53
45.0
 43
13.4704
 44
0.0
 45
-13.47038418160373
 46
13.47038418160373
 79
     0
 98
        1
 10
0.0
 20
0.0
  0
HATCH
  5
28D
330
1F
100
AcDbEntity
  8
0
  6
Continuous
 62
     7
370
    18
100
AcDbHatch
 10
0.0
 20
0.0
 30
0.0
210
0.0
220
0.0
230
1.0
  2
ANSI34
 70
     0
 71
     0
 91
        1
 92
        0
 93
        8
 72
     1
 10
59.9859384486748
 20
188.5209787012983
 11
59.9859384486748
 21
222.5209787012983
 72
     1
 10
59.9859384486748
 20
222.5209787012983
 11
54.18593844867481
 21
222.5209787012983
 72
     1
 10
54.18593844867481
 20
222.5209787012983
 11
53.98593844867481
 21
219.0209787012983
 72
     1
 10
53.98593844867481
 20
219.0209787012983
 11
49.9859384486748
 21
219.0209787012983
 72
     1
 10
49.9859384486748
 20
219.0209787012983
 11
49.9859384486748
 21
185.0209787012983
 72
     1
 10
49.9859384486748
 20
185.0209787012983
 11
53.78593844867481
 21
185.0209787012983
 72
     1
 10
53.78593844867481
 20
185.0209787012983
 11
53.99804560472879
 21
188.5209787012983
 72
     1
 10
53.99804560472879
 20
188.5209787012983
 11
59.9859384486748
 21
188.5209787012983
 97
        0
 75
     0
 76
     1
 52
0.0
 41
1.0
 77
     0
 78
     4
 53
45.0
 43
0.0
 44
0.0
 45
-13.47038418160373
 46
13.47038418160373
 79
     0
 53
45.0
 43
4.49013
 44
0.0
 45
-13.47038418160373
 46
13.47038418160373
 79
     0
 53
45.0
 43
8.98026
 44
0.0
 45
-13.47038418160373
 46
13.47038418160373
 79
     0
 53
45.0
 43
13.4704
 44
0.0
 45
-13.47038418160373
 46
13.47038418160373
 79
     0
 98
        1
 10
0.0
 20
0.0
  0
HATCH
  5
28E
330
1F
100
AcDbEntity
  8
0
  6
Continuous
 62
     7
370
    18
100
AcDbHatch
 10
0.0
 20
0.0
 30
0.0
210
0.0
220
0.0
230
1.0
  2
ANSI34
 70
     0
 71
     0
 91
        1
 92
        0
 93
        8
 72
     1
 10
119.9859384486748
 20
188.5209787012983
 11
125.9738312926208
 21
188.5209787012983
 72
     1
 10
125.9738312926208
 20
188.5209787012983
 11
126.1859384486748
 21
185.0209787012983
 72
     1
 10
126.1859384486748
 20
185.0209787012983
 11
129.9859384486748
 21
185.0209787012983
 72
     1
 10
129.9859384486748
 20
185.0209787012983
 11
129.9859384486748
 21
219.0209787012983
 72
     1
 10
129.9859384486748
 20
219.0209787012983
 11
125.9859384486748
 21
219.0209787012983
 72
     1
 10
125.9859384486748
 20
219.0209787012983
 11
125.7859384486748
 21
222.5209787012983
 72
     1
 10
125.7859384486748
 20
222.5209787012983
 11
119.9859384486748
 21
222.5209787012983
 72
     1
 10
119.9859384486748
 20
222.5209787012983
 11
119.9859384486748
 21
188.5209787012983
 97
        0
 75
     0
 76
     1
 52
0.0
 41
1.0
 77
     0
 78
     4
 53
45.0
 43
0.0
 44
0.0
 45
-13.47038418160373
 46
13.47038418160373
 79
     0
 53
45.0
 43
4.49013
 44
0.0
 45
-13.47038418160373
 46
13.47038418160373
 79
     0
 53
45.0
 43
8.98026
 44
0.0
 45
-13.47038418160373
 46
13.47038418160373
 79
     0
 53
45.0
 43
13.4704
 44
0.0
 45
-13.47038418160373
 46
13.47038418160373
 79
     0
 98
        1
 10
0.0
 20
0.0
  0
HATCH
  5
28F
330
1F
100
AcDbEntity
  8
0
  6
Continuous
 62
     7
370
    18
100
AcDbHatch
 10
0.0
 20
0.0
 30
0.0
210
0.0
220
0.0
230
1.0
  2
DIN 201 Stahl und Stahlguss
 70
     0
 71
     0
 91
        1
 92
        0
 93
        4
 72
     1
 10
112.1359384486748
 20
277.5209787012983
 11
125.5859384486749
 21
277.5209787012983
 72
     1
 10
125.5859384486749
 20
277.5209787012983
 11
125.5859384486749
 21
277.8209787012983
 72
     1
 10
125.5859384486749
 20
277.8209787012983
 11
112.1359384486748
 21
277.8209787012983
 72
     1
 10
112.1359384486748
 20
277.8209787012983
 11
112.1359384486748
 21
277.5209787012983
 97
        0
 75
     0
 76
     2
 52
90.0
 41
1.0
 77
     0
 78
     4
 53
135.0000020971719
 43
0.0
 44
0.0
 45
-13.47038368855324
 46
-13.4703846746542
 79
     0
 53
135.0000020971719
 43
-0.0000000000000157
 44
4.490128
 45
-13.47038368855324
 46
-13.4703846746542
 79
     0
 53
135.0000020971719
 43
-0.0000000000000314
 44
8.980256
 45
-13.47038368855324
 46
-13.4703846746542
 79
     0
 53
135.0000020971719
 43
-0.000000000000047
 44
13.47038
 45
-13.47038368855324
 46
-13.4703846746542
 79
     0
 98
        1
 10
0.0
 20
0.0
  0
HATCH
  5
290
330
1F
100
AcDbEntity
  8
0
  6
Continuous
 62
     7
370
    18
100
AcDbHatch
 10
0.0
 20
0.0
 30
0.0
210
0.0
220
0.0
230
1.0
  2
DIN 201 Stahl und Stahlguss
 70
     0
 71
     0
 91
        1
 92
        0
 93
        4
 72
     1
 10
109.0359384486749
 20
277.8209787012983
 11
70.93593844867475
 21
277.8209787012983
 72
     1
 10
70.93593844867475
 20
277.8209787012983
 11
70.93593844867475
 21
277.5209787012983
 72
     1
 10
70.93593844867475
 20
277.5209787012983
 11
109.0359384486749
 21
277.5209787012983
 72
     1
 10
109.0359384486749
 20
277.5209787012983
 11
109.0359384486749
 21
277.8209787012983
 97
        0
 75
     0
 76
     2
 52
90.0
 41
1.0
 77
     0
 78
     4
 53
135.0000020971719
 43
0.0
 44
0.0
 45
-13.47038368855324
 46
-13.4703846746542
 79
     0
 53
135.0000020971719
 43
-0.0000000000000157
 44
4.490128
 45
-13.47038368855324
 46
-13.4703846746542
 79
     0
 53
135.0000020971719
 43
-0.0000000000000314
 44
8.980256
 45
-13.47038368855324
 46
-13.4703846746542
 79
     0
 53
135.0000020971719
 43
-0.000000000000047
 44
13.47038
 45
-13.47038368855324
 46
-13.4703846746542
 79
     0
 98
        1
 10
0.0
 20
0.0
  0
HATCH
  5
291
330
1F
100
AcDbEntity
  8
0
  6
Continuous
 62
     7
370
    18
100
AcDbHatch
 10
0.0
 20
0.0
 30
0.0
210
0.0
220
0.0
230
1.0
  2
DIN 201 Stahl und Stahlguss
 70
     0
 71
     0
 91
        1
 92
        0
 93
        4
 72
     1
 10
67.83593844867477
 20
277.8209787012983
 11
54.38593844867475
 21
277.8209787012983
 72
     1
 10
54.38593844867475
 20
277.8209787012983
 11
54.38593844867475
 21
277.5209787012983
 72
     1
 10
54.38593844867475
 20
277.5209787012983
 11
67.83593844867477
 21
277.5209787012983
 72
     1
 10
67.83593844867477
 20
277.5209787012983
 11
67.83593844867477
 21
277.8209787012983
 97
        0
 75
     0
 76
     2
 52
90.0
 41
1.0
 77
     0
 78
     4
 53
135.0000020971719
 43
0.0
 44
0.0
 45
-13.47038368855324
 46
-13.4703846746542
 79
     0
 53
135.0000020971719
 43
-0.0000000000000157
 44
4.490128
 45
-13.47038368855324
 46
-13.4703846746542
 79
     0
 53
135.0000020971719
 43
-0.0000000000000314
 44
8.980256
 45
-13.47038368855324
 46
-13.4703846746542
 79
     0
 53
135.0000020971719
 43
-0.000000000000047
 44
13.47038
 45
-13.47038368855324
 46
-13.4703846746542
 79
     0
 98
        1
 10
0.0
 20
0.0
  0
HATCH
  5
292
330
1F
100
AcDbEntity
  8
0
  6
Continuous
 62
     7
370
    18
100
AcDbHatch
 10
0.0
 20
0.0
 30
0.0
210
0.0
220
0.0
230
1.0
  2
DIN 201 Stahl und Stahlguss
 70
     0
 71
     0
 91
        2
 92
        0
 93
        8
 72
     1
 10
87.4859384486748
 20
277.1209787012983
 11
87.4859384486748
 21
272.9209787012983
 72
     2
 10
87.8859384486748
 20
272.9209787012983
 40
0.4
 50
180.0
 51
270.0000000000028
 73
     1
 72
     1
 10
87.88593844867482
 20
272.5209787012983
 11
92.0859384486748
 21
272.5209787012983
 72
     2
 10
92.08593844867481
 20
272.9209787012983
 40
0.4
 50
269.9999999999987
 51
360.0000000000008
 73
     1
 72
     1
 10
92.48593844867482
 20
272.9209787012983
 11
92.48593844867482
 21
277.1209787012983
 72
     2
 10
92.08593844867481
 20
277.1209787012983
 40
0.4
 50
0.0
 51
90.00000000000203
 73
     1
 72
     1
 10
92.0859384486748
 20
277.5209787012983
 11
87.88593844867482
 21
277.5209787012983
 72
     2
 10
87.8859384486748
 20
277.1209787012983
 40
0.4
 50
89.99999999999797
 51
180.0
 73
     1
 97
        0
 92
        0
 93
        8
 72
     2
 10
87.8859384486748
 20
272.9209787012983
 40
0.2000000000000002
 50
89.99999999999594
 51
180.0
 73
     0
 72
     1
 10
87.6859384486748
 20
272.9209787012983
 11
87.6859384486748
 21
277.1209787012983
 72
     2
 10
87.8859384486748
 20
277.1209787012983
 40
0.2
 50
180.0
 51
270.0000000000008
 73
     0
 72
     1
 10
87.8859384486748
 20
277.3209787012983
 11
92.0859384486748
 21
277.3209787012983
 72
     2
 10
92.08593844867481
 20
277.1209787012983
 40
0.2
 50
269.9999999999968
 51
360.0000000000008
 73
     0
 72
     1
 10
92.2859384486748
 20
277.1209787012983
 11
92.2859384486748
 21
272.9209787012983
 72
     2
 10
92.08593844867481
 20
272.9209787012983
 40
0.2000000000000002
 50
0.0
 51
90.0
 73
     0
 72
     1
 10
92.08593844867481
 20
272.7209787012983
 11
87.88593844867482
 21
272.7209787012983
 97
        0
 75
     0
 76
     2
 52
0.0
 41
1.0
 77
     0
 78
     4
 53
45.00000209717174
 43
0.0
 44
0.0
 45
-13.47038467465416
 46
13.47038368855329
 79
     0
 53
45.00000209717174
 43
4.490128
 44
0.0
 45
-13.47038467465416
 46
13.47038368855329
 79
     0
 53
45.00000209717174
 43
8.980256
 44
0.0
 45
-13.47038467465416
 46
13.47038368855329
 79
     0
 53
45.00000209717174
 43
13.47038
 44
0.0
 45
-13.47038467465416
 46
13.47038368855329
 79
     0
 98
        1
 10
0.0
 20
0.0
  0
INSERT
  5
298
330
1F
100
AcDbEntity
  8
O-TEKST
100
AcDbBlockReference
  2
SW_NOTE_1
 10
69.2239605675
 20
146.2050756677
 30
0.0
  0
LINE
  5
299
330
1F
100
AcDbEntity
  8
0
  6
Continuous
 62
     7
370
    25
100
AcDbLine
 10
54.3859378288
 20
408.4885145067
 30
0.0
 11
54.3859378288
 21
408.7885166048
 31
0.0
  0
LINE
  5
29A
330
1F
100
AcDbEntity
  8
0
  6
Continuous
 62
     7
370
    25
100
AcDbLine
 10
56.3859389017
 20
408.7885166048
 30
0.0
 11
54.3859378288
 21
408.7885166048
 31
0.0
  0
LINE
  5
29B
330
1F
100
AcDbEntity
  8
0
  6
Continuous
 62
     7
370
    25
100
AcDbLine
 10
125.5859390686
 20
408.4885145067
 30
0.0
 11
125.5859390686
 21
408.7885166048
 31
0.0
  0
LINE
  5
29C
330
1F
100
AcDbEntity
  8
0
  6
Continuous
 62
     7
370
    25
100
AcDbLine
 10
125.5859390686
 20
408.7885166048
 30
0.0
 11
123.5859379957
 21
408.7885166048
 31
0.0
  0
LINE
  5
29D
330
1F
100
AcDbEntity
  8
0
  6
Continuous
 62
     7
370
    25
100
AcDbLine
 10
123.5859379957
 20
408.7885166048
 30
0.0
 11
56.3859389017
 21
408.7885166048
 31
0.0
  0
LINE
  5
29E
330
1F
100
AcDbEntity
  8
0
  6
Continuous
 62
     7
370
    25
100
AcDbLine
 10
73.9859388063
 20
328.9885098575
 30
0.0
 11
73.9859388063
 21
315.9885118245
 31
0.0
  0
LINE
  5
29F
330
1F
100
AcDbEntity
  8
0
  6
Continuous
 62
     7
370
    25
100
AcDbLine
 10
129.9859390447
 20
349.988510692
 30
0.0
 11
129.9859390447
 21
315.9885118245
 31
0.0
  0
LINE
  5
2A0
330
1F
100
AcDbEntity
  8
0
  6
Continuous
 62
     7
370
    25
100
AcDbLine
 10
105.985938091
 20
315.9885118245
 30
0.0
 11
129.9859390447
 21
315.9885118245
 31
0.0
  0
LINE
  5
2A1
330
1F
100
AcDbEntity
  8
0
  6
Continuous
 62
     7
370
    25
100
AcDbLine
 10
105.985938091
 20
315.9885118245
 30
0.0
 11
105.985938091
 21
328.9885098575
 31
0.0
  0
ARC
  5
2A2
330
1F
100
AcDbEntity
  8
0
  6
Continuous
 62
     7
370
    25
100
AcDbCircle
 10
89.9859384487
 20
328.9885111688
 30
0.0
 40
16.0
100
AcDbArc
 50
0.0
 51
180.0
  0
LINE
  5
2A3
330
1F
100
AcDbEntity
  8
0
  6
Continuous
 62
     7
370
    25
100
AcDbLine
 10
49.9859378526
 20
315.9885118245
 30
0.0
 11
73.9859388063
 21
315.9885118245
 31
0.0
  0
LINE
  5
2A4
330
1F
100
AcDbEntity
  8
0
  6
Continuous
 62
     7
370
    25
100
AcDbLine
 10
49.9859378526
 20
349.988510692
 30
0.0
 11
129.9859390447
 21
349.988510692
 31
0.0
  0
LINE
  5
2A5
330
1F
100
AcDbEntity
  8
0
  6
Continuous
 62
     7
370
    25
100
AcDbLine
 10
49.9859378526
 20
349.988510692
 30
0.0
 11
49.9859378526
 21
315.9885118245
 31
0.0
  0
CIRCLE
  5
2A6
330
1F
100
AcDbEntity
  8
0
  6
Continuous
 62
     7
370
    25
100
AcDbCircle
 10
109.9859384487
 20
344.9885111688
 30
0.0
 40
2.0
  0
CIRCLE
  5
2A7
330
1F
100
AcDbEntity
  8
0
  6
Continuous
 62
     7
370
    25
100
AcDbCircle
 10
69.9859384487
 20
344.9885111688
 30
0.0
 40
2.0
  0
LINE
  5
2A8
330
1F
100
AcDbEntity
  8
0
  6
Continuous
 62
     7
370
    25
100
AcDbLine
 10
76.4854163716
 20
328.9885098575
 30
0.0
 11
76.4854163716
 21
319.2887301086
 31
0.0
  0
LINE
  5
2A9
330
1F
100
AcDbEntity
  8
0
  6
Continuous
 62
     7
370
    25
100
AcDbLine
 10
76.4854163716
 20
319.2887301086
 30
0.0
 11
76.3604418228
 21
315.9885118245
 31
0.0
  0
LINE
  5
2AA
330
1F
100
AcDbEntity
  8
0
  6
Continuous
 62
     7
370
    25
100
AcDbLine
 10
73.9859388063
 20
315.9885118245
 30
0.0
 11
76.3604418228
 21
315.9885118245
 31
0.0
  0
LINE
  5
2AB
330
1F
100
AcDbEntity
  8
0
  6
Continuous
 62
     7
370
    25
100
AcDbLine
 10
103.6114350746
 20
315.9885118245
 30
0.0
 11
103.4864605258
 21
319.2887301086
 31
0.0
  0
LINE
  5
2AC
330
1F
100
AcDbEntity
  8
0
  6
Continuous
 62
     7
370
    25
100
AcDbLine
 10
103.4864605258
 20
319.2887301086
 30
0.0
 11
103.4864605258
 21
328.9885098575
 31
0.0
  0
LINE
  5
2AD
330
1F
100
AcDbEntity
  8
0
  6
Continuous
 62
     7
370
    25
100
AcDbLine
 10
103.6114350746
 20
315.9885118245
 30
0.0
 11
105.985938091
 21
315.9885118245
 31
0.0
  0
ARC
  5
2AE
330
1F
100
AcDbEntity
  8
0
  6
Continuous
 62
     7
370
    25
100
AcDbCircle
 10
89.9859384487
 20
328.9885111688
 30
0.0
 40
13.5005225923627
100
AcDbArc
 50
0.0
 51
180.0
  0
LINE
  5
2AF
330
1F
100
AcDbEntity
  8
0
  6
Continuous
 62
     7
370
    25
100
AcDbLine
 10
125.9287969062
 20
350.9885097383
 30
0.0
 11
125.9859398792
 21
349.988510692
 31
0.0
  0
LINE
  5
2B0
330
1F
100
AcDbEntity
  8
0
  6
Continuous
 62
     7
370
    25
100
AcDbLine
 10
120.516763706
 20
353.4885133146
 30
0.0
 11
93.4551128039
 21
353.4885133146
 31
0.0
  0
LINE
  5
2B1
330
1F
100
AcDbEntity
  8
0
  6
Continuous
 62
     7
370
    25
100
AcDbLine
 10
86.5167640934
 20
353.4885133146
 30
0.0
 11
59.4551131914
 21
353.4885133146
 31
0.0
  0
LINE
  5
2B2
330
1F
100
AcDbEntity
  8
0
  6
Continuous
 62
     7
370
    25
100
AcDbLine
 10
54.0430799911
 20
350.9885097383
 30
0.0
 11
53.9859370182
 21
349.988510692
 31
0.0
  0
ARC
  5
2B3
330
1F
100
AcDbEntity
  8
0
  6
Continuous
 62
     7
370
    25
100
AcDbCircle
 10
89.9859384487
 20
328.9885111688
 30
0.0
 40
9.999999999999984
100
AcDbArc
 50
300.6638297424
 51
239.3361702576
  0
LINE
  5
2B4
330
1F
100
AcDbEntity
  8
0
  6
Continuous
 62
     7
370
    25
100
AcDbLine
 10
95.0859383533
 20
319.2887301086
 30
0.0
 11
95.0859383533
 21
320.3867668747
 31
0.0
  0
LINE
  5
2B5
330
1F
100
AcDbEntity
  8
0
  6
Continuous
 62
     7
370
    25
100
AcDbLine
 10
84.885938544
 20
320.3867668747
 30
0.0
 11
84.885938544
 21
319.2887301086
 31
0.0
  0
LINE
  5
2B6
330
1F
100
AcDbEntity
  8
0
  6
Continuous
 62
     7
370
    25
100
AcDbLine
 10
95.0859383533
 20
319.2887301086
 30
0.0
 11
103.4864605258
 21
319.2887301086
 31
0.0
  0
LINE
  5
2B7
330
1F
100
AcDbEntity
  8
0
  6
Continuous
 62
     7
370
    25
100
AcDbLine
 10
76.4854163716
 20
319.2887301086
 30
0.0
 11
84.885938544
 21
319.2887301086
 31
0.0
  0
LINE
  5
2B8
330
1F
100
AcDbEntity
  8
0
  6
Continuous
 62
     7
370
    25
100
AcDbLine
 10
84.885938544
 20
319.4885114669
 30
0.0
 11
95.0859383533
 21
319.4885114669
 31
0.0
  0
CIRCLE
  5
2B9
330
1F
100
AcDbEntity
  8
0
  6
Continuous
 62
     7
370
    25
100
AcDbCircle
 10
69.9859384487
 20
344.9885111688
 30
0.0
 40
0.5
  0
CIRCLE
  5
2BA
330
1F
100
AcDbEntity
  8
0
  6
Continuous
 62
     7
370
    25
100
AcDbCircle
 10
109.9859384487
 20
344.9885111688
 30
0.0
 40
0.5
  0
LINE
  5
2BB
330
1F
100
AcDbEntity
  8
0
  6
Continuous
 62
     7
370
    25
100
AcDbLine
 10
49.9859378526
 20
350.9885097383
 30
0.0
 11
56.9859371374
 21
350.9885097383
 31
0.0
  0
LINE
  5
2BC
330
1F
100
AcDbEntity
  8
0
  6
Continuous
 62
     7
370
    25
100
AcDbLine
 10
49.9859378526
 20
404.9885059236
 30
0.0
 11
49.9859378526
 21
350.9885097383
 31
0.0
  0
LINE
  5
2BD
330
1F
100
AcDbEntity
  8
0
  6
Continuous
 62
     7
370
    25
100
AcDbLine
 10
122.98593976
 20
363.9885092615
 30
0.0
 11
122.98593976
 21
350.9885097383
 31
0.0
  0
ARC
  5
2BE
330
1F
100
AcDbEntity
  8
0
  6
Continuous
 62
     7
370
    25
100
AcDbCircle
 10
106.9859384487
 20
363.9885111688
 30
0.0
 40
16.00000000000001
100
AcDbArc
 50
0.0
 51
180.0
  0
LINE
  5
2BF
330
1F
100
AcDbEntity
  8
0
  6
Continuous
 62
     7
370
    25
100
AcDbLine
 10
90.9859384263
 20
350.9885097383
 30
0.0
 11
90.9859384263
 21
363.9885092615
 31
0.0
  0
LINE
  5
2C0
330
1F
100
AcDbEntity
  8
0
  6
Continuous
 62
     7
370
    25
100
AcDbLine
 10
88.985938471
 20
350.9885097383
 30
0.0
 11
90.9859384263
 21
350.9885097383
 31
0.0
  0
LINE
  5
2C1
330
1F
100
AcDbEntity
  8
0
  6
Continuous
 62
     7
370
    25
100
AcDbLine
 10
88.985938471
 20
363.9885092615
 30
0.0
 11
88.985938471
 21
350.9885097383
 31
0.0
  0
ARC
  5
2C2
330
1F
100
AcDbEntity
  8
0
  6
Continuous
 62
     7
370
    25
100
AcDbCircle
 10
72.9859384487
 20
363.9885111688
 30
0.0
 40
16.0
100
AcDbArc
 50
0.0
 51
180.0
  0
LINE
  5
2C3
330
1F
100
AcDbEntity
  8
0
  6
Continuous
 62
     7
370
    25
100
AcDbLine
 10
56.9859371374
 20
350.9885097383
 30
0.0
 11
56.9859371374
 21
363.9885092615
 31
0.0
  0
LINE
  5
2C4
330
1F
100
AcDbEntity
  8
0
  6
Continuous
 62
     7
370
    25
100
AcDbLine
 10
49.9859378526
 20
404.9885059236
 30
0.0
 11
129.9859390447
 21
404.9885059236
 31
0.0
  0
LINE
  5
2C5
330
1F
100
AcDbEntity
  8
0
  6
Continuous
 62
     7
370
    25
100
AcDbLine
 10
122.98593976
 20
350.9885097383
 30
0.0
 11
129.9859390447
 21
350.9885097383
 31
0.0
  0
LINE
  5
2C6
330
1F
100
AcDbEntity
  8
0
  6
Continuous
 62
     7
370
    25
100
AcDbLine
 10
129.9859390447
 20
404.9885059236
 30
0.0
 11
129.9859390447
 21
350.9885097383
 31
0.0
  0
LINE
  5
2C7
330
1F
100
AcDbEntity
  8
0
  6
Continuous
 62
     7
370
    25
100
AcDbLine
 10
88.985938471
 20
350.9885097383
 30
0.0
 11
86.6114348958
 21
350.9885097383
 31
0.0
  0
LINE
  5
2C8
330
1F
100
AcDbEntity
  8
0
  6
Continuous
 62
     7
370
    25
100
AcDbLine
 10
86.486461092
 20
354.2887295126
 30
0.0
 11
86.6114348958
 21
350.9885097383
 31
0.0
  0
LINE
  5
2C9
330
1F
100
AcDbEntity
  8
0
  6
Continuous
 62
     7
370
    25
100
AcDbLine
 10
86.486461092
 20
363.9885092615
 30
0.0
 11
86.486461092
 21
354.2887295126
 31
0.0
  0
LINE
  5
2CA
330
1F
100
AcDbEntity
  8
0
  6
Continuous
 62
     7
370
    25
100
AcDbLine
 10
59.4854161928
 20
354.2887295126
 30
0.0
 11
59.4854161928
 21
363.9885092615
 31
0.0
  0
LINE
  5
2CB
330
1F
100
AcDbEntity
  8
0
  6
Continuous
 62
     7
370
    25
100
AcDbLine
 10
59.3604431341
 20
350.9885097383
 30
0.0
 11
59.4854161928
 21
354.2887295126
 31
0.0
  0
LINE
  5
2CC
330
1F
100
AcDbEntity
  8
0
  6
Continuous
 62
     7
370
    25
100
AcDbLine
 10
59.3604431341
 20
350.9885097383
 30
0.0
 11
56.9859371374
 21
350.9885097383
 31
0.0
  0
ARC
  5
2CD
330
1F
100
AcDbEntity
  8
0
  6
Continuous
 62
     7
370
    25
100
AcDbCircle
 10
72.9859384487
 20
363.9885111688
 30
0.0
 40
13.50052259236269
100
AcDbArc
 50
0.0
 51
180.0
  0
LINE
  5
2CE
330
1F
100
AcDbEntity
  8
0
  6
Continuous
 62
     7
370
    25
100
AcDbLine
 10
93.4854158053
 20
354.2887295126
 30
0.0
 11
93.4854158053
 21
363.9885092615
 31
0.0
  0
LINE
  5
2CF
330
1F
100
AcDbEntity
  8
0
  6
Continuous
 62
     7
370
    25
100
AcDbLine
 10
93.3604420016
 20
350.9885097383
 30
0.0
 11
93.4854158053
 21
354.2887295126
 31
0.0
  0
LINE
  5
2D0
330
1F
100
AcDbEntity
  8
0
  6
Continuous
 62
     7
370
    25
100
AcDbLine
 10
93.3604420016
 20
350.9885097383
 30
0.0
 11
90.9859384263
 21
350.9885097383
 31
0.0
  0
LINE
  5
2D1
330
1F
100
AcDbEntity
  8
0
  6
Continuous
 62
     7
370
    25
100
AcDbLine
 10
120.4864607046
 20
354.2887295126
 30
0.0
 11
120.6114337633
 21
350.9885097383
 31
0.0
  0
LINE
  5
2D2
330
1F
100
AcDbEntity
  8
0
  6
Continuous
 62
     7
370
    25
100
AcDbLine
 10
120.4864607046
 20
363.9885092615
 30
0.0
 11
120.4864607046
 21
354.2887295126
 31
0.0
  0
LINE
  5
2D3
330
1F
100
AcDbEntity
  8
0
  6
Continuous
 62
     7
370
    25
100
AcDbLine
 10
122.98593976
 20
350.9885097383
 30
0.0
 11
120.6114337633
 21
350.9885097383
 31
0.0
  0
ARC
  5
2D4
330
1F
100
AcDbEntity
  8
0
  6
Continuous
 62
     7
370
    25
100
AcDbCircle
 10
106.9859384487
 20
363.9885111688
 30
0.0
 40
13.5005225923627
100
AcDbArc
 50
0.0
 51
180.0
  0
LINE
  5
2D5
330
1F
100
AcDbEntity
  8
0
  6
Continuous
 62
     7
370
    25
100
AcDbLine
 10
67.8859383652
 20
354.2887295126
 30
0.0
 11
67.8859383652
 21
355.3867662786
 31
0.0
  0
LINE
  5
2D6
330
1F
100
AcDbEntity
  8
0
  6
Continuous
 62
     7
370
    25
100
AcDbLine
 10
78.0859381745
 20
355.3867662786
 30
0.0
 11
78.0859381745
 21
354.2887295126
 31
0.0
  0
ARC
  5
2D7
330
1F
100
AcDbEntity
  8
0
  6
Continuous
 62
     7
370
    25
100
AcDbCircle
 10
72.9859384487
 20
363.9885111688
 30
0.0
 40
9.999999999999984
100
AcDbArc
 50
300.6638297424
 51
239.3361702576
  0
LINE
  5
2D8
330
1F
100
AcDbEntity
  8
0
  6
Continuous
 62
     7
370
    25
100
AcDbLine
 10
78.0859381745
 20
354.2887295126
 30
0.0
 11
86.486461092
 21
354.2887295126
 31
0.0
  0
LINE
  5
2D9
330
1F
100
AcDbEntity
  8
0
  6
Continuous
 62
     7
370
    25
100
AcDbLine
 10
59.4854161928
 20
354.2887295126
 30
0.0
 11
67.8859383652
 21
354.2887295126
 31
0.0
  0
LINE
  5
2DA
330
1F
100
AcDbEntity
  8
0
  6
Continuous
 62
     7
370
    25
100
AcDbLine
 10
112.0859385321
 20
355.3867662786
 30
0.0
 11
112.0859385321
 21
354.2887295126
 31
0.0
  0
ARC
  5
2DB
330
1F
100
AcDbEntity
  8
0
  6
Continuous
 62
     7
370
    25
100
AcDbCircle
 10
106.9859384487
 20
363.9885111688
 30
0.0
 40
9.999999999999975
100
AcDbArc
 50
300.6638297424
 51
239.3361702576
  0
LINE
  5
2DC
330
1F
100
AcDbEntity
  8
0
  6
Continuous
 62
     7
370
    25
100
AcDbLine
 10
101.8859387229
 20
354.2887295126
 30
0.0
 11
101.8859387229
 21
355.3867662786
 31
0.0
  0
LINE
  5
2DD
330
1F
100
AcDbEntity
  8
0
  6
Continuous
 62
     7
370
    25
100
AcDbLine
 10
93.4854158053
 20
354.2887295126
 30
0.0
 11
101.8859387229
 21
354.2887295126
 31
0.0
  0
LINE
  5
2DE
330
1F
100
AcDbEntity
  8
0
  6
Continuous
 62
     7
370
    25
100
AcDbLine
 10
112.0859385321
 20
354.2887295126
 30
0.0
 11
120.4864607046
 21
354.2887295126
 31
0.0
  0
LINE
  5
2DF
330
1F
100
AcDbEntity
  8
0
  6
Continuous
 62
     7
370
    25
100
AcDbLine
 10
125.7859394739
 20
408.4885145067
 30
0.0
 11
54.1859374235
 21
408.4885145067
 31
0.0
  0
LINE
  5
2E0
330
1F
100
AcDbEntity
  8
0
  6
Continuous
 62
     7
370
    25
100
AcDbLine
 10
54.1859374235
 20
408.4885145067
 30
0.0
 11
53.9859370182
 21
404.9885059236
 31
0.0
  0
LINE
  5
2E1
330
1F
100
AcDbEntity
  8
0
  6
Continuous
 62
     7
370
    25
100
AcDbLine
 10
125.9859398792
 20
404.9885059236
 30
0.0
 11
125.7859394739
 21
408.4885145067
 31
0.0
  0
LINE
  5
2E2
330
1F
100
AcDbEntity
  8
0
  6
Continuous
 62
     7
370
    25
100
AcDbLine
 10
67.8859383652
 20
354.4885123609
 30
0.0
 11
78.0859381745
 21
354.4885123609
 31
0.0
  0
LINE
  5
2E3
330
1F
100
AcDbEntity
  8
0
  6
Continuous
 62
     7
370
    25
100
AcDbLine
 10
101.8859387229
 20
354.4885123609
 30
0.0
 11
112.0859385321
 21
354.4885123609
 31
0.0
  0
LINE
  5
2E4
330
1F
100
AcDbEntity
  8
0
  6
Continuous
 62
     7
370
    25
100
AcDbLine
 10
49.9859378526
 20
304.988511139
 30
0.0
 11
49.9859378526
 21
314.988511288
 31
0.0
  0
LINE
  5
2E5
330
1F
100
AcDbEntity
  8
0
  6
Continuous
 62
     7
370
    25
100
AcDbLine
 10
49.9859378526
 20
304.988511139
 30
0.0
 11
129.9859390447
 21
304.988511139
 31
0.0
  0
LINE
  5
2E6
330
1F
100
AcDbEntity
  8
0
  6
Continuous
 62
     7
370
    25
100
AcDbLine
 10
129.9859390447
 20
304.988511139
 30
0.0
 11
129.9859390447
 21
314.988511288
 31
0.0
  0
LINE
  5
2E7
330
1F
100
AcDbEntity
  8
0
  6
Continuous
 62
     7
370
    25
100
AcDbLine
 10
129.9859390447
 20
314.988511288
 30
0.0
 11
49.9859378526
 21
314.988511288
 31
0.0
  0
LINE
  5
2E8
330
1F
100
AcDbEntity
  8
0
  6
Continuous
 62
     7
370
    25
100
AcDbLine
 10
76.4551133702
 20
318.4885109304
 30
0.0
 11
103.5167635272
 21
318.4885109304
 31
0.0
  0
LINE
  5
2E9
330
1F
100
AcDbEntity
  8
0
  6
Continuous
 62
     7
370
    25
100
AcDbLine
 10
125.8306817005
 20
314.988511288
 30
0.0
 11
125.7607565115
 21
315.9885118245
 31
0.0
  0
LINE
  5
2EA
330
1F
100
AcDbEntity
  8
0
  6
Continuous
 62
     7
370
    25
100
AcDbLine
 10
54.1411951969
 20
314.988511288
 30
0.0
 11
54.2111203859
 21
315.9885118245
 31
0.0
  0
LINE
  5
2EB
330
1F
100
AcDbEntity
  8
0
  6
Continuous
 62
     7
370
    25
100
AcDbLine
 10
129.9859390447
 20
299.4885111688
 30
0.0
 11
129.9859390447
 21
303.9885113476
 31
0.0
  0
LINE
  5
2EC
330
1F
100
AcDbEntity
  8
0
  6
Continuous
 62
     7
370
    25
100
AcDbLine
 10
94.9859385232
 20
299.4885111688
 30
0.0
 11
129.9859390447
 21
299.4885111688
 31
0.0
  0
LINE
  5
2ED
330
1F
100
AcDbEntity
  8
0
  6
Continuous
 62
     7
370
    25
100
AcDbLine
 10
94.9859385232
 20
299.4885111688
 30
0.0
 11
94.9859385232
 21
303.9885113476
 31
0.0
  0
LINE
  5
2EE
330
1F
100
AcDbEntity
  8
0
  6
Continuous
 62
     7
370
    25
100
AcDbLine
 10
94.9859385232
 20
303.9885113476
 30
0.0
 11
129.9859390447
 21
303.9885113476
 31
0.0
  0
LINE
  5
2EF
330
1F
100
AcDbEntity
  8
0
  6
Continuous
 62
     7
370
    25
100
AcDbLine
 10
84.9859383742
 20
299.4885111688
 30
0.0
 11
84.9859383742
 21
303.9885113476
 31
0.0
  0
LINE
  5
2F0
330
1F
100
AcDbEntity
  8
0
  6
Continuous
 62
     7
370
    25
100
AcDbLine
 10
49.9859378526
 20
303.9885113476
 30
0.0
 11
49.9859378526
 21
299.4885111688
 31
0.0
  0
LINE
  5
2F1
330
1F
100
AcDbEntity
  8
0
  6
Continuous
 62
     7
370
    25
100
AcDbLine
 10
49.9859378526
 20
303.9885113476
 30
0.0
 11
84.9859383742
 21
303.9885113476
 31
0.0
  0
LINE
  5
2F2
330
1F
100
AcDbEntity
  8
0
  6
Continuous
 62
     7
370
    25
100
AcDbLine
 10
49.9859378526
 20
299.4885111688
 30
0.0
 11
84.9859383742
 21
299.4885111688
 31
0.0
  0
LINE
  5
2F3
330
1F
100
AcDbEntity
  8
0
  6
Continuous
 62
     7
370
    25
100
AcDbLine
 10
125.7859394739
 20
303.9885113476
 30
0.0
 11
125.7859394739
 21
304.988511139
 31
0.0
  0
LINE
  5
2F4
330
1F
100
AcDbEntity
  8
0
  6
Continuous
 62
     7
370
    25
100
AcDbLine
 10
54.1859374235
 20
303.9885113476
 30
0.0
 11
54.1859374235
 21
304.988511139
 31
0.0
  0
LINE
  5
2F5
330
1F
100
AcDbEntity
  8
0
  6
Continuous
 62
     7
370
    25
100
AcDbLine
 10
94.9859385232
 20
299.4885111688
 30
0.0
 11
84.9859383742
 21
299.4885111688
 31
0.0
  0
LINE
  5
2F6
330
1F
100
AcDbEntity
  8
0
  6
PHANTOM
 62
     8
370
    18
100
AcDbLine
 10
56.3859389017
 20
408.4885145067
 30
0.0
 11
56.3859389017
 21
408.7885166048
 31
0.0
  0
LINE
  5
2F7
330
1F
100
AcDbEntity
  8
0
  6
PHANTOM
 62
     8
370
    18
100
AcDbLine
 10
123.5859379957
 20
408.4885145067
 30
0.0
 11
123.5859379957
 21
408.7885166048
 31
0.0
  0
LINE
  5
2F8
330
1F
100
AcDbEntity
  8
0
  6
PHANTOM
 62
     8
370
    18
100
AcDbLine
 10
76.4854163716
 20
328.9885098575
 30
0.0
 11
73.9859388063
 21
328.9885098575
 31
0.0
  0
LINE
  5
2F9
330
1F
100
AcDbEntity
  8
0
  6
PHANTOM
 62
     8
370
    18
100
AcDbLine
 10
103.4864605258
 20
328.9885098575
 30
0.0
 11
105.985938091
 21
328.9885098575
 31
0.0
  0
LINE
  5
2FA
330
1F
100
AcDbEntity
  8
0
  6
PHANTOM
 62
     8
370
    18
100
AcDbLine
 10
86.486461092
 20
363.9885092615
 30
0.0
 11
88.985938471
 21
363.9885092615
 31
0.0
  0
LINE
  5
2FB
330
1F
100
AcDbEntity
  8
0
  6
PHANTOM
 62
     8
370
    18
100
AcDbLine
 10
59.4854161928
 20
363.9885092615
 30
0.0
 11
56.9859371374
 21
363.9885092615
 31
0.0
  0
LINE
  5
2FC
330
1F
100
AcDbEntity
  8
0
  6
PHANTOM
 62
     8
370
    18
100
AcDbLine
 10
93.4854158053
 20
363.9885092615
 30
0.0
 11
90.9859384263
 21
363.9885092615
 31
0.0
  0
LINE
  5
2FD
330
1F
100
AcDbEntity
  8
0
  6
PHANTOM
 62
     8
370
    18
100
AcDbLine
 10
120.4864607046
 20
363.9885092615
 30
0.0
 11
122.98593976
 21
363.9885092615
 31
0.0
  0
LINE
  5
2FE
330
1F
100
AcDbEntity
  8
0
  6
Continuous
 62
     7
370
    25
100
AcDbLine
 10
488.6385391891
 20
107.2904598407
 30
0.0
 11
488.9385412872
 21
107.2904598407
 31
0.0
  0
LINE
  5
2FF
330
1F
100
AcDbEntity
  8
0
  6
Continuous
 62
     7
370
    25
100
AcDbLine
 10
488.9385412872
 20
105.2904587678
 30
0.0
 11
488.9385412872
 21
107.2904598407
 31
0.0
  0
LINE
  5
300
330
1F
100
AcDbEntity
  8
0
  6
Continuous
 62
     7
370
    25
100
AcDbLine
 10
488.6385391891
 20
36.0904586009
 30
0.0
 11
488.9385412872
 21
36.0904586009
 31
0.0
  0
LINE
  5
301
330
1F
100
AcDbEntity
  8
0
  6
Continuous
 62
     7
370
    25
100
AcDbLine
 10
488.9385412872
 20
36.0904586009
 30
0.0
 11
488.9385412872
 21
38.0904596738
 31
0.0
  0
LINE
  5
302
330
1F
100
AcDbEntity
  8
0
  6
Continuous
 62
     7
370
    25
100
AcDbLine
 10
488.9385412872
 20
38.0904596738
 30
0.0
 11
488.9385412872
 21
105.2904587678
 31
0.0
  0
LINE
  5
303
330
1F
100
AcDbEntity
  8
0
  6
Continuous
 62
     7
370
    25
100
AcDbLine
 10
396.1385365069
 20
75.0649627737
 30
0.0
 11
399.4387547911
 21
75.1899365775
 31
0.0
  0
LINE
  5
304
330
1F
100
AcDbEntity
  8
0
  6
Continuous
 62
     7
370
    25
100
AcDbLine
 10
399.4387547911
 20
75.1899365775
 30
0.0
 11
409.13853454
 21
75.1899365775
 31
0.0
  0
LINE
  5
305
330
1F
100
AcDbEntity
  8
0
  6
Continuous
 62
     7
370
    25
100
AcDbLine
 10
396.1385365069
 20
72.6904591984
 30
0.0
 11
409.13853454
 21
72.6904591984
 31
0.0
  0
LINE
  5
306
330
1F
100
AcDbEntity
  8
0
  6
Continuous
 62
     7
370
    25
100
AcDbLine
 10
396.1385365069
 20
75.0649627737
 30
0.0
 11
396.1385365069
 21
72.6904591984
 31
0.0
  0
LINE
  5
307
330
1F
100
AcDbEntity
  8
0
  6
Continuous
 62
     7
370
    25
100
AcDbLine
 10
409.13853454
 20
70.6904592431
 30
0.0
 11
396.1385365069
 21
70.6904592431
 31
0.0
  0
LINE
  5
308
330
1F
100
AcDbEntity
  8
0
  6
Continuous
 62
     7
370
    25
100
AcDbLine
 10
409.13853454
 20
68.1909818641
 30
0.0
 11
399.4387547911
 21
68.1909818641
 31
0.0
  0
LINE
  5
309
330
1F
100
AcDbEntity
  8
0
  6
Continuous
 62
     7
370
    25
100
AcDbLine
 10
399.4387547911
 20
68.1909818641
 30
0.0
 11
396.1385365069
 21
68.3159556679
 31
0.0
  0
LINE
  5
30A
330
1F
100
AcDbEntity
  8
0
  6
Continuous
 62
     7
370
    25
100
AcDbLine
 10
396.1385365069
 20
70.6904592431
 30
0.0
 11
396.1385365069
 21
68.3159556679
 31
0.0
  0
ARC
  5
30B
330
1F
100
AcDbEntity
  8
0
  6
Continuous
 62
     7
370
    25
100
AcDbCircle
 10
409.1385358513
 20
88.6904592208
 30
0.0
 40
16.00000000000001
100
AcDbArc
 50
270.0
 51
90.0
  0
LINE
  5
30C
330
1F
100
AcDbEntity
  8
0
  6
Continuous
 62
     7
370
    25
100
AcDbLine
 10
409.13853454
 20
104.6904605321
 30
0.0
 11
396.1385365069
 21
104.6904605321
 31
0.0
  0
LINE
  5
30D
330
1F
100
AcDbEntity
  8
0
  6
Continuous
 62
     7
370
    25
100
AcDbLine
 10
430.1385353744
 20
111.6904598168
 30
0.0
 11
396.1385365069
 21
111.6904598168
 31
0.0
  0
LINE
  5
30E
330
1F
100
AcDbEntity
  8
0
  6
Continuous
 62
     7
370
    25
100
AcDbLine
 10
430.1385353744
 20
111.6904598168
 30
0.0
 11
430.1385353744
 21
31.6904586247
 31
0.0
  0
LINE
  5
30F
330
1F
100
AcDbEntity
  8
0
  6
Continuous
 62
     7
370
    25
100
AcDbLine
 10
430.1385353744
 20
31.6904586247
 30
0.0
 11
396.1385365069
 21
31.6904586247
 31
0.0
  0
LINE
  5
310
330
1F
100
AcDbEntity
  8
0
  6
Continuous
 62
     7
370
    25
100
AcDbLine
 10
396.1385365069
 20
38.6904579095
 30
0.0
 11
396.1385365069
 21
31.6904586247
 31
0.0
  0
LINE
  5
311
330
1F
100
AcDbEntity
  8
0
  6
Continuous
 62
     7
370
    25
100
AcDbLine
 10
396.1385365069
 20
38.6904579095
 30
0.0
 11
409.13853454
 21
38.6904579095
 31
0.0
  0
ARC
  5
312
330
1F
100
AcDbEntity
  8
0
  6
Continuous
 62
     7
370
    25
100
AcDbCircle
 10
409.1385358513
 20
54.6904592208
 30
0.0
 40
16.00000000000001
100
AcDbArc
 50
270.0
 51
90.0
  0
LINE
  5
313
330
1F
100
AcDbEntity
  8
0
  6
Continuous
 62
     7
370
    25
100
AcDbLine
 10
396.1385365069
 20
72.6904591984
 30
0.0
 11
396.1385365069
 21
70.6904592431
 31
0.0
  0
LINE
  5
314
330
1F
100
AcDbEntity
  8
0
  6
Continuous
 62
     7
370
    25
100
AcDbLine
 10
396.1385365069
 20
111.6904598168
 30
0.0
 11
396.1385365069
 21
104.6904605321
 31
0.0
  0
LINE
  5
315
330
1F
100
AcDbEntity
  8
0
  6
Continuous
 62
     7
370
    25
100
AcDbLine
 10
396.1385365069
 20
41.0649639062
 30
0.0
 11
399.4387547911
 21
41.1899369649
 31
0.0
  0
LINE
  5
316
330
1F
100
AcDbEntity
  8
0
  6
Continuous
 62
     7
370
    25
100
AcDbLine
 10
399.4387547911
 20
41.1899369649
 30
0.0
 11
409.13853454
 21
41.1899369649
 31
0.0
  0
LINE
  5
317
330
1F
100
AcDbEntity
  8
0
  6
Continuous
 62
     7
370
    25
100
AcDbLine
 10
396.1385365069
 20
41.0649639062
 30
0.0
 11
396.1385365069
 21
38.6904579095
 31
0.0
  0
LINE
  5
318
330
1F
100
AcDbEntity
  8
0
  6
Continuous
 62
     7
370
    25
100
AcDbLine
 10
409.13853454
 20
102.1909814767
 30
0.0
 11
399.4387547911
 21
102.1909814767
 31
0.0
  0
LINE
  5
319
330
1F
100
AcDbEntity
  8
0
  6
Continuous
 62
     7
370
    25
100
AcDbLine
 10
399.4387547911
 20
102.1909814767
 30
0.0
 11
396.1385365069
 21
102.3159545354
 31
0.0
  0
LINE
  5
31A
330
1F
100
AcDbEntity
  8
0
  6
Continuous
 62
     7
370
    25
100
AcDbLine
 10
396.1385365069
 20
104.6904605321
 30
0.0
 11
396.1385365069
 21
102.3159545354
 31
0.0
  0
ARC
  5
31B
330
1F
100
AcDbEntity
  8
0
  6
Continuous
 62
     7
370
    25
100
AcDbCircle
 10
409.1385358513
 20
54.6904592208
 30
0.0
 40
13.50052259236268
100
AcDbArc
 50
270.0
 51
90.0
  0
ARC
  5
31C
330
1F
100
AcDbEntity
  8
0
  6
Continuous
 62
     7
370
    25
100
AcDbCircle
 10
409.1385358513
 20
88.6904592208
 30
0.0
 40
13.50052259236269
100
AcDbArc
 50
270.0
 51
90.0
  0
ARC
  5
31D
330
1F
100
AcDbEntity
  8
0
  6
Continuous
 62
     7
370
    25
100
AcDbCircle
 10
409.1385358513
 20
54.6904592208
 30
0.0
 40
10.00000000000003
100
AcDbArc
 50
210.6638297424
 51
149.3361702576
  0
LINE
  5
31E
330
1F
100
AcDbEntity
  8
0
  6
Continuous
 62
     7
370
    25
100
AcDbLine
 10
400.5367915571
 20
59.7904589466
 30
0.0
 11
399.4387547911
 21
59.7904589466
 31
0.0
  0
LINE
  5
31F
330
1F
100
AcDbEntity
  8
0
  6
Continuous
 62
     7
370
    25
100
AcDbLine
 10
399.4387547911
 20
49.5904591373
 30
0.0
 11
400.5367915571
 21
49.5904591373
 31
0.0
  0
LINE
  5
320
330
1F
100
AcDbEntity
  8
0
  6
Continuous
 62
     7
370
    25
100
AcDbLine
 10
399.4387547911
 20
68.1909818641
 30
0.0
 11
399.4387547911
 21
59.7904589466
 31
0.0
  0
LINE
  5
321
330
1F
100
AcDbEntity
  8
0
  6
Continuous
 62
     7
370
    25
100
AcDbLine
 10
399.4387547911
 20
49.5904591373
 30
0.0
 11
399.4387547911
 21
41.1899369649
 31
0.0
  0
ARC
  5
322
330
1F
100
AcDbEntity
  8
0
  6
Continuous
 62
     7
370
    25
100
AcDbCircle
 10
409.1385358513
 20
88.6904592208
 30
0.0
 40
10.00000000000003
100
AcDbArc
 50
210.6638297424
 51
149.3361702576
  0
LINE
  5
323
330
1F
100
AcDbEntity
  8
0
  6
Continuous
 62
     7
370
    25
100
AcDbLine
 10
399.4387547911
 20
83.590459495
 30
0.0
 11
400.5367915571
 21
83.590459495
 31
0.0
  0
LINE
  5
324
330
1F
100
AcDbEntity
  8
0
  6
Continuous
 62
     7
370
    25
100
AcDbLine
 10
400.5367915571
 20
93.7904593042
 30
0.0
 11
399.4387547911
 21
93.7904593042
 31
0.0
  0
LINE
  5
325
330
1F
100
AcDbEntity
  8
0
  6
Continuous
 62
     7
370
    25
100
AcDbLine
 10
399.4387547911
 20
83.590459495
 30
0.0
 11
399.4387547911
 21
75.1899365775
 31
0.0
  0
LINE
  5
326
330
1F
100
AcDbEntity
  8
0
  6
Continuous
 62
     7
370
    25
100
AcDbLine
 10
399.4387547911
 20
102.1909814767
 30
0.0
 11
399.4387547911
 21
93.7904593042
 31
0.0
  0
LINE
  5
327
330
1F
100
AcDbEntity
  8
0
  6
Continuous
 62
     7
370
    25
100
AcDbLine
 10
433.638537997
 20
85.2212842993
 30
0.0
 11
433.638537997
 21
58.1596341423
 31
0.0
  0
LINE
  5
328
330
1F
100
AcDbEntity
  8
0
  6
Continuous
 62
     7
370
    25
100
AcDbLine
 10
431.1385344208
 20
35.7476007632
 30
0.0
 11
430.1385353744
 21
35.6904577903
 31
0.0
  0
LINE
  5
329
330
1F
100
AcDbEntity
  8
0
  6
Continuous
 62
     7
370
    25
100
AcDbLine
 10
430.1385353744
 20
107.6904606513
 30
0.0
 11
431.1385344208
 21
107.6333176783
 31
0.0
  0
LINE
  5
32A
330
1F
100
AcDbEntity
  8
0
  6
Continuous
 62
     7
370
    25
100
AcDbLine
 10
399.6385361493
 20
93.7904593042
 30
0.0
 11
399.6385361493
 21
83.590459495
 31
0.0
  0
LINE
  5
32B
330
1F
100
AcDbEntity
  8
0
  6
Continuous
 62
     7
370
    25
100
AcDbLine
 10
399.6385361493
 20
59.7904589466
 30
0.0
 11
399.6385361493
 21
49.5904591373
 31
0.0
  0
LINE
  5
32C
330
1F
100
AcDbEntity
  8
0
  6
Continuous
 62
     7
370
    25
100
AcDbLine
 10
444.1385339439
 20
87.6904588632
 30
0.0
 11
431.1385344208
 21
87.6904588632
 31
0.0
  0
LINE
  5
32D
330
1F
100
AcDbEntity
  8
0
  6
Continuous
 62
     7
370
    25
100
AcDbLine
 10
485.1385306061
 20
111.6904598168
 30
0.0
 11
431.1385344208
 21
111.6904598168
 31
0.0
  0
LINE
  5
32E
330
1F
100
AcDbEntity
  8
0
  6
Continuous
 62
     7
370
    25
100
AcDbLine
 10
485.1385306061
 20
111.6904598168
 30
0.0
 11
485.1385306061
 21
31.6904586247
 31
0.0
  0
LINE
  5
32F
330
1F
100
AcDbEntity
  8
0
  6
Continuous
 62
     7
370
    25
100
AcDbLine
 10
485.1385306061
 20
31.6904586247
 30
0.0
 11
431.1385344208
 21
31.6904586247
 31
0.0
  0
LINE
  5
330
330
1F
100
AcDbEntity
  8
0
  6
Continuous
 62
     7
370
    25
100
AcDbLine
 10
431.1385344208
 20
55.6904595784
 30
0.0
 11
431.1385344208
 21
31.6904586247
 31
0.0
  0
LINE
  5
331
330
1F
100
AcDbEntity
  8
0
  6
Continuous
 62
     7
370
    25
100
AcDbLine
 10
431.1385344208
 20
55.6904595784
 30
0.0
 11
444.1385339439
 21
55.6904595784
 31
0.0
  0
ARC
  5
332
330
1F
100
AcDbEntity
  8
0
  6
Continuous
 62
     7
370
    25
100
AcDbCircle
 10
444.1385358513
 20
71.6904592208
 30
0.0
 40
16.00000000000001
100
AcDbArc
 50
270.0
 51
90.0
  0
LINE
  5
333
330
1F
100
AcDbEntity
  8
0
  6
Continuous
 62
     7
370
    25
100
AcDbLine
 10
431.1385344208
 20
111.6904598168
 30
0.0
 11
431.1385344208
 21
87.6904588632
 31
0.0
  0
CIRCLE
  5
334
330
1F
100
AcDbEntity
  8
0
  6
Continuous
 62
     7
370
    25
100
AcDbCircle
 10
480.1385358513
 20
91.6904592208
 30
0.0
 40
2.0
  0
CIRCLE
  5
335
330
1F
100
AcDbEntity
  8
0
  6
Continuous
 62
     7
370
    25
100
AcDbCircle
 10
480.1385358513
 20
51.6904592208
 30
0.0
 40
1.999999999999993
  0
LINE
  5
336
330
1F
100
AcDbEntity
  8
0
  6
Continuous
 62
     7
370
    25
100
AcDbLine
 10
431.1385344208
 20
58.0649625949
 30
0.0
 11
434.438754195
 21
58.1899371437
 31
0.0
  0
LINE
  5
337
330
1F
100
AcDbEntity
  8
0
  6
Continuous
 62
     7
370
    25
100
AcDbLine
 10
434.438754195
 20
58.1899371437
 30
0.0
 11
444.1385339439
 21
58.1899371437
 31
0.0
  0
LINE
  5
338
330
1F
100
AcDbEntity
  8
0
  6
Continuous
 62
     7
370
    25
100
AcDbLine
 10
431.1385344208
 20
58.0649625949
 30
0.0
 11
431.1385344208
 21
55.6904595784
 31
0.0
  0
LINE
  5
339
330
1F
100
AcDbEntity
  8
0
  6
Continuous
 62
     7
370
    25
100
AcDbLine
 10
444.1385339439
 20
85.1909812979
 30
0.0
 11
434.438754195
 21
85.1909812979
 31
0.0
  0
LINE
  5
33A
330
1F
100
AcDbEntity
  8
0
  6
Continuous
 62
     7
370
    25
100
AcDbLine
 10
434.438754195
 20
85.1909812979
 30
0.0
 11
431.1385344208
 21
85.3159558467
 31
0.0
  0
LINE
  5
33B
330
1F
100
AcDbEntity
  8
0
  6
Continuous
 62
     7
370
    25
100
AcDbLine
 10
431.1385344208
 20
87.6904588632
 30
0.0
 11
431.1385344208
 21
85.3159558467
 31
0.0
  0
ARC
  5
33C
330
1F
100
AcDbEntity
  8
0
  6
Continuous
 62
     7
370
    25
100
AcDbCircle
 10
444.1385358513
 20
71.6904592208
 30
0.0
 40
13.50052259236269
100
AcDbArc
 50
270.0
 51
90.0
  0
ARC
  5
33D
330
1F
100
AcDbEntity
  8
0
  6
Continuous
 62
     7
370
    25
100
AcDbCircle
 10
444.1385358513
 20
71.6904592208
 30
0.0
 40
9.999999999999975
100
AcDbArc
 50
210.6638297424
 51
149.3361702576
  0
LINE
  5
33E
330
1F
100
AcDbEntity
  8
0
  6
Continuous
 62
     7
370
    25
100
AcDbLine
 10
435.5367909611
 20
76.7904591254
 30
0.0
 11
434.438754195
 21
76.7904591254
 31
0.0
  0
LINE
  5
33F
330
1F
100
AcDbEntity
  8
0
  6
Continuous
 62
     7
370
    25
100
AcDbLine
 10
434.438754195
 20
66.5904593161
 30
0.0
 11
435.5367909611
 21
66.5904593161
 31
0.0
  0
LINE
  5
340
330
1F
100
AcDbEntity
  8
0
  6
Continuous
 62
     7
370
    25
100
AcDbLine
 10
434.438754195
 20
66.5904593161
 30
0.0
 11
434.438754195
 21
58.1899371437
 31
0.0
  0
LINE
  5
341
330
1F
100
AcDbEntity
  8
0
  6
Continuous
 62
     7
370
    25
100
AcDbLine
 10
434.438754195
 20
85.1909812979
 30
0.0
 11
434.438754195
 21
76.7904591254
 31
0.0
  0
LINE
  5
342
330
1F
100
AcDbEntity
  8
0
  6
Continuous
 62
     7
370
    25
100
AcDbLine
 10
488.6385391891
 20
35.8904581956
 30
0.0
 11
485.1385306061
 21
35.6904577903
 31
0.0
  0
LINE
  5
343
330
1F
100
AcDbEntity
  8
0
  6
Continuous
 62
     7
370
    25
100
AcDbLine
 10
488.6385391891
 20
107.490460246
 30
0.0
 11
485.1385306061
 21
107.6904606513
 31
0.0
  0
LINE
  5
344
330
1F
100
AcDbEntity
  8
0
  6
Continuous
 62
     7
370
    25
100
AcDbLine
 10
488.6385391891
 20
35.8904581956
 30
0.0
 11
488.6385391891
 21
107.490460246
 31
0.0
  0
LINE
  5
345
330
1F
100
AcDbEntity
  8
0
  6
Continuous
 62
     7
370
    25
100
AcDbLine
 10
434.6385370434
 20
76.7904591254
 30
0.0
 11
434.6385370434
 21
66.5904593161
 31
0.0
  0
CIRCLE
  5
346
330
1F
100
AcDbEntity
  8
0
  6
Continuous
 62
     7
370
    25
100
AcDbCircle
 10
480.1385358513
 20
91.6904592208
 30
0.0
 40
0.5
  0
CIRCLE
  5
347
330
1F
100
AcDbEntity
  8
0
  6
Continuous
 62
     7
370
    25
100
AcDbCircle
 10
480.1385358513
 20
51.6904592208
 30
0.0
 40
0.5
  0
LINE
  5
348
330
1F
100
AcDbEntity
  8
0
  6
Continuous
 62
     7
370
    25
100
AcDbLine
 10
395.1385359705
 20
31.6904586247
 30
0.0
 11
395.1385359705
 21
111.6904598168
 31
0.0
  0
LINE
  5
349
330
1F
100
AcDbEntity
  8
0
  6
Continuous
 62
     7
370
    25
100
AcDbLine
 10
385.1385358215
 20
111.6904598168
 30
0.0
 11
385.1385358215
 21
31.6904586247
 31
0.0
  0
LINE
  5
34A
330
1F
100
AcDbEntity
  8
0
  6
Continuous
 62
     7
370
    25
100
AcDbLine
 10
385.1385358215
 20
111.6904598168
 30
0.0
 11
395.1385359705
 21
111.6904598168
 31
0.0
  0
LINE
  5
34B
330
1F
100
AcDbEntity
  8
0
  6
Continuous
 62
     7
370
    25
100
AcDbLine
 10
385.1385358215
 20
31.6904586247
 30
0.0
 11
395.1385359705
 21
31.6904586247
 31
0.0
  0
LINE
  5
34C
330
1F
100
AcDbEntity
  8
0
  6
Continuous
 62
     7
370
    25
100
AcDbLine
 10
398.6385356129
 20
102.2212844781
 30
0.0
 11
398.6385356129
 21
75.159633576
 31
0.0
  0
LINE
  5
34D
330
1F
100
AcDbEntity
  8
0
  6
Continuous
 62
     7
370
    25
100
AcDbLine
 10
398.6385356129
 20
68.2212848655
 30
0.0
 11
398.6385356129
 21
41.1596339635
 31
0.0
  0
LINE
  5
34E
330
1F
100
AcDbEntity
  8
0
  6
Continuous
 62
     7
370
    25
100
AcDbLine
 10
395.1385359705
 20
35.845715969
 30
0.0
 11
396.1385365069
 21
35.915641158
 31
0.0
  0
LINE
  5
34F
330
1F
100
AcDbEntity
  8
0
  6
Continuous
 62
     7
370
    25
100
AcDbLine
 10
395.1385359705
 20
107.5352024726
 30
0.0
 11
396.1385365069
 21
107.4652772836
 31
0.0
  0
LINE
  5
350
330
1F
100
AcDbEntity
  8
0
  6
Continuous
 62
     7
370
    25
100
AcDbLine
 10
384.1385360301
 20
31.6904586247
 30
0.0
 11
384.1385360301
 21
48.6904588035
 31
0.0
  0
LINE
  5
351
330
1F
100
AcDbEntity
  8
0
  6
Continuous
 62
     7
370
    25
100
AcDbLine
 10
384.1385360301
 20
31.6904586247
 30
0.0
 11
379.6385358513
 21
31.6904586247
 31
0.0
  0
LINE
  5
352
330
1F
100
AcDbEntity
  8
0
  6
Continuous
 62
     7
370
    25
100
AcDbLine
 10
379.6385358513
 20
48.6904588035
 30
0.0
 11
379.6385358513
 21
31.6904586247
 31
0.0
  0
LINE
  5
353
330
1F
100
AcDbEntity
  8
0
  6
Continuous
 62
     7
370
    25
100
AcDbLine
 10
379.6385358513
 20
48.6904588035
 30
0.0
 11
384.1385360301
 21
48.6904588035
 31
0.0
  0
LINE
  5
354
330
1F
100
AcDbEntity
  8
0
  6
Continuous
 62
     7
370
    25
100
AcDbLine
 10
379.6385358513
 20
111.6904598168
 30
0.0
 11
379.6385358513
 21
94.690459638
 31
0.0
  0
LINE
  5
355
330
1F
100
AcDbEntity
  8
0
  6
Continuous
 62
     7
370
    25
100
AcDbLine
 10
384.1385360301
 20
111.6904598168
 30
0.0
 11
379.6385358513
 21
111.6904598168
 31
0.0
  0
LINE
  5
356
330
1F
100
AcDbEntity
  8
0
  6
Continuous
 62
     7
370
    25
100
AcDbLine
 10
384.1385360301
 20
94.690459638
 30
0.0
 11
384.1385360301
 21
111.6904598168
 31
0.0
  0
LINE
  5
357
330
1F
100
AcDbEntity
  8
0
  6
Continuous
 62
     7
370
    25
100
AcDbLine
 10
379.6385358513
 20
94.690459638
 30
0.0
 11
384.1385360301
 21
94.690459638
 31
0.0
  0
LINE
  5
358
330
1F
100
AcDbEntity
  8
0
  6
Continuous
 62
     7
370
    25
100
AcDbLine
 10
384.1385360301
 20
35.8904581956
 30
0.0
 11
385.1385358215
 21
35.8904581956
 31
0.0
  0
LINE
  5
359
330
1F
100
AcDbEntity
  8
0
  6
Continuous
 62
     7
370
    25
100
AcDbLine
 10
384.1385360301
 20
107.490460246
 30
0.0
 11
385.1385358215
 21
107.490460246
 31
0.0
  0
LINE
  5
35A
330
1F
100
AcDbEntity
  8
0
  6
Continuous
 62
     7
370
    25
100
AcDbLine
 10
379.6385358513
 20
48.6904588035
 30
0.0
 11
379.6385358513
 21
94.690459638
 31
0.0
  0
LINE
  5
35B
330
1F
100
AcDbEntity
  8
0
  6
PHANTOM
 62
     8
370
    18
100
AcDbLine
 10
488.6385391891
 20
105.2904587678
 30
0.0
 11
488.9385412872
 21
105.2904587678
 31
0.0
  0
LINE
  5
35C
330
1F
100
AcDbEntity
  8
0
  6
PHANTOM
 62
     8
370
    18
100
AcDbLine
 10
488.6385391891
 20
38.0904596738
 30
0.0
 11
488.9385412872
 21
38.0904596738
 31
0.0
  0
LINE
  5
35D
330
1F
100
AcDbEntity
  8
0
  6
PHANTOM
 62
     8
370
    18
100
AcDbLine
 10
409.13853454
 20
75.1899365775
 30
0.0
 11
409.13853454
 21
72.6904591984
 31
0.0
  0
LINE
  5
35E
330
1F
100
AcDbEntity
  8
0
  6
PHANTOM
 62
     8
370
    18
100
AcDbLine
 10
409.13853454
 20
68.1909818641
 30
0.0
 11
409.13853454
 21
70.6904592431
 31
0.0
  0
LINE
  5
35F
330
1F
100
AcDbEntity
  8
0
  6
PHANTOM
 62
     8
370
    18
100
AcDbLine
 10
409.13853454
 20
41.1899369649
 30
0.0
 11
409.13853454
 21
38.6904579095
 31
0.0
  0
LINE
  5
360
330
1F
100
AcDbEntity
  8
0
  6
PHANTOM
 62
     8
370
    18
100
AcDbLine
 10
409.13853454
 20
102.1909814767
 30
0.0
 11
409.13853454
 21
104.6904605321
 31
0.0
  0
LINE
  5
361
330
1F
100
AcDbEntity
  8
0
  6
PHANTOM
 62
     8
370
    18
100
AcDbLine
 10
444.1385339439
 20
58.1899371437
 30
0.0
 11
444.1385339439
 21
55.6904595784
 31
0.0
  0
LINE
  5
362
330
1F
100
AcDbEntity
  8
0
  6
PHANTOM
 62
     8
370
    18
100
AcDbLine
 10
444.1385339439
 20
85.1909812979
 30
0.0
 11
444.1385339439
 21
87.6904588632
 31
0.0
  0
LINE
  5
363
330
1F
100
AcDbEntity
  8
0
  6
Continuous
 62
     7
370
    25
100
AcDbLine
 10
305.6498530379
 20
302.7756796774
 30
0.0
 11
305.6498530379
 21
303.0206436342
 31
0.0
  0
LINE
  5
364
330
1F
100
AcDbEntity
  8
0
  6
Continuous
 62
     7
370
    25
100
AcDbLine
 10
206.6147056936
 20
303.0206436342
 30
0.0
 11
206.6147056936
 21
302.7756796774
 31
0.0
  0
LINE
  5
365
330
1F
100
AcDbEntity
  8
0
  6
Continuous
 62
     7
370
    25
100
AcDbLine
 10
242.2401228118
 20
226.0000672652
 30
0.0
 11
242.3108346869
 21
226.0408883618
 31
0.0
  0
LINE
  5
366
330
1F
100
AcDbEntity
  8
0
  6
Continuous
 62
     7
370
    25
100
AcDbLine
 10
241.8108750722
 20
226.9069375027
 30
0.0
 11
241.7401631971
 21
226.8661164062
 31
0.0
  0
LINE
  5
367
330
1F
100
AcDbEntity
  8
0
  6
Continuous
 62
     7
370
    25
100
AcDbLine
 10
242.4139469518
 20
226.2909015633
 30
0.0
 11
242.4462904434
 21
226.3605705713
 31
0.0
  0
LINE
  5
368
330
1F
100
AcDbEntity
  8
0
  6
Continuous
 62
     7
370
    25
100
AcDbLine
 10
242.1554519005
 20
226.8643736729
 30
0.0
 11
242.0789448338
 21
226.8712030877
 31
0.0
  0
SPLINE
  5
369
330
1F
100
AcDbEntity
  8
0
  6
Continuous
 62
     7
370
    25
100
AcDbSpline
210
0.0
220
0.0
230
1.0
 70
     8
 71
     3
 72
     9
 73
     5
 74
     0
 42
0.000000001
 43
0.00000001
 40
0.0
 40
0.0
 40
0.0
 40
0.0
 40
0.399550382511509
 40
1.0
 40
1.0
 40
1.0
 40
1.0
 10
242.1623566079737
 20
226.8688267348873
 30
0.0
 10
242.1604241213095
 20
226.8675886696157
 30
0.0
 10
242.155587468039
 20
226.8644900234231
 30
0.0
 10
242.1552664110795
 20
226.8647174079508
 30
0.0
 10
242.1550736325511
 20
226.8648539409034
 30
0.0
  0
LINE
  5
36A
330
1F
100
AcDbEntity
  8
0
  6
Continuous
 62
     7
370
    25
100
AcDbLine
 10
242.4534785884
 20
226.3651519817
 30
0.0
 11
242.8606403257
 21
226.6002014496
 31
0.0
  0
LINE
  5
36B
330
1F
100
AcDbEntity
  8
0
  6
Continuous
 62
     7
370
    25
100
AcDbLine
 10
242.5695046476
 20
227.1029667697
 30
0.0
 11
242.1630151525
 21
226.868305379
 31
0.0
  0
LINE
  5
36C
330
1F
100
AcDbEntity
  8
0
  6
Continuous
 62
     7
370
    25
100
AcDbLine
 10
213.9558521966
 20
242.3282291367
 30
0.0
 11
214.0265640717
 21
242.3690502333
 31
0.0
  0
LINE
  5
36D
330
1F
100
AcDbEntity
  8
0
  6
Continuous
 62
     7
370
    25
100
AcDbLine
 10
213.5266044569
 20
243.2350993742
 30
0.0
 11
213.4558925818
 21
243.1942782777
 31
0.0
  0
LINE
  5
36E
330
1F
100
AcDbEntity
  8
0
  6
Continuous
 62
     7
370
    25
100
AcDbLine
 10
214.1296763365
 20
242.6190634348
 30
0.0
 11
214.1620198281
 21
242.6887324428
 31
0.0
  0
LINE
  5
36F
330
1F
100
AcDbEntity
  8
0
  6
Continuous
 62
     7
370
    25
100
AcDbLine
 10
213.8711802316
 20
243.1925361526
 30
0.0
 11
213.7946742185
 21
243.1993649592
 31
0.0
  0
SPLINE
  5
370
330
1F
100
AcDbEntity
  8
0
  6
Continuous
 62
     7
370
    25
100
AcDbSpline
210
0.0
220
0.0
230
1.0
 70
     8
 71
     3
 72
     9
 73
     5
 74
     0
 42
0.000000001
 43
0.00000001
 40
0.0
 40
0.0
 40
0.0
 40
0.0
 40
0.399550382511509
 40
1.0
 40
1.0
 40
1.0
 40
1.0
 10
213.8780849390435
 20
243.1969892146501
 30
0.0
 10
213.8761524523792
 20
243.1957511493786
 30
0.0
 10
213.8713157991087
 20
243.1926525031859
 30
0.0
 10
213.8709947421493
 20
243.1928798877136
 30
0.0
 10
213.8708019636208
 20
243.1930164206663
 30
0.0
  0
LINE
  5
371
330
1F
100
AcDbEntity
  8
0
  6
Continuous
 62
     7
370
    25
100
AcDbLine
 10
214.1692069194
 20
242.6933144615
 30
0.0
 11
214.5763686568
 21
242.9283639293
 31
0.0
  0
LINE
  5
372
330
1F
100
AcDbEntity
  8
0
  6
Continuous
 62
     7
370
    25
100
AcDbLine
 10
214.2852329787
 20
243.4311292494
 30
0.0
 11
213.8787434836
 21
243.1964678588
 31
0.0
  0
LINE
  5
373
330
1F
100
AcDbEntity
  8
0
  6
Continuous
 62
     7
370
    25
100
AcDbLine
 10
270.5243955344
 20
271.7758644668
 30
0.0
 11
270.4536836593
 21
271.8166855633
 31
0.0
  0
LINE
  5
374
330
1F
100
AcDbEntity
  8
0
  6
Continuous
 62
     7
370
    25
100
AcDbLine
 10
269.9537240446
 20
270.9506291219
 30
0.0
 11
270.0244359197
 21
270.9098080253
 31
0.0
  0
LINE
  5
375
330
1F
100
AcDbEntity
  8
0
  6
Continuous
 62
     7
370
    25
100
AcDbLine
 10
270.1856138977
 20
271.7809511483
 30
0.0
 11
270.109106831
 21
271.7741193
 31
0.0
  0
LINE
  5
376
330
1F
100
AcDbEntity
  8
0
  6
Continuous
 62
     7
370
    25
100
AcDbLine
 10
269.8182682882
 20
271.2703137649
 30
0.0
 11
269.8506117797
 21
271.2006447569
 31
0.0
  0
SPLINE
  5
377
330
1F
100
AcDbEntity
  8
0
  6
Continuous
 62
     7
370
    25
100
AcDbSpline
210
0.0
220
0.0
230
1.0
 70
     8
 71
     3
 72
     9
 73
     5
 74
     0
 42
0.000000001
 43
0.00000001
 40
0.0
 40
0.0
 40
0.0
 40
0.0
 40
0.894330810845926
 40
1.0
 40
1.0
 40
1.0
 40
1.0
 10
270.1117768338411
 20
271.7742778034917
 30
0.0
 10
270.1086645872291
 20
271.7748313798727
 30
0.0
 10
270.1051846147465
 20
271.7754503637814
 30
0.0
 10
270.1023384977018
 20
271.777750102447
 30
0.0
 10
270.1020377508215
 20
271.7779931139671
 30
0.0
  0
SPLINE
  5
378
330
1F
100
AcDbEntity
  8
0
  6
Continuous
 62
     7
370
    25
100
AcDbSpline
210
0.0
220
0.0
230
1.0
 70
     8
 71
     3
 72
     9
 73
     5
 74
     0
 42
0.000000001
 43
0.00000001
 40
0.0
 40
0.0
 40
0.0
 40
0.0
 40
0.3263188588557228
 40
1.0
 40
1.0
 40
1.0
 40
1.0
 10
269.8111475780977
 20
271.2740751578418
 30
0.0
 10
269.8127445551467
 20
271.2733077566611
 30
0.0
 10
269.8176384710375
 20
271.2709560654858
 30
0.0
 10
269.8179618950882
 20
271.2700541655049
 30
0.0
 10
269.8181797797719
 20
271.2694465724965
 30
0.0
  0
LINE
  5
379
330
1F
100
AcDbEntity
  8
0
  6
Continuous
 62
     7
370
    25
100
AcDbLine
 10
270.101543579
 20
271.7780485727
 30
0.0
 11
269.6950540839
 21
272.0127099633
 31
0.0
  0
LINE
  5
37A
330
1F
100
AcDbEntity
  8
0
  6
Continuous
 62
     7
370
    25
100
AcDbLine
 10
269.4039184058
 20
271.5099470767
 30
0.0
 11
269.8110801431
 21
271.2748976089
 31
0.0
  0
LINE
  5
37B
330
1F
100
AcDbEntity
  8
0
  6
Continuous
 62
     7
370
    25
100
AcDbLine
 10
298.8086661497
 20
288.1040263382
 30
0.0
 11
298.7379542746
 21
288.1448474348
 31
0.0
  0
LINE
  5
37C
330
1F
100
AcDbEntity
  8
0
  6
Continuous
 62
     7
370
    25
100
AcDbLine
 10
298.2379946598
 20
287.2787909934
 30
0.0
 11
298.3087065349
 21
287.2379698968
 31
0.0
  0
LINE
  5
37D
330
1F
100
AcDbEntity
  8
0
  6
Continuous
 62
     7
370
    25
100
AcDbLine
 10
298.469884513
 20
288.1091130198
 30
0.0
 11
298.3933784999
 21
288.1022817797
 31
0.0
  0
LINE
  5
37E
330
1F
100
AcDbEntity
  8
0
  6
Continuous
 62
     7
370
    25
100
AcDbLine
 10
298.1025389034
 20
287.5984756364
 30
0.0
 11
298.134882395
 21
287.5288066284
 31
0.0
  0
SPLINE
  5
37F
330
1F
100
AcDbEntity
  8
0
  6
Continuous
 62
     7
370
    25
100
AcDbSpline
210
0.0
220
0.0
230
1.0
 70
     8
 71
     3
 72
     9
 73
     5
 74
     0
 42
0.000000001
 43
0.00000001
 40
0.0
 40
0.0
 40
0.0
 40
0.0
 40
0.8943241689850883
 40
1.0
 40
1.0
 40
1.0
 40
1.0
 10
298.3960474491005
 20
288.102439674983
 30
0.0
 10
298.3929337939947
 20
288.1029925503699
 30
0.0
 10
298.3894522207422
 20
288.1036107550502
 30
0.0
 10
298.386609795411
 20
288.1059123687857
 30
0.0
 10
298.386309419752
 20
288.1061555937297
 30
0.0
  0
SPLINE
  5
380
330
1F
100
AcDbEntity
  8
0
  6
Continuous
 62
     7
370
    25
100
AcDbSpline
210
0.0
220
0.0
230
1.0
 70
     8
 71
     3
 72
     9
 73
     5
 74
     0
 42
0.000000001
 43
0.00000001
 40
0.0
 40
0.0
 40
0.0
 40
0.0
 40
0.326311510855176
 40
1.0
 40
1.0
 40
1.0
 40
1.0
 10
298.0954181933571
 20
287.602237029333
 30
0.0
 10
298.097015605439
 20
287.6014698789882
 30
0.0
 10
298.1019109647161
 20
287.5991189035573
 30
0.0
 10
298.1022332650238
 20
287.5982164300209
 30
0.0
 10
298.1024503950312
 20
287.5976084439877
 30
0.0
  0
LINE
  5
381
330
1F
100
AcDbEntity
  8
0
  6
Continuous
 62
     7
370
    25
100
AcDbLine
 10
298.385815248
 20
288.1062110524
 30
0.0
 11
297.9793257528
 21
288.3408724431
 31
0.0
  0
LINE
  5
382
330
1F
100
AcDbEntity
  8
0
  6
Continuous
 62
     7
370
    25
100
AcDbLine
 10
297.6881900747
 20
287.8381095564
 30
0.0
 11
298.0953518121
 21
287.6030600886
 31
0.0
  0
ARC
  5
383
330
1F
100
AcDbEntity
  8
0
  6
Continuous
 62
     7
370
    25
100
AcDbCircle
 10
256.1322793658
 20
277.2436494966
 30
0.0
 40
3.061858478703372
100
AcDbArc
 50
242.4914468753
 51
297.5085531247
  0
ARC
  5
384
330
1F
100
AcDbEntity
  8
0
  6
Continuous
 62
     7
370
    25
100
AcDbCircle
 10
256.1322793658
 20
277.4886134533
 30
0.0
 40
3.061858478703624
100
AcDbArc
 50
242.4914468753
 51
297.5085531247
  0
LINE
  5
385
330
1F
100
AcDbEntity
  8
0
  6
Continuous
 62
     7
370
    25
100
AcDbLine
 10
241.1769709948
 20
312.062363434
 30
0.0
 11
241.4778447022
 21
311.8886727398
 31
0.0
  0
LWPOLYLINE
  5
386
330
1F
100
AcDbEntity
  8
0
  6
Continuous
 62
     7
370
    25
100
AcDbPolyline
 90
       12
 70
   128
 43
0.0
 10
240.4698642294
 20
311.6541593872
 10
240.3845778753
 20
311.7199292883
 10
240.3348441331
 20
311.7969057734
 10
240.3246910067
 20
311.8788533473
 10
240.3549425986
 20
311.9591321951
 10
240.4231469503
 20
312.0312392487
 10
240.5237787414
 20
312.0893327451
 10
240.6486853557
 20
312.1287062793
 10
240.7877474665
 20
312.1461701516
 10
240.929700209
 20
312.1403088765
 10
241.06304184
 20
312.1115981982
 10
241.1769709948
 20
312.062363434
  0
LINE
  5
387
330
1F
100
AcDbEntity
  8
0
  6
Continuous
 62
     7
370
    25
100
AcDbLine
 10
240.7707379368
 20
311.480468693
 30
0.0
 11
240.4698642294
 21
311.6541593872
 31
0.0
  0
LWPOLYLINE
  5
388
330
1F
100
AcDbEntity
  8
0
  6
Continuous
 62
     7
370
    25
100
AcDbPolyline
 90
        9
 70
   128
 43
0.0
 10
241.6539146107
 20
310.9706216516
 10
241.4751559967
 20
310.9707961494
 10
241.3009267531
 20
310.9938809822
 10
241.139926615
 20
311.0387232282
 10
241.0001942046
 20
311.1030839354
 10
240.8887061097
 20
311.1837497389
 10
240.8110286447
 20
311.2766931403
 10
240.7710402088
 20
311.3772735417
 10
240.7707379368
 20
311.480468693
  0
LINE
  5
389
330
1F
100
AcDbEntity
  8
0
  6
Continuous
 62
     7
370
    25
100
AcDbLine
 10
241.9547883181
 20
310.7969309574
 30
0.0
 11
241.6539146107
 21
310.9706216516
 31
0.0
  0
LWPOLYLINE
  5
38A
330
1F
100
AcDbEntity
  8
0
  6
Continuous
 62
     7
370
    25
100
AcDbPolyline
 90
       12
 70
   128
 43
0.0
 10
242.6618950835
 20
311.2051350042
 10
242.7471814376
 20
311.1393651031
 10
242.7969151798
 20
311.062388618
 10
242.8070683062
 20
310.980441044
 10
242.7768167143
 20
310.9001621962
 10
242.7086123626
 20
310.8280551427
 10
242.6079805715
 20
310.7699616462
 10
242.4830739572
 20
310.7305881121
 10
242.3440118464
 20
310.7131242398
 10
242.2020591039
 20
310.7189855149
 10
242.0687174729
 20
310.7476961931
 10
241.9547883181
 20
310.7969309574
  0
LINE
  5
38B
330
1F
100
AcDbEntity
  8
0
  6
Continuous
 62
     7
370
    25
100
AcDbLine
 10
242.3610213761
 20
311.3788256984
 30
0.0
 11
242.6618950835
 21
311.2051350042
 31
0.0
  0
LWPOLYLINE
  5
38C
330
1F
100
AcDbEntity
  8
0
  6
Continuous
 62
     7
370
    25
100
AcDbPolyline
 90
        9
 70
   128
 43
0.0
 10
241.4778447022
 20
311.8886727398
 10
241.6566033162
 20
311.8884982419
 10
241.8308325598
 20
311.8654134092
 10
241.991832698
 20
311.8205711631
 10
242.1315651083
 20
311.7562104559
 10
242.2430532032
 20
311.6755446525
 10
242.3207306682
 20
311.5826012511
 10
242.3607191041
 20
311.4820208496
 10
242.3610213761
 20
311.3788256984
  0
LWPOLYLINE
  5
38D
330
1F
100
AcDbEntity
  8
0
  6
Continuous
 62
     7
370
    25
100
AcDbPolyline
 90
       12
 70
   128
 43
0.0
 10
270.3097704134
 20
295.244356311
 10
270.1958412586
 20
295.2935910752
 10
270.0624996276
 20
295.3223017534
 10
269.9205468851
 20
295.3281630286
 10
269.7814847743
 20
295.3106991562
 10
269.65657816
 20
295.2713256221
 10
269.5559463689
 20
295.2132321257
 10
269.4877420172
 20
295.1411250721
 10
269.4574904253
 20
295.0608462243
 10
269.4676435517
 20
294.9788986504
 10
269.5173772939
 20
294.9019221653
 10
269.602663648
 20
294.8361522642
  0
LINE
  5
38E
330
1F
100
AcDbEntity
  8
0
  6
Continuous
 62
     7
370
    25
100
AcDbLine
 10
269.602663648
 20
294.8361522642
 30
0.0
 11
269.9035373554
 21
294.66246157
 31
0.0
  0
LWPOLYLINE
  5
38F
330
1F
100
AcDbEntity
  8
0
  6
Continuous
 62
     7
370
    25
100
AcDbPolyline
 90
        9
 70
   128
 43
0.0
 10
269.9035373554
 20
294.66246157
 10
269.9038396274
 20
294.5592664187
 10
269.9438280633
 20
294.4586860173
 10
270.0215055283
 20
294.3657426159
 10
270.1329936232
 20
294.2850768124
 10
270.2727260336
 20
294.2207161052
 10
270.4337261717
 20
294.1758738591
 10
270.6079554153
 20
294.1527890264
 10
270.7867140293
 20
294.1526145286
  0
LINE
  5
390
330
1F
100
AcDbEntity
  8
0
  6
Continuous
 62
     7
370
    25
100
AcDbLine
 10
270.7867140293
 20
294.1526145286
 30
0.0
 11
271.0875877367
 21
293.9789238344
 31
0.0
  0
LWPOLYLINE
  5
391
330
1F
100
AcDbEntity
  8
0
  6
Continuous
 62
     7
370
    25
100
AcDbPolyline
 90
       12
 70
   128
 43
0.0
 10
271.0875877367
 20
293.9789238344
 10
271.2015168915
 20
293.9296890701
 10
271.3348585225
 20
293.9009783919
 10
271.476811265
 20
293.8951171168
 10
271.6158733758
 20
293.9125809891
 10
271.7407799901
 20
293.9519545232
 10
271.8414117812
 20
294.0100480197
 10
271.9096161329
 20
294.0821550732
 10
271.9398677249
 20
294.162433921
 10
271.9297145984
 20
294.244381495
 10
271.8799808562
 20
294.32135798
 10
271.7946945021
 20
294.3871278811
  0
LINE
  5
392
330
1F
100
AcDbEntity
  8
0
  6
Continuous
 62
     7
370
    25
100
AcDbLine
 10
271.7946945021
 20
294.3871278811
 30
0.0
 11
271.4938207947
 21
294.5608185753
 31
0.0
  0
LWPOLYLINE
  5
393
330
1F
100
AcDbEntity
  8
0
  6
Continuous
 62
     7
370
    25
100
AcDbPolyline
 90
        9
 70
   128
 43
0.0
 10
271.4938207947
 20
294.5608185753
 10
271.4935185227
 20
294.6640137266
 10
271.4535300868
 20
294.7645941281
 10
271.3758526218
 20
294.8575375294
 10
271.2643645269
 20
294.9382033329
 10
271.1246321166
 20
295.0025640401
 10
270.9636319784
 20
295.0474062862
 10
270.7894027348
 20
295.0704911189
 10
270.6106441208
 20
295.0706656168
  0
LINE
  5
394
330
1F
100
AcDbEntity
  8
0
  6
Continuous
 62
     7
370
    25
100
AcDbLine
 10
270.6106441208
 20
295.0706656168
 30
0.0
 11
270.3097704134
 21
295.244356311
 31
0.0
  0
LINE
  5
395
330
1F
100
AcDbEntity
  8
0
  6
Continuous
 62
     7
370
    25
100
AcDbLine
 10
257.5464936868
 20
331.2683643714
 30
0.0
 11
305.0640687419
 21
303.8370521839
 31
0.0
  0
LWPOLYLINE
  5
396
330
1F
100
AcDbEntity
  8
0
  6
Continuous
 62
     7
370
    25
100
AcDbPolyline
 90
       12
 70
   128
 43
0.0
 10
305.0640687419
 20
303.8370521839
 10
305.2509373315
 20
303.7125548345
 10
305.4052137631
 20
303.5739723515
 10
305.5237538819
 20
303.4241271144
 10
305.6041489954
 20
303.2660665632
 10
305.6447595913
 20
303.1030096704
 10
305.6447595913
 20
302.938277598
 10
305.6041489954
 20
302.7752207051
 10
305.5237538819
 20
302.617160154
 10
305.4052137631
 20
302.4673149169
 10
305.2509373315
 20
302.3287324339
 10
305.0640687419
 20
302.2042350844
  0
LINE
  5
397
330
1F
100
AcDbEntity
  8
0
  6
Continuous
 62
     7
370
    25
100
AcDbLine
 10
305.0640687419
 20
302.2042350844
 30
0.0
 11
257.5464936868
 21
274.772922897
 31
0.0
  0
LINE
  5
398
330
1F
100
AcDbEntity
  8
0
  6
Continuous
 62
     7
370
    25
100
AcDbLine
 10
254.7180650447
 20
274.772922897
 30
0.0
 11
207.2004899896
 21
302.2042350844
 31
0.0
  0
LWPOLYLINE
  5
399
330
1F
100
AcDbEntity
  8
0
  6
Continuous
 62
     7
370
    25
100
AcDbPolyline
 90
       12
 70
   128
 43
0.0
 10
207.2004899896
 20
302.2042350844
 10
207.0136214
 20
302.3287324339
 10
206.8593449684
 20
302.4673149169
 10
206.7408048496
 20
302.617160154
 10
206.6604097361
 20
302.7752207051
 10
206.6197991402
 20
302.938277598
 10
206.6197991402
 20
303.1030096704
 10
206.6604097361
 20
303.2660665632
 10
206.7408048496
 20
303.4241271144
 10
206.8593449684
 20
303.5739723515
 10
207.0136214
 20
303.7125548345
 10
207.2004899896
 20
303.8370521839
  0
LINE
  5
39A
330
1F
100
AcDbEntity
  8
0
  6
Continuous
 62
     7
370
    25
100
AcDbLine
 10
207.2004899896
 20
303.8370521839
 30
0.0
 11
254.7180650447
 21
331.2683643714
 31
0.0
  0
ARC
  5
39B
330
1F
100
AcDbEntity
  8
0
  6
Continuous
 62
     7
370
    25
100
AcDbCircle
 10
256.1322793658
 20
328.552673815
 30
0.0
 40
3.061858478703775
100
AcDbArc
 50
62.4914468753
 51
117.5085531247
  0
LINE
  5
39C
330
1F
100
AcDbEntity
  8
0
  6
Continuous
 62
     7
370
    25
100
AcDbLine
 10
305.0640687419
 20
301.9592711277
 30
0.0
 11
257.5464936868
 21
274.5279589402
 31
0.0
  0
LINE
  5
39D
330
1F
100
AcDbEntity
  8
0
  6
Continuous
 62
     7
370
    25
100
AcDbLine
 10
254.7180650447
 20
274.5279589402
 30
0.0
 11
207.2004899896
 21
301.9592711277
 31
0.0
  0
LWPOLYLINE
  5
39E
330
1F
100
AcDbEntity
  8
0
  6
Continuous
 62
     7
370
    25
100
AcDbPolyline
 90
        3
 70
   128
 43
0.0
 10
271.8938943541
 20
294.0605429447
 10
271.8799808562
 20
294.0763940233
 10
271.7946945021
 20
294.1421639244
  0
LINE
  5
39F
330
1F
100
AcDbEntity
  8
0
  6
Continuous
 62
     7
370
    25
100
AcDbLine
 10
269.9035373554
 20
294.5608101911
 30
0.0
 11
269.9035373554
 21
294.66246157
 31
0.0
  0
LINE
  5
3A0
330
1F
100
AcDbEntity
  8
0
  6
Continuous
 62
     7
370
    25
100
AcDbLine
 10
271.4938207947
 20
294.3158546186
 30
0.0
 11
271.4938207947
 21
294.5608185753
 31
0.0
  0
LINE
  5
3A1
330
1F
100
AcDbEntity
  8
0
  6
Continuous
 62
     7
370
    25
100
AcDbLine
 10
271.7946945021
 20
294.1421639244
 30
0.0
 11
271.4938207947
 21
294.3158546186
 31
0.0
  0
LINE
  5
3A2
330
1F
100
AcDbEntity
  8
0
  6
Continuous
 62
     7
370
    25
100
AcDbLine
 10
270.6106441208
 20
294.82570166
 30
0.0
 11
270.6106441208
 21
295.0706656168
 31
0.0
  0
LWPOLYLINE
  5
3A3
330
1F
100
AcDbEntity
  8
0
  6
Continuous
 62
     7
370
    25
100
AcDbPolyline
 90
        9
 70
   128
 43
0.0
 10
271.493820169
 20
294.4174976322
 10
271.4935185227
 20
294.4190497699
 10
271.4535300868
 20
294.5196301713
 10
271.3758526218
 20
294.6125735727
 10
271.2643645269
 20
294.6932393762
 10
271.1246321166
 20
294.7576000834
 10
270.9636319784
 20
294.8024423294
 10
270.7894027348
 20
294.8255271621
 10
270.6106441208
 20
294.82570166
  0
LWPOLYLINE
  5
3A4
330
1F
100
AcDbEntity
  8
0
  6
Continuous
 62
     7
370
    25
100
AcDbPolyline
 90
        8
 70
   128
 43
0.0
 10
270.3097704134
 20
294.9993923542
 10
270.1958412586
 20
295.0486271184
 10
270.0624996276
 20
295.0773377967
 10
269.9205468851
 20
295.0831990718
 10
269.7814847743
 20
295.0657351995
 10
269.65657816
 20
295.0263616654
 10
269.5559463689
 20
294.9682681689
 10
269.5034641253
 20
294.9177713365
  0
LINE
  5
3A5
330
1F
100
AcDbEntity
  8
0
  6
Continuous
 62
     7
370
    25
100
AcDbLine
 10
270.6106441208
 20
294.82570166
 30
0.0
 11
270.3097704134
 21
294.9993923542
 31
0.0
  0
LWPOLYLINE
  5
3A6
330
1F
100
AcDbEntity
  8
0
  6
Continuous
 62
     7
370
    25
100
AcDbPolyline
 90
        7
 70
   128
 43
0.0
 10
305.6498530379
 20
302.7756796774
 10
305.6447595913
 20
302.6933136412
 10
305.6041489954
 20
302.5302567484
 10
305.5237538819
 20
302.3721961972
 10
305.4052137631
 20
302.2223509601
 10
305.2509373315
 20
302.0837684771
 10
305.0640687419
 20
301.9592711277
  0
LWPOLYLINE
  5
3A7
330
1F
100
AcDbEntity
  8
0
  6
Continuous
 62
     7
370
    25
100
AcDbPolyline
 90
        7
 70
   128
 43
0.0
 10
207.2004899896
 20
301.9592711277
 10
207.0136214
 20
302.0837684771
 10
206.8593449684
 20
302.2223509601
 10
206.7408048496
 20
302.3721961972
 10
206.6604097361
 20
302.5302567484
 10
206.6197991402
 20
302.6933136412
 10
206.6147056936
 20
302.7756796774
  0
LWPOLYLINE
  5
3A8
330
1F
100
AcDbEntity
  8
0
  6
Continuous
 62
     7
370
    25
100
AcDbPolyline
 90
        3
 70
   128
 43
0.0
 10
242.6618950835
 20
310.9601710474
 10
242.7471814376
 20
310.8944011463
 10
242.7610949355
 20
310.8785500677
  0
LINE
  5
3A9
330
1F
100
AcDbEntity
  8
0
  6
Continuous
 62
     7
370
    25
100
AcDbLine
 10
240.7707379368
 20
311.3788173141
 30
0.0
 11
240.7707379368
 21
311.480468693
 31
0.0
  0
LINE
  5
3AA
330
1F
100
AcDbEntity
  8
0
  6
Continuous
 62
     7
370
    25
100
AcDbLine
 10
242.3610213761
 20
311.1338617416
 30
0.0
 11
242.3610213761
 21
311.3788256984
 31
0.0
  0
LINE
  5
3AB
330
1F
100
AcDbEntity
  8
0
  6
Continuous
 62
     7
370
    25
100
AcDbLine
 10
242.3610213761
 20
311.1338617416
 30
0.0
 11
242.6618950835
 21
310.9601710474
 31
0.0
  0
LINE
  5
3AC
330
1F
100
AcDbEntity
  8
0
  6
Continuous
 62
     7
370
    25
100
AcDbLine
 10
241.4778447022
 20
311.643708783
 30
0.0
 11
241.4778447022
 21
311.8886727398
 31
0.0
  0
LWPOLYLINE
  5
3AD
330
1F
100
AcDbEntity
  8
0
  6
Continuous
 62
     7
370
    25
100
AcDbPolyline
 90
        9
 70
   128
 43
0.0
 10
241.4778447022
 20
311.643708783
 10
241.6566033162
 20
311.6435342852
 10
241.8308325598
 20
311.6204494525
 10
241.991832698
 20
311.5756072064
 10
242.1315651083
 20
311.5112464992
 10
242.2430532032
 20
311.4305806957
 10
242.3207306682
 20
311.3376372943
 10
242.3607191041
 20
311.2370568929
 10
242.3610207504
 20
311.2355047553
  0
ARC
  5
3AE
330
1F
100
AcDbEntity
  8
0
  6
Continuous
 62
     7
370
    25
100
AcDbCircle
 10
240.8318562339
 20
311.2032475102
 30
0.0
 40
0.7044762854397437
100
AcDbArc
 50
60.6667532552
 51
130.8937756336
  0
LINE
  5
3AF
330
1F
100
AcDbEntity
  8
0
  6
Continuous
 62
     7
370
    25
100
AcDbLine
 10
241.1769709948
 20
311.8173994772
 30
0.0
 11
241.4778447022
 21
311.643708783
 31
0.0
  0
LINE
  5
3B0
330
1F
100
AcDbEntity
  8
0
  6
Continuous
 62
     7
370
    25
100
AcDbLine
 10
273.1028433154
 20
235.4142439091
 30
0.0
 11
292.2835785179
 21
246.4870466502
 31
0.0
  0
LINE
  5
3B1
330
1F
100
AcDbEntity
  8
0
  6
Continuous
 62
     7
370
    25
100
AcDbLine
 10
207.9601658606
 20
253.4265150655
 30
0.0
 11
227.1409002729
 21
242.3537127805
 31
0.0
  0
LINE
  5
3B2
330
1F
100
AcDbEntity
  8
0
  6
Continuous
 62
     7
370
    25
100
AcDbLine
 10
232.0017954885
 20
239.5475777028
 30
0.0
 11
251.1825302959
 21
228.4747751897
 31
0.0
  0
LINE
  5
3B3
330
1F
100
AcDbEntity
  8
0
  6
Continuous
 62
     7
370
    25
100
AcDbLine
 10
312.7008227036
 20
255.0080390673
 30
0.0
 11
311.9936006929
 21
255.4163096437
 31
0.0
  0
LINE
  5
3B4
330
1F
100
AcDbEntity
  8
0
  6
Continuous
 62
     7
370
    25
100
AcDbLine
 10
256.1322793658
 20
222.3517141077
 30
0.0
 11
312.7008227036
 21
255.0080390673
 31
0.0
  0
LINE
  5
3B5
330
1F
100
AcDbEntity
  8
0
  6
Continuous
 62
     7
370
    25
100
AcDbLine
 10
199.5637360279
 20
255.0080390673
 30
0.0
 11
256.1322793658
 21
222.3517141077
 31
0.0
  0
LINE
  5
3B6
330
1F
100
AcDbEntity
  8
0
  6
Continuous
 62
     7
370
    25
100
AcDbLine
 10
200.2709580386
 20
255.4163096437
 30
0.0
 11
199.5637360279
 21
255.0080390673
 31
0.0
  0
LINE
  5
3B7
330
1F
100
AcDbEntity
  8
0
  6
Continuous
 62
     7
370
    25
100
AcDbLine
 10
285.1236578001
 20
221.9407229033
 30
0.0
 11
285.1236578001
 21
211.3256939549
 31
0.0
  0
LINE
  5
3B8
330
1F
100
AcDbEntity
  8
0
  6
Continuous
 62
     7
370
    25
100
AcDbLine
 10
283.7094442693
 20
210.5092858613
 30
0.0
 11
285.1236578001
 21
211.3256939549
 31
0.0
  0
LINE
  5
3B9
330
1F
100
AcDbEntity
  8
0
  6
Continuous
 62
     7
370
    25
100
AcDbLine
 10
283.7094442693
 20
210.5092858613
 30
0.0
 11
283.7094442693
 21
221.1243148097
 31
0.0
  0
LWPOLYLINE
  5
3BA
330
1F
100
AcDbEntity
  8
0
  6
Continuous
 62
     7
370
    25
100
AcDbPolyline
 90
       68
 70
   128
 43
0.0
 10
283.7094442693
 20
221.1243148097
 10
283.6970092368
 20
221.7295071744
 10
283.6597316005
 20
222.3190100606
 10
283.5976932834
 20
222.8915323467
 10
283.5110306042
 20
223.4458094461
 10
283.3999340799
 20
223.9806275283
 10
283.2646478987
 20
224.4948110467
 10
283.1054695251
 20
224.987227378
 10
282.922748844
 20
225.4567936282
 10
282.7168875674
 20
225.9024811575
 10
282.4883381154
 20
226.3233076336
 10
282.2376028257
 20
226.7183463093
 10
281.9652331636
 20
227.0867328667
 10
281.6718276143
 20
227.4276569004
 10
281.3580311562
 20
227.7403664802
 10
281.0245334173
 20
228.0241743872
 10
280.672068016
 20
228.2784577335
 10
280.3014094007
 20
228.5026585706
 10
279.9133720592
 20
228.696283434
 10
279.5088097287
 20
228.8589053197
 10
279.0886114442
 20
228.9901687038
 10
278.6537002218
 20
229.0897839154
 10
278.2050333217
 20
229.1575321557
 10
277.7435959265
 20
229.1932642815
 10
277.2704027215
 20
229.1969017178
 10
276.7864936803
 20
229.1684364581
 10
276.2929335377
 20
229.1079307606
 10
275.7908059944
 20
229.0155211027
 10
275.2812152979
 20
228.8914044927
 10
274.7652820276
 20
228.7358579382
 10
274.2441394067
 20
228.5492241495
 10
273.7189338297
 20
228.3319094104
 10
273.1908201202
 20
228.0843954419
 10
272.6609583701
 20
227.8072229763
 10
272.1305128861
 20
227.5010033164
 10
271.600651136
 20
227.1664104272
 10
271.0725374264
 20
226.8041772855
 10
270.5473318494
 20
226.4151025727
 10
270.0261892286
 20
226.0000378989
 10
269.5102559582
 20
225.5599005789
 10
269.0006657886
 20
225.0956565985
 10
268.4985377185
 20
224.608321831
 10
268.0049781026
 20
224.0989754216
 10
267.5210690615
 20
223.5687311948
 10
267.0478758565
 20
223.0187565132
 10
266.5864384613
 20
222.4502601111
 10
266.1377705075
 20
221.864491486
 10
265.7028592851
 20
221.2627384652
 10
265.2826615274
 20
220.6463247728
 10
264.8781002506
 20
220.0166057711
 10
264.4900626457
 20
219.3749623775
 10
264.1194042938
 20
218.7228083644
 10
263.7669386291
 20
218.0615769759
 10
263.4334411536
 20
217.3927209275
 10
263.119643115
 20
216.7177087566
 10
262.8262378291
 20
216.0380260384
 10
262.5538680353
 20
215.3551680868
 10
262.3031343261
 20
214.6706375202
 10
262.0745846107
 20
213.9859333115
 10
261.8687225439
 20
213.3025629552
 10
261.6860012042
 20
212.6220315169
 10
261.5268230941
 20
211.9458318995
 10
261.3915380324
 20
211.2754509274
 10
261.280441047
 20
210.6123632624
 10
261.1937786971
 20
209.9580277534
 10
261.1317406435
 20
209.3138777031
 10
261.0944617559
 20
208.6813342519
 10
261.0820263283
 20
208.0617844762
  0
LINE
  5
3BB
330
1F
100
AcDbEntity
  8
0
  6
Continuous
 62
     7
370
    25
100
AcDbLine
 10
261.0820263283
 20
208.0617844762
 30
0.0
 11
261.0820263283
 21
197.4467555277
 31
0.0
  0
LINE
  5
3BC
330
1F
100
AcDbEntity
  8
0
  6
Continuous
 62
     7
370
    25
100
AcDbLine
 10
256.1322793658
 20
194.5893274283
 30
0.0
 11
261.0820263283
 21
197.4467555277
 31
0.0
  0
LINE
  5
3BD
330
1F
100
AcDbEntity
  8
0
  6
Continuous
 62
     7
370
    25
100
AcDbLine
 10
256.1322793658
 20
222.3517141077
 30
0.0
 11
256.1322793658
 21
194.5893274283
 31
0.0
  0
LINE
  5
3BE
330
1F
100
AcDbEntity
  8
0
  6
Continuous
 62
     7
370
    25
100
AcDbLine
 10
312.7008227036
 20
255.0080390673
 30
0.0
 11
312.7008227036
 21
227.2456523879
 31
0.0
  0
LINE
  5
3BF
330
1F
100
AcDbEntity
  8
0
  6
Continuous
 62
     7
370
    25
100
AcDbLine
 10
307.7510757411
 20
224.3882242885
 30
0.0
 11
312.7008227036
 21
227.2456523879
 31
0.0
  0
LINE
  5
3C0
330
1F
100
AcDbEntity
  8
0
  6
Continuous
 62
     7
370
    25
100
AcDbLine
 10
307.7510757411
 20
224.3882242885
 30
0.0
 11
307.7510757411
 21
235.0032532369
 31
0.0
  0
LWPOLYLINE
  5
3C1
330
1F
100
AcDbEntity
  8
0
  6
Continuous
 62
     7
370
    25
100
AcDbPolyline
 90
       68
 70
   128
 43
0.0
 10
307.7510757411
 20
235.0032532369
 10
307.7386403134
 20
235.6084453734
 10
307.7013614259
 20
236.1979475373
 10
307.6393233722
 20
236.7704699754
 10
307.5526610223
 20
237.324747265
 10
307.441564037
 20
237.8595650811
 10
307.3062789753
 20
238.3737492457
 10
307.1471008652
 20
238.8661657291
 10
306.9643795255
 20
239.3357315991
 10
306.7585174586
 20
239.7814186722
 10
306.5299677432
 20
240.2022449963
 10
306.2792340341
 20
240.5972845844
 10
306.0068642403
 20
240.9656710657
 10
305.7134589544
 20
241.3065952515
 10
305.3996609158
 20
241.6193039189
 10
305.0661634402
 20
241.903111978
 10
304.7136977755
 20
242.1573951722
 10
304.3430394236
 20
242.3815961614
 10
303.9550018188
 20
242.5752208727
 10
303.5504405419
 20
242.7378433666
 10
303.1302427843
 20
242.8691070549
 10
302.6953315619
 20
242.9687222665
 10
302.2466636081
 20
243.0364698986
 10
301.7852262128
 20
243.0722020244
 10
301.3120330079
 20
243.0758394606
 10
300.8281239667
 20
243.047374201
 10
300.3345643509
 20
242.9868688076
 10
299.8324362808
 20
242.8944588455
 10
299.3228461111
 20
242.7703425397
 10
298.8069128408
 20
242.6147959851
 10
298.28577022
 20
242.4281621965
 10
297.760564643
 20
242.2108474574
 10
297.2324509334
 20
241.9633334889
 10
296.7025891833
 20
241.6861610232
 10
296.1721436993
 20
241.3799413634
 10
295.6422819492
 20
241.0453484741
 10
295.1141682396
 20
240.6831153324
 10
294.5889626626
 20
240.2940406197
 10
294.0678200418
 20
239.8789759459
 10
293.5518867714
 20
239.4388386259
 10
293.042296075
 20
238.9745943413
 10
292.5401685317
 20
238.487259878
 10
292.046608389
 20
237.9779131645
 10
291.5626993479
 20
237.4476689376
 10
291.0895061429
 20
236.8976942561
 10
290.6280687477
 20
236.329197854
 10
290.1794018476
 20
235.7434298371
 10
289.7444906251
 20
235.1416768163
 10
289.3242923407
 20
234.5252628197
 10
288.9197300102
 20
233.8955432098
 10
288.5316926687
 20
233.2538999683
 10
288.1610340534
 20
232.6017458031
 10
287.8085686521
 20
231.9405145667
 10
287.4750709131
 20
231.2716583662
 10
287.1612744551
 20
230.5966471077
 10
286.8678689057
 20
229.9169642374
 10
286.5954992436
 20
229.2341063619
 10
286.344763954
 20
228.5495748828
 10
286.116214502
 20
227.8648708262
 10
285.9103532254
 20
227.1815009261
 10
285.7276325442
 20
226.500969868
 10
285.5684541707
 20
225.8247700985
 10
285.4331679895
 20
225.1543884801
 10
285.3220714651
 20
224.4913010812
 10
285.2354087859
 20
223.8369653822
 10
285.1733704689
 20
223.1928151798
 10
285.1360928326
 20
222.5602724509
 10
285.1236578001
 20
221.9407229033
  0
LWPOLYLINE
  5
3C2
330
1F
100
AcDbEntity
  8
0
  6
Continuous
 62
     7
370
    25
100
AcDbPolyline
 90
       68
 70
   128
 43
0.0
 10
216.5342994507
 20
228.0637836051
 10
216.5467338247
 20
228.6689763499
 10
216.5840116585
 20
229.2584791221
 10
216.6460497122
 20
229.8310015602
 10
216.7327131158
 20
230.3852782415
 10
216.8438090474
 20
230.9200966658
 10
216.9790951628
 20
231.4342802222
 10
217.1382743266
 20
231.9266960973
 10
217.3209946126
 20
232.3962625756
 10
217.5268556258
 20
232.841950257
 10
217.7554053412
 20
233.2627765811
 10
218.006140104
 20
233.6578155609
 10
218.2785098978
 20
234.0262020422
 10
218.5719162374
 20
234.3671256197
 10
218.8857121686
 20
234.6798355037
 10
219.219210171
 20
234.9636432587
 10
219.5716753089
 20
235.2179267569
 10
219.9423341877
 20
235.4421274421
 10
220.3303712657
 20
235.6357524575
 10
220.7349335962
 20
235.7983743431
 10
221.1551318806
 20
235.9296377272
 10
221.5900431031
 20
236.0292529389
 10
222.03871053
 20
236.0970008751
 10
222.5001479253
 20
236.1327330009
 10
222.9733411302
 20
236.1363704371
 10
223.4572496446
 20
236.1079054816
 10
223.9508100506
 20
236.047399632
 10
224.4529375939
 20
235.9549899741
 10
224.962528027
 20
235.8308735162
 10
225.4784615607
 20
235.6753268096
 10
225.9996037864
 20
235.488693249
 10
226.5248092317
 20
235.271378586
 10
227.0529234023
 20
235.0238643513
 10
227.5827852512
 20
234.7466918287
 10
228.1132301425
 20
234.440472511
 10
228.6430919913
 20
234.1058795647
 10
229.1712061619
 20
233.7436461569
 10
229.6964116072
 20
233.3545715201
 10
230.2175538329
 20
232.9395070744
 10
230.7334873667
 20
232.4993696024
 10
231.2430777997
 20
232.0351254699
 10
231.745205343
 20
231.5477910066
 10
232.2387657491
 20
231.038444141
 10
232.7226742634
 20
230.5082002183
 10
233.1958674684
 20
229.9582255367
 10
233.6573048636
 20
229.3897291346
 10
234.1059722906
 20
228.8039608137
 10
234.540883513
 20
228.2022077929
 10
234.9610817975
 20
227.5857937962
 10
235.365644128
 20
226.9560741863
 10
235.753681206
 20
226.3144310968
 10
236.1243400847
 20
225.6622767796
 10
236.4768052226
 20
225.0010456952
 10
236.810303225
 20
224.3321893427
 10
237.1240991562
 20
223.6571783884
 10
237.4175054958
 20
222.9774950619
 10
237.6898752896
 20
222.2946371103
 10
237.9406100524
 20
221.6101059354
 10
238.1691597678
 20
220.9254017267
 10
238.375020781
 20
220.2420319787
 10
238.5577410671
 20
219.5615011486
 10
238.7169202308
 20
218.885300923
 10
238.8522063462
 20
218.2149193426
 10
238.9633022779
 20
217.5518322858
 10
239.0499656814
 20
216.8974961686
 10
239.1120037351
 20
216.2533461183
 10
239.1492815689
 20
215.6208032754
 10
239.1617159429
 20
215.0012541079
  0
LINE
  5
3C3
330
1F
100
AcDbEntity
  8
0
  6
Continuous
 62
     7
370
    25
100
AcDbLine
 10
216.5342994507
 20
217.4487546567
 30
0.0
 11
216.5342994507
 21
228.0637836051
 31
0.0
  0
LINE
  5
3C4
330
1F
100
AcDbEntity
  8
0
  6
Continuous
 62
     7
370
    25
100
AcDbLine
 10
199.5637360279
 20
227.2456523879
 30
0.0
 11
216.5342994507
 21
217.4487546567
 31
0.0
  0
LINE
  5
3C5
330
1F
100
AcDbEntity
  8
0
  6
Continuous
 62
     7
370
    25
100
AcDbLine
 10
199.5637360279
 20
255.0080390673
 30
0.0
 11
199.5637360279
 21
227.2456523879
 31
0.0
  0
LINE
  5
3C6
330
1F
100
AcDbEntity
  8
0
  6
Continuous
 62
     7
370
    25
100
AcDbLine
 10
239.1617159429
 20
204.3862251595
 30
0.0
 11
256.1322793658
 21
194.5893274283
 31
0.0
  0
LINE
  5
3C7
330
1F
100
AcDbEntity
  8
0
  6
Continuous
 62
     7
370
    25
100
AcDbLine
 10
239.1617159429
 20
215.0012541079
 30
0.0
 11
239.1617159429
 21
204.3862251595
 31
0.0
  0
LWPOLYLINE
  5
3C8
330
1F
100
AcDbEntity
  8
0
  6
Continuous
 62
     7
370
    25
100
AcDbPolyline
 90
       48
 70
   128
 43
0.0
 10
212.291658595
 20
243.5776631695
 10
212.3042773615
 20
243.7880461083
 10
212.3419071215
 20
243.9801066717
 10
212.4038766865
 20
244.15041663
 10
212.4890807555
 20
244.2959370699
 10
212.5959978271
 20
244.4140737576
 10
212.7227218102
 20
244.5027124273
 10
212.866989419
 20
244.5602759709
 10
213.0262265347
 20
244.5857366093
 10
213.1975924597
 20
244.5786365815
 10
213.3780283865
 20
244.5391088337
 10
213.5643153496
 20
244.4678532979
 10
213.7531279626
 20
244.3661423729
 10
213.9410976386
 20
244.2357941615
 10
214.1248694885
 20
244.0791323233
 10
214.3011634338
 20
243.898953229
 10
214.4668353196
 20
243.6984712124
 10
214.6189274908
 20
243.4812650383
 10
214.754726744
 20
243.2512103795
 10
214.8718085818
 20
243.0124104663
 10
214.9680846279
 20
242.7691297785
 10
215.0418363444
 20
242.5257088772
 10
215.0917476961
 20
242.2864920112
 10
215.1169272771
 20
242.0557462062
 10
215.1169272771
 20
241.8375919124
 10
215.0917476961
 20
241.6359178328
 10
215.0418363444
 20
241.4543273869
 10
214.9680846279
 20
241.2960584049
 10
214.8718085818
 20
241.1639356739
 10
214.754726744
 20
241.0603180067
 10
214.6189274908
 20
240.9870513948
 10
214.4668353196
 20
240.9454471038
 10
214.3011634338
 20
240.936245775
 10
214.1248694885
 20
240.9596113374
 10
213.9410976386
 20
241.0151279608
 10
213.7531279626
 20
241.1018049177
 10
213.5643153496
 20
241.2180923954
 10
213.3780283865
 20
241.3619192091
 10
213.1975924597
 20
241.530718348
 10
213.0262265347
 20
241.7214732058
 10
212.866989419
 20
241.9307851046
 10
212.7227218102
 20
242.1549164838
 10
212.5959978271
 20
242.3898675501
 10
212.4890807555
 20
242.631448061
 10
212.4038766865
 20
242.875343025
 10
212.3419071215
 20
243.1172015202
 10
212.3042773615
 20
243.3527084797
 10
212.291658595
 20
243.5776631695
  0
LWPOLYLINE
  5
3C9
330
1F
100
AcDbEntity
  8
0
  6
Continuous
 62
     7
370
    25
100
AcDbPolyline
 90
       48
 70
   128
 43
0.0
 10
240.5759302639
 20
227.2495006898
 10
240.5885479767
 20
227.4598842368
 10
240.6261777367
 20
227.6519448002
 10
240.6881473018
 20
227.8222547585
 10
240.7733513707
 20
227.9677751984
 10
240.880269496
 20
228.0859112778
 10
241.0069924254
 20
228.1745505558
 10
241.1512600342
 20
228.2321140994
 10
241.3104982036
 20
228.2575741295
 10
241.4818641286
 20
228.2504741018
 10
241.6623000555
 20
228.2109463539
 10
241.8485870185
 20
228.1396908182
 10
242.0373996315
 20
228.0379798932
 10
242.2253682538
 20
227.90763229
 10
242.4091401037
 20
227.7509704518
 10
242.5854351027
 20
227.5707907493
 10
242.7511069885
 20
227.3703087326
 10
242.9031991597
 20
227.1531025585
 10
243.0389973593
 20
226.923048508
 10
243.1560802508
 20
226.6842479865
 10
243.2523552431
 20
226.440967907
 10
243.3261069597
 20
226.1975470057
 10
243.3760183114
 20
225.9583301397
 10
243.401198946
 20
225.7275837264
 10
243.401198946
 20
225.5094294326
 10
243.3760183114
 20
225.3077559613
 10
243.3261069597
 20
225.1261655154
 10
243.2523552431
 20
224.9678965334
 10
243.1560802508
 20
224.8357731941
 10
243.0389973593
 20
224.7321561352
 10
242.9031991597
 20
224.6588889151
 10
242.7511069885
 20
224.6172846241
 10
242.5854351027
 20
224.6080832952
 10
242.4091401037
 20
224.6314494659
 10
242.2253682538
 20
224.6869660893
 10
242.0373996315
 20
224.7736424379
 10
241.8485870185
 20
224.8899299156
 10
241.6623000555
 20
225.0337567293
 10
241.4818641286
 20
225.2025558682
 10
241.3104982036
 20
225.393310726
 10
241.1512600342
 20
225.6026232331
 10
241.0069924254
 20
225.8267546123
 10
240.880269496
 20
226.0617050703
 10
240.7733513707
 20
226.3032861896
 10
240.6881473018
 20
226.5471811535
 10
240.6261777367
 20
226.7890396487
 10
240.5885479767
 20
227.0245466082
 10
240.5759302639
 20
227.2495006898
  0
LINE
  5
3CA
330
1F
100
AcDbEntity
  8
0
  6
Continuous
 62
     7
370
    25
100
AcDbLine
 10
273.1028427886
 20
238.4354205413
 30
0.0
 11
291.1738425136
 21
248.8675866276
 31
0.0
  0
LINE
  5
3CB
330
1F
100
AcDbEntity
  8
0
  6
Continuous
 62
     7
370
    25
100
AcDbLine
 10
209.0699008113
 20
255.8070556511
 30
0.0
 11
227.1409005363
 21
245.3748895647
 31
0.0
  0
LINE
  5
3CC
330
1F
100
AcDbEntity
  8
0
  6
Continuous
 62
     7
370
    25
100
AcDbLine
 10
233.1115316245
 20
241.9281176041
 30
0.0
 11
251.1825302959
 21
231.495952126
 31
0.0
  0
LWPOLYLINE
  5
3CD
330
1F
100
AcDbEntity
  8
0
  6
Continuous
 62
     7
370
    25
100
AcDbPolyline
 90
       22
 70
   128
 43
0.0
 10
279.1136203305
 20
221.736833889
 10
279.1009628416
 20
222.2970147041
 10
279.0630235657
 20
222.8410967628
 10
278.9999036551
 20
223.3676345678
 10
278.9117701168
 20
223.8752352394
 10
278.7988566023
 20
224.3625516718
 10
278.661462881
 20
224.8282895291
 10
278.4999529965
 20
225.2712159147
 10
278.3147555295
 20
225.6901546564
 10
278.1063612273
 20
226.0839971053
 10
277.8753227405
 20
226.4516971169
 10
277.6222533057
 20
226.7922800245
 10
277.3478233212
 20
227.1048430955
 10
277.0527606105
 20
227.3885556842
 10
276.7378483146
 20
227.6426677486
 10
276.4039209412
 20
227.866505136
 10
276.0518635741
 20
228.059473994
 10
275.6826108196
 20
228.221060162
 10
275.2971415383
 20
228.3508382973
 10
274.8964772645
 20
228.4484636622
 10
274.4816816791
 20
228.5136766871
 10
274.2150349005
 20
228.5379413099
  0
SPLINE
  5
3CE
330
1F
100
AcDbEntity
  8
0
  6
Continuous
 62
     7
370
    25
100
AcDbSpline
210
0.0
220
0.0
230
1.0
 70
     8
 71
     3
 72
    27
 73
    23
 74
     0
 42
0.000000001
 43
0.00000001
 40
0.0
 40
0.0
 40
0.0
 40
0.0
 40
0.0176663644388675
 40
0.0721288445374022
 40
0.1250563415670095
 40
0.1795188083774941
 40
0.2324463754444692
 40
0.28690875792193
 40
0.3398363247524221
 40
0.394298621521438
 40
0.4472264083595068
 40
0.5016886077348691
 40
0.5546162860206488
 40
0.6090788010722474
 40
0.6620064961807731
 40
0.7164688363338021
 40
0.7693966016243053
 40
0.8238591950955741
 40
0.876786707598326
 40
0.9312491608288257
 40
0.9841765454797312
 40
1.0
 40
1.0
 40
1.0
 40
1.0
 10
243.0223093146067
 20
224.7267030109859
 30
0.0
 10
243.0046777500714
 20
224.7145746615103
 30
0.0
 10
242.9326909877854
 20
224.665056616253
 30
0.0
 10
242.7793888076475
 20
224.6296845218057
 30
0.0
 10
242.5670848503075
 20
224.6232880165947
 30
0.0
 10
242.3395278164723
 20
224.6720527397857
 30
0.0
 10
242.1015006011064
 20
224.7711595199502
 30
0.0
 10
241.8632503016287
 20
224.9171038242244
 30
0.0
 10
241.6274448178925
 20
225.1080904194699
 30
0.0
 10
241.4050633090826
 20
225.3354265808709
 30
0.0
 10
241.1984337666673
 20
225.5967576227106
 30
0.0
 10
241.0170112060482
 20
225.8799254605647
 30
0.0
 10
240.8626162700272
 20
226.1819823818113
 30
0.0
 10
240.7424487430549
 20
226.4889697253653
 30
0.0
 10
240.6578337248237
 20
226.7977819291443
 30
0.0
 10
240.6126876408804
 20
227.0940869616819
 30
0.0
 10
240.6073361916799
 20
227.3748719154083
 30
0.0
 10
240.6422147688391
 20
227.6267898108046
 30
0.0
 10
240.7163188959813
 20
227.8485633925964
 30
0.0
 10
240.8289198836281
 20
228.0251906349277
 30
0.0
 10
240.9354403911121
 20
228.1374115714781
 30
0.0
 10
241.011118074188
 20
228.1723132794681
 30
0.0
 10
241.0285357870595
 20
228.1803461354407
 30
0.0
  0
LWPOLYLINE
  5
3CF
330
1F
100
AcDbEntity
  8
0
  6
Continuous
 62
     7
370
    25
100
AcDbPolyline
 90
       89
 70
   128
 43
0.0
 10
273.17355361
 20
211.2840321634
 10
273.5273152903
 20
211.7471123524
 10
273.8671853694
 20
212.2259031831
 10
274.1919716182
 20
212.7187247528
 10
274.5005350181
 20
213.223850005
 10
274.7917929221
 20
213.7395065544
 10
275.0647237959
 20
214.263884291
 10
275.3183698522
 20
214.7951454179
 10
275.5518412659
 20
215.3314244512
 10
275.7643193343
 20
215.8708409949
 10
275.9550591119
 20
216.4115049124
 10
276.1233909907
 20
216.9515160218
 10
276.2687238611
 20
217.4889817387
 10
276.3905493267
 20
218.0220170752
 10
276.4884385434
 20
218.5487488994
 10
276.5620495948
 20
219.0673347939
 10
276.611122751
 20
219.5759530183
 10
276.6354873173
 20
220.0728186299
 10
276.6350568926
 20
220.5561904811
 10
276.6098330575
 20
221.0243709143
 10
276.5599043202
 20
221.4757173215
 10
276.4854461171
 20
221.9086494442
 10
276.3867197587
 20
222.3216463322
 10
276.264070849
 20
222.7132600316
 10
276.1179303396
 20
223.0821161936
 10
275.9488108416
 20
223.4269192454
 10
275.757305045
 20
223.7464636457
 10
275.5440851921
 20
224.0396238462
 10
275.3098993893
 20
224.3053764979
 10
275.0555689735
 20
224.5427843294
 10
274.7819853505
 20
224.7510186565
 10
274.4901094683
 20
224.9293469113
 10
274.1809649687
 20
225.0771432887
 10
273.8556355524
 20
225.19388966
 10
273.5152628721
 20
225.2791767887
 10
273.1610412643
 20
225.3327061574
 10
272.7942130073
 20
225.3542896629
 10
272.4160651605
 20
225.3438502256
 10
272.0279242958
 20
225.3014260484
 10
271.6311507029
 20
225.2271648377
 10
271.2271383888
 20
225.1213262368
 10
270.8173024339
 20
224.9842842606
 10
270.403082153
 20
224.8165193866
 10
269.9859295052
 20
224.6186167308
 10
269.5673090934
 20
224.3912757817
 10
269.1486886816
 20
224.1352878913
 10
268.7315360337
 20
223.8515563517
 10
268.3173157529
 20
223.5410726693
 10
267.9074808517
 20
223.2049287323
 10
267.5034674839
 20
222.844304036
 10
267.1066949446
 20
222.4604608157
 10
266.7185530263
 20
222.0547464811
 10
266.3404051794
 20
221.6285857077
 10
265.9735769224
 20
221.1834713117
 10
265.6193558414
 20
220.7209666841
 10
265.2789831612
 20
220.2426936237
 10
264.9536537449
 20
219.7503299037
 10
264.6445087184
 20
219.2456025802
 10
264.3526323095
 20
218.7302813009
 10
264.0790497401
 20
218.2061746544
 10
263.8247198511
 20
217.6751234794
 10
263.5905329947
 20
217.1389850469
 10
263.3773141954
 20
216.5996470524
 10
263.1858073451
 20
216.0589941576
 10
263.0166889008
 20
215.5189304979
 10
262.8705468109
 20
214.9813431829
 10
262.7478994818
 20
214.448122979
 10
262.6491725965
 20
213.9211387597
 10
262.5747138666
 20
213.4022387214
 10
262.5247846025
 20
212.8932455171
 10
262.499561821
 20
212.395942872
 10
262.4991319231
 20
211.9120743671
 10
262.5234949089
 20
211.4433385726
 10
262.572568592
 20
210.9913793126
 10
262.6461801702
 20
210.5577832331
 10
262.7440683332
 20
210.1440712844
 10
262.8658937989
 20
209.7516926366
 10
263.0112266692
 20
209.3820246802
 10
263.1795590748
 20
209.0363657252
 10
263.3702988525
 20
208.7159252674
 10
263.5827779746
 20
208.4218312879
 10
263.8162483345
 20
208.1551120029
 10
264.0698943909
 20
207.916704379
 10
264.3428257915
 20
207.7074462259
 10
264.6340836955
 20
207.5280688945
 10
264.9426470954
 20
207.3792033607
 10
265.2674328174
 20
207.2613717079
 10
265.6073028964
 20
207.1749865179
 10
265.9610645768
 20
207.120350871
  0
LINE
  5
3D0
330
1F
100
AcDbEntity
  8
0
  6
Continuous
 62
     7
370
    25
100
AcDbLine
 10
265.9610645768
 20
207.120350871
 30
0.0
 11
265.9610645768
 21
206.2237590385
 31
0.0
  0
LINE
  5
3D1
330
1F
100
AcDbEntity
  8
0
  6
Continuous
 62
     7
370
    25
100
AcDbLine
 10
261.0820284356
 20
203.4071514274
 30
0.0
 11
265.9610645768
 21
206.2237590385
 31
0.0
  0
LINE
  5
3D2
330
1F
100
AcDbEntity
  8
0
  6
Continuous
 62
     7
370
    25
100
AcDbLine
 10
279.1136203305
 20
213.8165678577
 30
0.0
 11
279.1136203305
 21
221.736833889
 31
0.0
  0
LINE
  5
3D3
330
1F
100
AcDbEntity
  8
0
  6
Continuous
 62
     7
370
    25
100
AcDbLine
 10
273.17355361
 20
210.387440331
 30
0.0
 11
279.1136203305
 21
213.8165678577
 31
0.0
  0
LINE
  5
3D4
330
1F
100
AcDbEntity
  8
0
  6
Continuous
 62
     7
370
    25
100
AcDbLine
 10
273.17355361
 20
210.387440331
 30
0.0
 11
273.17355361
 21
211.2840321634
 31
0.0
  0
LINE
  5
3D5
330
1F
100
AcDbEntity
  8
0
  6
Continuous
 62
     7
370
    25
100
AcDbLine
 10
272.4664453958
 20
211.6922370466
 30
0.0
 11
273.17355361
 21
211.2840321634
 31
0.0
  0
LWPOLYLINE
  5
3D6
330
1F
100
AcDbEntity
  8
0
  6
Continuous
 62
     7
370
    25
100
AcDbPolyline
 90
       31
 70
   128
 43
0.0
 10
272.4664453958
 20
211.6922370466
 10
272.8202070761
 20
212.1553172356
 10
273.1600771552
 20
212.6341080663
 10
273.484863404
 20
213.126929636
 10
273.793426804
 20
213.6320548882
 10
274.0846847079
 20
214.1477114376
 10
274.3576155817
 20
214.6720891742
 10
274.611261638
 20
215.2033503011
 10
274.8447330517
 20
215.7396293343
 10
275.0572111201
 20
216.279045878
 10
275.2479508977
 20
216.8197097955
 10
275.4162827765
 20
217.359720905
 10
275.5616156469
 20
217.8971866218
 10
275.6834411125
 20
218.4302219583
 10
275.7813303292
 20
218.9569537826
 10
275.8549413806
 20
219.4755396771
 10
275.9040145368
 20
219.9841579014
 10
275.9283791031
 20
220.481023513
 10
275.9279486784
 20
220.9643953642
 10
275.9027248433
 20
221.4325757975
 10
275.852796106
 20
221.8839222046
 10
275.7783379029
 20
222.3168543273
 10
275.6796115445
 20
222.7298512153
 10
275.5569626348
 20
223.1214649148
 10
275.4108221254
 20
223.4903210768
 10
275.2417026274
 20
223.8351241286
 10
275.0501968308
 20
224.1546685288
 10
274.8369769779
 20
224.4478287294
 10
274.6027911752
 20
224.7135813811
 10
274.3484607593
 20
224.9509892125
 10
274.2008356272
 20
225.0687826447
  0
ARC
  5
3D7
330
1F
100
AcDbEntity
  8
0
  6
Continuous
 62
     7
370
    25
100
AcDbCircle
 10
265.6169223639
 20
211.0891214961
 30
0.0
 40
3.57901840189906
100
AcDbArc
 50
247.1422701347
 51
264.1793441215
  0
LINE
  5
3D8
330
1F
100
AcDbEntity
  8
0
  6
Continuous
 62
     7
370
    25
100
AcDbLine
 10
265.2539563626
 20
207.5285557541
 30
0.0
 11
265.9610645768
 21
207.120350871
 31
0.0
  0
LINE
  5
3D9
330
1F
100
AcDbEntity
  8
0
  6
Continuous
 62
     7
370
    25
100
AcDbLine
 10
272.4664453958
 20
210.9587748466
 30
0.0
 11
272.4664453958
 21
211.6922370466
 31
0.0
  0
LINE
  5
3DA
330
1F
100
AcDbEntity
  8
0
  6
Continuous
 62
     7
370
    25
100
AcDbLine
 10
265.8892221125
 20
207.1618246655
 30
0.0
 11
272.4664453958
 21
210.9587748466
 31
0.0
  0
LWPOLYLINE
  5
3DB
330
1F
100
AcDbEntity
  8
0
  6
Continuous
 62
     7
370
    25
100
AcDbPolyline
 90
       22
 70
   128
 43
0.0
 10
221.1301235212
 20
228.6763026083
 10
221.1427802199
 20
229.2364838797
 10
221.1807197592
 20
229.7805657863
 10
221.2438399332
 20
230.3071034392
 10
221.3319732081
 20
230.8147042629
 10
221.4448867226
 20
231.3020206953
 10
221.5822801804
 20
231.7677587047
 10
221.7437900649
 20
232.2106850902
 10
221.9289880588
 20
232.6296235278
 10
222.1373820976
 20
233.0234661288
 10
222.3684205844
 20
233.3911661404
 10
222.6214902826
 20
233.7317488959
 10
222.8959200037
 20
234.044312119
 10
223.1909827144
 20
234.3280247077
 10
223.5058950103
 20
234.5821367721
 10
223.8398229105
 20
234.8059738554
 10
224.1918797508
 20
234.9989430175
 10
224.5611325053
 20
235.1605291855
 10
224.9466017866
 20
235.2903073208
 10
225.3472660604
 20
235.3879326857
 10
225.7620621726
 20
235.4531454064
 10
226.0287084244
 20
235.4774103334
  0
LINE
  5
3DC
330
1F
100
AcDbEntity
  8
0
  6
Continuous
 62
     7
370
    25
100
AcDbLine
 10
227.0701897149
 20
217.3269093545
 30
0.0
 11
227.0701897149
 21
218.2235011869
 31
0.0
  0
LINE
  5
3DD
330
1F
100
AcDbEntity
  8
0
  6
Continuous
 62
     7
370
    25
100
AcDbLine
 10
221.1301235212
 20
220.756036577
 30
0.0
 11
227.0701897149
 21
217.3269093545
 31
0.0
  0
LINE
  5
3DE
330
1F
100
AcDbEntity
  8
0
  6
Continuous
 62
     7
370
    25
100
AcDbLine
 10
221.1301235212
 20
220.756036577
 30
0.0
 11
221.1301235212
 21
228.6763026083
 31
0.0
  0
LINE
  5
3DF
330
1F
100
AcDbEntity
  8
0
  6
Continuous
 62
     7
370
    25
100
AcDbLine
 10
234.2826787481
 20
213.163228062
 30
0.0
 11
239.1617154161
 21
210.3466201468
 31
0.0
  0
LINE
  5
3E0
330
1F
100
AcDbEntity
  8
0
  6
Continuous
 62
     7
370
    25
100
AcDbLine
 10
234.2826787481
 20
214.0598198945
 30
0.0
 11
234.2826787481
 21
213.163228062
 31
0.0
  0
LWPOLYLINE
  5
3E1
330
1F
100
AcDbEntity
  8
0
  6
Continuous
 62
     7
370
    25
100
AcDbPolyline
 90
       89
 70
   128
 43
0.0
 10
227.0701897149
 20
218.2235011869
 10
226.7164280346
 20
218.6865813759
 10
226.3765579555
 20
219.1653722066
 10
226.0517717067
 20
219.6581937763
 10
225.7432083067
 20
220.1633190285
 10
225.4519504028
 20
220.6789755779
 10
225.1790200559
 20
221.2033530103
 10
224.9253739995
 20
221.7346141373
 10
224.691902059
 20
222.2708934747
 10
224.4794239906
 20
222.8103100184
 10
224.288684213
 20
223.3509739358
 10
224.120352861
 20
223.8909847412
 10
223.9750194638
 20
224.4284507621
 10
223.8531939982
 20
224.9614860987
 10
223.7553047815
 20
225.4882179229
 10
223.6816937301
 20
226.0068038174
 10
223.6326205739
 20
226.5154220417
 10
223.6082560076
 20
227.0122876534
 10
223.6086869591
 20
227.4956592004
 10
223.6339102674
 20
227.9638399378
 10
223.6838390047
 20
228.4151863449
 10
223.7582972078
 20
228.8481184677
 10
223.8570235662
 20
229.2611153556
 10
223.9796724759
 20
229.6527290551
 10
224.1258129853
 20
230.0215852171
 10
224.2949324833
 20
230.3663882689
 10
224.4864382799
 20
230.6859326691
 10
224.6996581328
 20
230.9790928697
 10
224.9338439355
 20
231.2448455214
 10
225.1881748782
 20
231.4822530487
 10
225.4617579744
 20
231.69048768
 10
225.7536338566
 20
231.8688159347
 10
226.0627783562
 20
232.0166123122
 10
226.3881077725
 20
232.1333586834
 10
226.7284804527
 20
232.2186458122
 10
227.0827020605
 20
232.2721751809
 10
227.4495303176
 20
232.2937586863
 10
227.8276784279
 20
232.283319097
 10
228.2158195559
 20
232.2408947678
 10
228.6125927537
 20
232.1666337852
 10
229.0166055947
 20
232.0607948801
 10
229.4264410227
 20
231.923753208
 10
229.8406613694
 20
231.755988296
 10
230.2578135563
 20
231.5580859064
 10
230.6764342315
 20
231.3307448052
 10
231.0950549068
 20
231.0747567627
 10
231.5122070936
 20
230.7910254893
 10
231.9264274403
 20
230.4805417688
 10
232.3362628684
 20
230.1443975277
 10
232.7402757093
 20
229.7837731355
 10
233.1370489071
 20
229.399929535
 10
233.5251900352
 20
228.9942156567
 10
233.9033381454
 20
228.5680547312
 10
234.2701664025
 20
228.1229403352
 10
234.6243880103
 20
227.6604354035
 10
234.9647606905
 20
227.1821623431
 10
235.2900901068
 20
226.689798623
 10
235.5992346065
 20
226.1850716037
 10
235.8911104886
 20
225.6697506285
 10
236.1646935848
 20
225.1456436779
 10
236.4190245275
 20
224.6145918946
 10
236.6532103302
 20
224.0784540703
 10
236.8664301832
 20
223.5391154677
 10
237.0579359798
 20
222.9984631811
 10
237.2270554778
 20
222.4583989131
 10
237.3731959871
 20
221.9208125106
 10
237.4958448968
 20
221.3875913942
 10
237.5945712553
 20
220.860607479
 10
237.6690294583
 20
220.3417077449
 10
237.7189581956
 20
219.8327148447
 10
237.7441815039
 20
219.3354118954
 10
237.7446124554
 20
218.8515427823
 10
237.7202478892
 20
218.3828079002
 10
237.6711747329
 20
217.930848336
 10
237.5975636815
 20
217.4972519524
 10
237.4996744648
 20
217.0835406121
 10
237.3778489992
 20
216.6911619642
 10
237.232515602
 20
216.321494312
 10
237.06418425
 20
215.9758347487
 10
236.8734444724
 20
215.6553942909
 10
236.660966404
 20
215.3612997031
 10
236.4274944635
 20
215.0945813305
 10
236.1738484072
 20
214.8561737067
 10
235.9009180603
 20
214.6469149452
 10
235.6096601563
 20
214.4675376139
 10
235.3010967563
 20
214.3186720801
 10
234.9763105075
 20
214.2008407314
 10
234.6364404284
 20
214.1144555413
 10
234.2826787481
 20
214.0598198945
  0
LINE
  5
3E2
330
1F
100
AcDbEntity
  8
0
  6
Continuous
 62
     7
370
    25
100
AcDbLine
 10
234.9897869623
 20
214.4680247776
 30
0.0
 11
234.2826787481
 21
214.0598198945
 31
0.0
  0
LWPOLYLINE
  5
3E3
330
1F
100
AcDbEntity
  8
0
  6
Continuous
 62
     7
370
    25
100
AcDbPolyline
 90
       31
 70
   128
 43
0.0
 10
227.7772979291
 20
218.63170607
 10
227.4235362488
 20
219.094786259
 10
227.0836661697
 20
219.5735770898
 10
226.7588799209
 20
220.0663986594
 10
226.4503165209
 20
220.5715239116
 10
226.159058617
 20
221.087180461
 10
225.88612827
 20
221.6115578935
 10
225.6324822137
 20
222.1428190205
 10
225.3990102732
 20
222.6790983578
 10
225.1865322048
 20
223.2185149015
 10
224.9957924272
 20
223.759178819
 10
224.8274610752
 20
224.2991896243
 10
224.682127678
 20
224.8366556453
 10
224.5603022124
 20
225.3696909818
 10
224.4624129957
 20
225.896422806
 10
224.3888019443
 20
226.4150087006
 10
224.339728788
 20
226.9236269249
 10
224.3153642218
 20
227.4204925365
 10
224.3157951733
 20
227.9038640836
 10
224.3410184816
 20
228.3720448209
 10
224.3909472189
 20
228.8233912281
 10
224.465405422
 20
229.2563233508
 10
224.5641317804
 20
229.6693202388
 10
224.6867806901
 20
230.0609339383
 10
224.8329211994
 20
230.4297901002
 10
225.0020406975
 20
230.7745931521
 10
225.193546494
 20
231.0941375523
 10
225.406766347
 20
231.3872977528
 10
225.6409521497
 20
231.6530504046
 10
225.8952830924
 20
231.8904579319
 10
226.0429082245
 20
232.0082513641
  0
ARC
  5
3E4
330
1F
100
AcDbEntity
  8
0
  6
Continuous
 62
     7
370
    25
100
AcDbCircle
 10
234.6269192369
 20
218.0282060668
 30
0.0
 40
3.578625965092042
100
AcDbArc
 50
275.819714779
 51
292.8586709649
  0
LINE
  5
3E5
330
1F
100
AcDbEntity
  8
0
  6
Continuous
 62
     7
370
    25
100
AcDbLine
 10
227.7772979291
 20
218.63170607
 30
0.0
 11
227.0701897149
 21
218.2235011869
 31
0.0
  0
LINE
  5
3E6
330
1F
100
AcDbEntity
  8
0
  6
Continuous
 62
     7
370
    25
100
AcDbLine
 10
227.7772979291
 20
217.8982438701
 30
0.0
 11
227.7772979291
 21
218.63170607
 31
0.0
  0
LINE
  5
3E7
330
1F
100
AcDbEntity
  8
0
  6
Continuous
 62
     7
370
    25
100
AcDbLine
 10
227.7772979291
 20
217.8982438701
 30
0.0
 11
234.354520949
 21
214.101293841
 31
0.0
  0
LWPOLYLINE
  5
3E8
330
1F
100
AcDbEntity
  8
0
  6
Continuous
 62
     7
370
    25
100
AcDbPolyline
 90
       22
 70
   128
 43
0.0
 10
303.1552506169
 20
235.6157716318
 10
303.1425939183
 20
236.1759529032
 10
303.1046533252
 20
236.7200342015
 10
303.0415342049
 20
237.2465724627
 10
302.95340093
 20
237.7541732864
 10
302.8404874155
 20
238.2414897188
 10
302.703092904
 20
238.7072271199
 10
302.5415840732
 20
239.1501541137
 10
302.3563866061
 20
239.5690928554
 10
302.1479915137
 20
239.9629348482
 10
301.9169530269
 20
240.3306348598
 10
301.6638843823
 20
240.6712182235
 10
301.3894536076
 20
240.9837808383
 10
301.0943919505
 20
241.2674940353
 10
300.7794791278
 20
241.5216057955
 10
300.4455517544
 20
241.745443183
 10
300.0934949141
 20
241.9384123451
 10
299.7242421596
 20
242.0999985131
 10
299.3387712979
 20
242.229775736
 10
298.9381075508
 20
242.3274014051
 10
298.5233119655
 20
242.3926144299
 10
298.2566657137
 20
242.4168793569
  0
LWPOLYLINE
  5
3E9
330
1F
100
AcDbEntity
  8
0
  6
Continuous
 62
     7
370
    25
100
AcDbPolyline
 90
       89
 70
   128
 43
0.0
 10
297.2151844232
 20
225.1629702104
 10
297.5689461035
 20
225.6260503994
 10
297.9088161826
 20
226.1048412301
 10
298.2336019046
 20
226.5976624956
 10
298.5421653045
 20
227.1027877478
 10
298.8334232085
 20
227.6184442972
 10
299.1063546091
 20
228.142822338
 10
299.3600006654
 20
228.6740834649
 10
299.5934710254
 20
229.2103618899
 10
299.8059501475
 20
229.7497790418
 10
299.9966899251
 20
230.2904429593
 10
300.1650223307
 20
230.8304543729
 10
300.3103552011
 20
231.3679200898
 10
300.4321806667
 20
231.9009554263
 10
300.5300688298
 20
232.4276866422
 10
300.603680408
 20
232.9462728409
 10
300.6527540911
 20
233.4548913694
 10
300.6771170769
 20
233.9517560686
 10
300.676687179
 20
234.4351282239
 10
300.6514643975
 20
234.9033092654
 10
300.6015351334
 20
235.3546553684
 10
300.5270764035
 20
235.787587187
 10
300.4283495182
 20
236.2005837709
 10
300.305702189
 20
236.5921983827
 10
300.1595600992
 20
236.9610536323
 10
299.9904416548
 20
237.3058572924
 10
299.7989348046
 20
237.6254010844
 10
299.5857160053
 20
237.9185618932
 10
299.3515291489
 20
238.1843139366
 10
299.0971992599
 20
238.4217220722
 10
298.8236166905
 20
238.6299570076
 10
298.5317402816
 20
238.8082849582
 10
298.2225952551
 20
238.9560810316
 10
297.8972658388
 20
239.0728274028
 10
297.5568931585
 20
239.1581145316
 10
297.2026720776
 20
239.2116442043
 10
296.8358438205
 20
239.2332277098
 10
296.4576959737
 20
239.2227882726
 10
296.0695540554
 20
239.1803634871
 10
295.6727815161
 20
239.1061028847
 10
295.2687681483
 20
239.0002636755
 10
294.8589332471
 20
238.8632223076
 10
294.4447129662
 20
238.6954574336
 10
294.0275603184
 20
238.4975547778
 10
293.6089399066
 20
238.2702138287
 10
293.1903194948
 20
238.0142259382
 10
292.773166847
 20
237.7304943987
 10
292.3589465661
 20
237.4200107163
 10
291.9491106112
 20
237.083866171
 10
291.5450982971
 20
236.723242083
 10
291.1483247042
 20
236.3393982544
 10
290.7601838395
 20
235.9336845281
 10
290.3820359927
 20
235.5075237546
 10
290.0152077356
 20
235.0624093587
 10
289.6609861278
 20
234.599904427
 10
289.3206134476
 20
234.1216313666
 10
288.9952840313
 20
233.6292676465
 10
288.6861395317
 20
233.1245406272
 10
288.3942636495
 20
232.609219652
 10
288.1206800265
 20
232.0851123973
 10
287.8663496106
 20
231.5540609181
 10
287.6321638079
 20
231.0179230938
 10
287.418943955
 20
230.4785844911
 10
287.2274381584
 20
229.9379322046
 10
287.0583186604
 20
229.3978679366
 10
286.912178151
 20
228.860281534
 10
286.7895292413
 20
228.3270604177
 10
286.6908028829
 20
227.8000765025
 10
286.6163446798
 20
227.2811767684
 10
286.5664159425
 20
226.7721838682
 10
286.5411921074
 20
226.2748806148
 10
286.5407616827
 20
225.7910118058
 10
286.565126249
 20
225.3222769237
 10
286.6141994052
 20
224.8703173595
 10
286.6878104566
 20
224.4367209759
 10
286.7856996733
 20
224.0230096356
 10
286.9075251389
 20
223.6306309877
 10
287.0528580093
 20
223.2609630313
 10
287.2211898881
 20
222.9153037722
 10
287.4119296657
 20
222.5948633143
 10
287.6244077341
 20
222.3007687266
 10
287.8578791478
 20
222.0340500498
 10
288.1115252041
 20
221.795642426
 10
288.3844560779
 20
221.5863839687
 10
288.6757139818
 20
221.4070066373
 10
288.9842773818
 20
221.2581411036
 10
289.3090636306
 20
221.1403097549
 10
289.6489337097
 20
221.0539245648
 10
290.00269539
 20
220.9992889179
  0
LINE
  5
3EA
330
1F
100
AcDbEntity
  8
0
  6
Continuous
 62
     7
370
    25
100
AcDbLine
 10
290.00269539
 20
220.9992889179
 30
0.0
 11
290.00269539
 21
220.1026970855
 31
0.0
  0
LINE
  5
3EB
330
1F
100
AcDbEntity
  8
0
  6
Continuous
 62
     7
370
    25
100
AcDbLine
 10
285.1236584586
 20
217.2860890182
 30
0.0
 11
290.00269539
 21
220.1026970855
 31
0.0
  0
LINE
  5
3EC
330
1F
100
AcDbEntity
  8
0
  6
Continuous
 62
     7
370
    25
100
AcDbLine
 10
303.1552506169
 20
227.6955056005
 30
0.0
 11
303.1552506169
 21
235.6157716318
 31
0.0
  0
LINE
  5
3ED
330
1F
100
AcDbEntity
  8
0
  6
Continuous
 62
     7
370
    25
100
AcDbLine
 10
297.2151844232
 20
224.2663783779
 30
0.0
 11
303.1552506169
 21
227.6955056005
 31
0.0
  0
LINE
  5
3EE
330
1F
100
AcDbEntity
  8
0
  6
Continuous
 62
     7
370
    25
100
AcDbLine
 10
297.2151844232
 20
224.2663783779
 30
0.0
 11
297.2151844232
 21
225.1629702104
 31
0.0
  0
LINE
  5
3EF
330
1F
100
AcDbEntity
  8
0
  6
Continuous
 62
     7
370
    25
100
AcDbLine
 10
279.3434096901
 20
211.091179994
 30
0.0
 11
279.1136203305
 21
213.8165678577
 31
0.0
  0
LINE
  5
3F0
330
1F
100
AcDbEntity
  8
0
  6
Continuous
 62
     7
370
    25
100
AcDbLine
 10
279.3434096901
 20
211.091179994
 30
0.0
 11
283.7094442693
 21
210.5092858613
 31
0.0
  0
SPLINE
  5
3F1
330
1F
100
AcDbEntity
  8
0
  6
Continuous
 62
     7
370
    25
100
AcDbSpline
210
0.0
220
0.0
230
1.0
 70
     8
 71
     3
 72
    27
 73
    23
 74
     0
 42
0.000000001
 43
0.00000001
 40
0.0
 40
0.0
 40
0.0
 40
0.0
 40
0.0176665221900848
 40
0.0721287955916244
 40
0.1250564873480053
 40
0.17951893731285
 40
0.2324462528266639
 40
0.2869088557938048
 40
0.3398361735020196
 40
0.3942986749854582
 40
0.4472264454525749
 40
0.5016886279823801
 40
0.5546162898972412
 40
0.6090787881031852
 40
0.662006466840787
 40
0.7164687901482154
 40
0.7693965338113733
 40
0.8238590757650214
 40
0.876786571896906
 40
0.9312490082817699
 40
0.9841763765618478
 40
1.0
 40
1.0
 40
1.0
 40
1.0
 10
214.7380386993477
 20
241.0548648824773
 30
0.0
 10
214.7204067562584
 20
241.0427367850966
 30
0.0
 10
214.6484191400607
 20
240.9932202448589
 30
0.0
 10
214.4951181137916
 20
240.9578454467877
 30
0.0
 10
214.2828132961324
 20
240.9514508640698
 30
0.0
 10
214.0552565237146
 20
241.0002150572804
 30
0.0
 10
213.8172292918244
 20
241.0993217628797
 30
0.0
 10
213.578979293518
 20
241.245265698607
 30
0.0
 10
213.3431736211384
 20
241.4362530706999
 30
0.0
 10
213.1207918786651
 20
241.6635885853355
 30
0.0
 10
212.9141621104854
 20
241.9249201342624
 30
0.0
 10
212.7327395313943
 20
242.2080879333843
 30
0.0
 10
212.5783446113011
 20
242.5101448583877
 30
0.0
 10
212.4581770383211
 20
242.8171322254653
 30
0.0
 10
212.3735621860274
 20
243.1259443325002
 30
0.0
 10
212.3284154778182
 20
243.4222497234421
 30
0.0
 10
212.3230663355776
 20
243.7030332503834
 30
0.0
 10
212.3579426555733
 20
243.9549526475261
 30
0.0
 10
212.4320473079079
 20
244.176725870083
 30
0.0
 10
212.5446483660918
 20
244.3533527994649
 30
0.0
 10
212.651168399679
 20
244.4655750733727
 30
0.0
 10
212.7268470817195
 20
244.5004754007833
 30
0.0
 10
212.7442651718004
 20
244.5085080069321
 30
0.0
  0
LINE
  5
3F2
330
1F
100
AcDbEntity
  8
0
  6
Continuous
 62
     7
370
    25
100
AcDbLine
 10
273.17355361
 20
210.387440331
 30
0.0
 11
273.1649914777
 21
210.5555127772
 31
0.0
  0
LINE
  5
3F3
330
1F
100
AcDbEntity
  8
0
  6
Continuous
 62
     7
370
    25
100
AcDbLine
 10
273.1649914777
 20
210.5555127772
 30
0.0
 11
272.4664453958
 21
210.9587748466
 31
0.0
  0
LINE
  5
3F4
330
1F
100
AcDbEntity
  8
0
  6
Continuous
 62
     7
370
    25
100
AcDbLine
 10
296.508076209
 20
225.5711750935
 30
0.0
 11
297.2151844232
 21
225.1629702104
 31
0.0
  0
LWPOLYLINE
  5
3F5
330
1F
100
AcDbEntity
  8
0
  6
Continuous
 62
     7
370
    25
100
AcDbPolyline
 90
       31
 70
   128
 43
0.0
 10
296.508076209
 20
225.5711750935
 10
296.8618378894
 20
226.0342552825
 10
297.2017079684
 20
226.5130461132
 10
297.5264936904
 20
227.0058673788
 10
297.8350570904
 20
227.510992631
 10
298.1263149943
 20
228.0266491804
 10
298.3992463949
 20
228.5510272211
 10
298.6528924513
 20
229.0822883481
 10
298.8863628113
 20
229.618566773
 10
299.0988419333
 20
230.157983925
 10
299.289581711
 20
230.6986478425
 10
299.4579141166
 20
231.2386592561
 10
299.6032469869
 20
231.7761249729
 10
299.7250724526
 20
232.3091603094
 10
299.8229606156
 20
232.8358915254
 10
299.8965721938
 20
233.3544777241
 10
299.9456458769
 20
233.8630962525
 10
299.9700088627
 20
234.3599609517
 10
299.9695789648
 20
234.8433331071
 10
299.9443561833
 20
235.3115141486
 10
299.8944269193
 20
235.7628602516
 10
299.8199681893
 20
236.1957920702
 10
299.721241304
 20
236.608788654
 10
299.5985939749
 20
237.0004032659
 10
299.452451885
 20
237.3692585155
 10
299.2833334407
 20
237.7140621755
 10
299.0918265904
 20
238.0336059675
 10
298.8786077911
 20
238.3267667763
 10
298.6444209347
 20
238.5925188198
 10
298.3900910457
 20
238.8299269554
 10
298.2424664405
 20
238.9477206917
  0
ARC
  5
3F6
330
1F
100
AcDbEntity
  8
0
  6
Continuous
 62
     7
370
    25
100
AcDbCircle
 10
289.6584549013
 20
224.9676750903
 30
0.0
 40
3.57862596511149
100
AcDbArc
 50
247.1413290352
 51
264.180285221
  0
LINE
  5
3F7
330
1F
100
AcDbEntity
  8
0
  6
Continuous
 62
     7
370
    25
100
AcDbLine
 10
289.2955871758
 20
221.4074938011
 30
0.0
 11
290.00269539
 21
220.9992889179
 31
0.0
  0
LINE
  5
3F8
330
1F
100
AcDbEntity
  8
0
  6
Continuous
 62
     7
370
    25
100
AcDbLine
 10
296.508076209
 20
224.8377128936
 30
0.0
 11
296.508076209
 21
225.5711750935
 31
0.0
  0
LINE
  5
3F9
330
1F
100
AcDbEntity
  8
0
  6
Continuous
 62
     7
370
    25
100
AcDbLine
 10
289.9308529257
 20
221.0407627124
 30
0.0
 11
296.508076209
 21
224.8377128936
 31
0.0
  0
LINE
  5
3FA
330
1F
100
AcDbEntity
  8
0
  6
Continuous
 62
     7
370
    25
100
AcDbLine
 10
220.9003336348
 20
218.0306490175
 30
0.0
 11
216.5342994507
 21
217.4487546567
 31
0.0
  0
LINE
  5
3FB
330
1F
100
AcDbEntity
  8
0
  6
Continuous
 62
     7
370
    25
100
AcDbLine
 10
220.9003336348
 20
218.0306490175
 30
0.0
 11
221.1301235212
 21
220.756036577
 31
0.0
  0
LINE
  5
3FC
330
1F
100
AcDbEntity
  8
0
  6
Continuous
 62
     7
370
    25
100
AcDbLine
 10
227.0701897149
 20
217.3269093545
 30
0.0
 11
227.0787518472
 21
217.4949818007
 31
0.0
  0
LINE
  5
3FD
330
1F
100
AcDbEntity
  8
0
  6
Continuous
 62
     7
370
    25
100
AcDbLine
 10
227.0787518472
 20
217.4949818007
 30
0.0
 11
227.7772979291
 21
217.8982438701
 31
0.0
  0
LINE
  5
3FE
330
1F
100
AcDbEntity
  8
0
  6
Continuous
 62
     7
370
    25
100
AcDbLine
 10
303.3850394496
 20
224.9701174327
 30
0.0
 11
303.1552506169
 21
227.6955056005
 31
0.0
  0
LINE
  5
3FF
330
1F
100
AcDbEntity
  8
0
  6
Continuous
 62
     7
370
    25
100
AcDbLine
 10
303.3850394496
 20
224.9701174327
 30
0.0
 11
307.7510757411
 21
224.3882242885
 31
0.0
  0
LINE
  5
400
330
1F
100
AcDbEntity
  8
0
  6
Continuous
 62
     7
370
    25
100
AcDbLine
 10
297.2151844232
 20
224.2663783779
 30
0.0
 11
297.2066222909
 21
224.4344508242
 31
0.0
  0
LINE
  5
401
330
1F
100
AcDbEntity
  8
0
  6
Continuous
 62
     7
370
    25
100
AcDbLine
 10
297.2066222909
 20
224.4344508242
 30
0.0
 11
296.508076209
 21
224.8377128936
 31
0.0
  0
LWPOLYLINE
  5
402
330
1F
100
AcDbEntity
  8
0
  6
Continuous
 62
     7
370
    25
100
AcDbPolyline
 90
       24
 70
   128
 43
0.0
 10
241.6365894242
 20
226.6371951899
 10
241.6497002551
 20
226.7397755637
 10
241.6880602093
 20
226.8196107323
 10
241.7488243744
 20
226.8707797689
 10
241.8274861988
 20
226.8894890618
 10
241.9182104513
 20
226.8743497623
 10
242.0142704947
 20
226.8264830742
 10
242.1085414045
 20
226.7494399947
 10
242.1940310183
 20
226.6489336817
 10
242.2643983429
 20
226.532423377
 10
242.3144266521
 20
226.4085419743
 10
242.3404038622
 20
226.2864846424
 10
242.3404038622
 20
226.175298884
 10
242.3144266521
 20
226.083231767
 10
242.2643983429
 20
226.0171142541
 10
242.1940310183
 20
225.9818458996
 10
242.1085414045
 20
225.9800437938
 10
242.0142704947
 20
226.0118460233
 10
241.9182104513
 20
226.0748879006
 10
241.8274861988
 20
226.1644941599
 10
241.7488243744
 20
226.274024462
 10
241.6880602093
 20
226.3953503104
 10
241.6497002551
 20
226.5194749394
 10
241.6365894242
 20
226.6371951899
  0
LWPOLYLINE
  5
403
330
1F
100
AcDbEntity
  8
0
  6
Continuous
 62
     7
370
    25
100
AcDbPolyline
 90
       14
 70
   128
 43
0.0
 10
241.8108750722
 20
226.9069375027
 10
241.8195362495
 20
226.9116008655
 10
241.8981980739
 20
226.9303101584
 10
241.9889223264
 20
226.9151708589
 10
242.0849823698
 20
226.8673041708
 10
242.1792532795
 20
226.7902610912
 10
242.2647428934
 20
226.6897547783
 10
242.335110218
 20
226.5732444736
 10
242.3851385272
 20
226.4493630709
 10
242.4111157373
 20
226.327305739
 10
242.4111157373
 20
226.2161199806
 10
242.3851385272
 20
226.1240528636
 10
242.335110218
 20
226.0579353507
 10
242.3108346869
 20
226.0408883618
  0
LWPOLYLINE
  5
404
330
1F
100
AcDbEntity
  8
0
  6
Continuous
 62
     7
370
    25
100
AcDbPolyline
 90
       24
 70
   128
 43
0.0
 10
213.3523188089
 20
242.9653570613
 10
213.3654296398
 20
243.0679374352
 10
213.403789594
 20
243.1477726038
 10
213.4645527055
 20
243.1989422487
 10
213.5432145299
 20
243.2176515416
 10
213.633939836
 20
243.2025116338
 10
213.7299998795
 20
243.1546449457
 10
213.8242697355
 20
243.0776024744
 10
213.9097593494
 20
242.9770961614
 10
213.9801277276
 20
242.8605852485
 10
214.0301549832
 20
242.736704454
 10
214.0561321932
 20
242.6146471222
 10
214.0561321932
 20
242.5034613638
 10
214.0301549832
 20
242.4113942468
 10
213.9801277276
 20
242.3452761256
 10
213.9097593494
 20
242.3100083793
 10
213.8242697355
 20
242.3082062735
 10
213.7299998795
 20
242.3400078948
 10
213.633939836
 20
242.4030497721
 10
213.5432145299
 20
242.4926566396
 10
213.4645527055
 20
242.6021869418
 10
213.403789594
 20
242.7235121819
 10
213.3654296398
 20
242.8476368109
 10
213.3523188089
 20
242.9653570613
  0
LWPOLYLINE
  5
405
330
1F
100
AcDbEntity
  8
0
  6
Continuous
 62
     7
370
    25
100
AcDbPolyline
 90
       14
 70
   128
 43
0.0
 10
213.5266044569
 20
243.2350993742
 10
213.5352645806
 20
243.2397633453
 10
213.613926405
 20
243.2584726382
 10
213.7046517111
 20
243.2433327304
 10
213.8007117545
 20
243.1954660422
 10
213.8949816106
 20
243.118423571
 10
213.9804712245
 20
243.017917258
 10
214.0508396027
 20
242.9014063451
 10
214.1008668582
 20
242.7775255506
 10
214.1268440683
 20
242.6554682188
 10
214.1268440683
 20
242.5442824604
 10
214.1008668582
 20
242.4522153434
 10
214.0508396027
 20
242.3860972222
 10
214.0265640717
 20
242.3690502333
  0
LINE
  5
406
330
1F
100
AcDbEntity
  8
0
  6
Continuous
 62
     7
370
    25
100
AcDbLine
 10
273.1028427886
 20
243.5801820372
 30
0.0
 11
273.1028427886
 21
232.9651518721
 31
0.0
  0
LINE
  5
407
330
1F
100
AcDbEntity
  8
0
  6
Continuous
 62
     7
370
    25
100
AcDbLine
 10
256.1322793658
 20
223.1682541409
 30
0.0
 11
273.1028427886
 21
232.9651518721
 31
0.0
  0
LINE
  5
408
330
1F
100
AcDbEntity
  8
0
  6
Continuous
 62
     7
370
    25
100
AcDbLine
 10
256.1322793658
 20
267.2614548679
 30
0.0
 11
256.1322793658
 21
223.1682541409
 31
0.0
  0
LINE
  5
409
330
1F
100
AcDbEntity
  8
0
  6
Continuous
 62
     7
370
    25
100
AcDbLine
 10
256.1322793658
 20
267.2614548679
 30
0.0
 11
312.7008227036
 21
299.9177798274
 31
0.0
  0
LINE
  5
40A
330
1F
100
AcDbEntity
  8
0
  6
Continuous
 62
     7
370
    25
100
AcDbLine
 10
312.7008227036
 20
299.9177798274
 30
0.0
 11
312.7008227036
 21
255.8245791004
 31
0.0
  0
LINE
  5
40B
330
1F
100
AcDbEntity
  8
0
  6
Continuous
 62
     7
370
    25
100
AcDbLine
 10
295.7302592808
 20
246.0276813693
 30
0.0
 11
312.7008227036
 21
255.8245791004
 31
0.0
  0
LINE
  5
40C
330
1F
100
AcDbEntity
  8
0
  6
Continuous
 62
     7
370
    25
100
AcDbLine
 10
295.7302592808
 20
246.0276813693
 30
0.0
 11
295.7302592808
 21
256.6427115344
 31
0.0
  0
LWPOLYLINE
  5
40D
330
1F
100
AcDbEntity
  8
0
  6
Continuous
 62
     7
370
    25
100
AcDbPolyline
 90
       68
 70
   128
 43
0.0
 10
295.7302592808
 20
256.6427115344
 10
295.7178249068
 20
257.2479042793
 10
295.680547073
 20
257.8374070514
 10
295.6185090193
 20
258.4099294895
 10
295.5318456157
 20
258.9642061708
 10
295.4207496841
 20
259.4990245951
 10
295.2854635687
 20
260.013210585
 10
295.1262844049
 20
260.5056215931
 10
294.9435641189
 20
260.9751905049
 10
294.7377031057
 20
261.4208781863
 10
294.5091533903
 20
261.8417045104
 10
294.2584186275
 20
262.2367434902
 10
293.9860488337
 20
262.6051299715
 10
293.6926424941
 20
262.9460559825
 10
293.3788465629
 20
263.2587609996
 10
293.0453485605
 20
263.542571188
 10
292.6928834226
 20
263.7968546862
 10
292.3222245439
 20
264.0210553714
 10
291.9341874658
 20
264.2146803868
 10
291.5296251353
 20
264.3773022724
 10
291.1094268509
 20
264.50856809
 10
290.6745156284
 20
264.6081833017
 10
290.2258482015
 20
264.6759263709
 10
289.7644108062
 20
264.7116609302
 10
289.2912176013
 20
264.715295933
 10
288.8073090869
 20
264.6868334109
 10
288.3137486809
 20
264.6263275613
 10
287.8116211376
 20
264.5339179034
 10
287.3020307045
 20
264.409803879
 10
286.7860971708
 20
264.2542571724
 10
286.2649549451
 20
264.0676211783
 10
285.7397494998
 20
263.8503089488
 10
285.2116353292
 20
263.6027922806
 10
284.6817734803
 20
263.325619758
 10
284.151328589
 20
263.0194004403
 10
283.6214667402
 20
262.684807494
 10
283.0933525696
 20
262.3225765197
 10
282.5681471243
 20
261.9334994494
 10
282.0470048986
 20
261.5184374372
 10
281.5310713648
 20
261.0782999652
 10
281.0214809318
 20
260.6140533992
 10
280.5193533885
 20
260.1267189359
 10
280.0257929824
 20
259.6173720703
 10
279.5418844681
 20
259.0871257141
 10
279.0686912631
 20
258.537153466
 10
278.6072538679
 20
257.9686546305
 10
278.1585864409
 20
257.3828911764
 10
277.7236752185
 20
256.7811381556
 10
277.303476934
 20
256.1647217255
 10
276.8989146035
 20
255.5350021156
 10
276.5108775255
 20
254.8933590261
 10
276.1402186468
 20
254.2412047089
 10
275.7877535089
 20
253.5799736245
 10
275.4542555065
 20
252.9111148386
 10
275.1404595753
 20
252.2361087512
 10
274.8470532357
 20
251.5564229912
 10
274.5746834419
 20
250.8735650396
 10
274.3239486791
 20
250.1890338647
 10
274.0953989637
 20
249.504329656
 10
273.8895379505
 20
248.820959908
 10
273.7068176645
 20
248.1404266444
 10
273.5476385007
 20
247.4642312858
 10
273.4123523853
 20
246.7938472719
 10
273.3012564536
 20
246.1307602151
 10
273.2145930501
 20
245.4764240979
 10
273.1525549964
 20
244.8322740476
 10
273.1152771626
 20
244.1997312047
 10
273.1028427886
 20
243.5801820372
  0
LWPOLYLINE
  5
40E
330
1F
100
AcDbEntity
  8
0
  6
Continuous
 62
     7
370
    25
100
AcDbPolyline
 90
       48
 70
   128
 43
0.0
 10
271.6886284676
 20
272.1592438834
 10
271.6760107548
 20
272.3696298639
 10
271.6383809948
 20
272.5616928608
 10
271.5764114297
 20
272.7319955187
 10
271.4912073608
 20
272.8775256925
 10
271.3842892355
 20
272.9956569049
 10
271.2575663061
 20
273.0842986164
 10
271.1132986973
 20
273.1418548595
 10
270.9540605279
 20
273.1673197566
 10
270.7826946029
 20
273.1602221624
 10
270.602258676
 20
273.120691981
 10
270.415971713
 20
273.0494388788
 10
270.2271591
 20
272.9477303872
 10
270.0391904777
 20
272.8173754836
 10
269.8554186278
 20
272.6607185124
 10
269.6791236288
 20
272.4805388099
 10
269.513451743
 20
272.2800543597
 10
269.3613595718
 20
272.0628506191
 10
269.2255613722
 20
271.8327917016
 10
269.1084784807
 20
271.5939911801
 10
269.0122034884
 20
271.3507135341
 10
268.9384517718
 20
271.1072877658
 10
268.8885404201
 20
270.8680757668
 10
268.8633597855
 20
270.6373293535
 10
268.8633597855
 20
270.4191726263
 10
268.8885404201
 20
270.217499155
 10
268.9384517718
 20
270.035908709
 10
269.0122034884
 20
269.8776397271
 10
269.1084784807
 20
269.7455188212
 10
269.2255613722
 20
269.6418993288
 10
269.3613595718
 20
269.5686345422
 10
269.513451743
 20
269.5270278177
 10
269.6791236288
 20
269.5178289223
 10
269.8554186278
 20
269.541195093
 10
270.0391904777
 20
269.5967117164
 10
270.2271591
 20
269.6833856316
 10
270.415971713
 20
269.7996755428
 10
270.602258676
 20
269.9434999229
 10
270.7826946029
 20
270.1123014953
 10
270.9540605279
 20
270.3030587866
 10
271.1132986973
 20
270.5123664268
 10
271.2575663061
 20
270.7365002394
 10
271.3842892355
 20
270.9714531309
 10
271.4912073608
 20
271.2130293832
 10
271.5764114297
 20
271.4569243471
 10
271.6383809948
 20
271.6987852758
 10
271.6760107548
 20
271.9342898019
 10
271.6886284676
 20
272.1592438834
  0
LWPOLYLINE
  5
40F
330
1F
100
AcDbEntity
  8
0
  6
Continuous
 62
     7
370
    25
100
AcDbPolyline
 90
       48
 70
   128
 43
0.0
 10
299.9729001365
 20
288.4874063632
 10
299.96028137
 20
288.6977917354
 10
299.92265161
 20
288.8898547322
 10
299.860682045
 20
289.0601573902
 10
299.775477976
 20
289.205687564
 10
299.6685609044
 20
289.3238193847
 10
299.5418369213
 20
289.4124604879
 10
299.3975693125
 20
289.470016731
 10
299.2383321968
 20
289.4954822364
 10
299.0669662718
 20
289.4883846421
 10
298.886530345
 20
289.4488544608
 10
298.7002433819
 20
289.3776013585
 10
298.5114307689
 20
289.275892867
 10
298.3234610929
 20
289.1455373551
 10
298.139689243
 20
288.9888803839
 10
297.9633952977
 20
288.8087012896
 10
297.7977234119
 20
288.6082168395
 10
297.6456312407
 20
288.3910130989
 10
297.5098319875
 20
288.1609535731
 10
297.3927501497
 20
287.9221536599
 10
297.2964741036
 20
287.6788754056
 10
297.2227223871
 20
287.4354496373
 10
297.1728110354
 20
287.1962376383
 10
297.1476314544
 20
286.9654918333
 10
297.1476314544
 20
286.747335106
 10
297.1728110354
 20
286.5456610265
 10
297.2227223871
 20
286.3640705805
 10
297.2964741036
 20
286.2058015985
 10
297.3927501497
 20
286.073681301
 10
297.5098319875
 20
285.9700612003
 10
297.6456312407
 20
285.8967970219
 10
297.7977234119
 20
285.8551902975
 10
297.9633952977
 20
285.8459914021
 10
298.139689243
 20
285.8693569645
 10
298.3234610929
 20
285.9248735879
 10
298.5114307689
 20
286.0115481113
 10
298.7002433819
 20
286.1278380225
 10
298.886530345
 20
286.2716624027
 10
299.0669662718
 20
286.4404639751
 10
299.2383321968
 20
286.6312212664
 10
299.3975693125
 20
286.8405282983
 10
299.5418369213
 20
287.0646621109
 10
299.6685609044
 20
287.2996156106
 10
299.775477976
 20
287.5411912547
 10
299.860682045
 20
287.7850862186
 10
299.92265161
 20
288.0269471473
 10
299.96028137
 20
288.2624516733
 10
299.9729001365
 20
288.4874063632
  0
LINE
  5
410
330
1F
100
AcDbEntity
  8
0
  6
Continuous
 62
     7
370
    25
100
AcDbLine
 10
205.2205890973
 20
299.9177798274
 30
0.0
 11
256.1322793658
 21
270.5270866339
 31
0.0
  0
LINE
  5
411
330
1F
100
AcDbEntity
  8
0
  6
Continuous
 62
     7
370
    25
100
AcDbLine
 10
256.1322793658
 20
270.5270866339
 30
0.0
 11
307.0439696342
 21
299.9177798274
 31
0.0
  0
LINE
  5
412
330
1F
100
AcDbEntity
  8
0
  6
Continuous
 62
     7
370
    25
100
AcDbLine
 10
199.5637360279
 20
299.9177798274
 30
0.0
 11
256.1322793658
 21
267.2614548679
 31
0.0
  0
LINE
  5
413
330
1F
100
AcDbEntity
  8
0
  6
Continuous
 62
     7
370
    25
100
AcDbLine
 10
256.1322793658
 20
332.5741047869
 30
0.0
 11
199.5637360279
 21
299.9177798274
 31
0.0
  0
LINE
  5
414
330
1F
100
AcDbEntity
  8
0
  6
Continuous
 62
     7
370
    25
100
AcDbLine
 10
312.7008227036
 20
299.9177798274
 30
0.0
 11
256.1322793658
 21
332.5741047869
 31
0.0
  0
LINE
  5
415
330
1F
100
AcDbEntity
  8
0
  6
Continuous
 62
     7
370
    25
100
AcDbLine
 10
228.5551144622
 20
249.703242739
 30
0.0
 11
228.5551144622
 21
239.0882125739
 31
0.0
  0
LINE
  5
416
330
1F
100
AcDbEntity
  8
0
  6
Continuous
 62
     7
370
    25
100
AcDbLine
 10
227.1409009314
 20
239.9046206675
 30
0.0
 11
228.5551144622
 21
239.0882125739
 31
0.0
  0
LINE
  5
417
330
1F
100
AcDbEntity
  8
0
  6
Continuous
 62
     7
370
    25
100
AcDbLine
 10
227.1409009314
 20
239.9046206675
 30
0.0
 11
227.1409009314
 21
250.5196508326
 31
0.0
  0
LWPOLYLINE
  5
418
330
1F
100
AcDbEntity
  8
0
  6
Continuous
 62
     7
370
    25
100
AcDbPolyline
 90
       68
 70
   128
 43
0.0
 10
227.1409009314
 20
250.5196508326
 10
227.1284658989
 20
251.1392003802
 10
227.0911882626
 20
251.7717431091
 10
227.0291499456
 20
252.4158933115
 10
226.9424872664
 20
253.0702290105
 10
226.831390742
 20
253.7333164094
 10
226.6961045608
 20
254.4037004613
 10
226.5369261873
 20
255.0798953638
 10
226.3542055061
 20
255.7604288554
 10
226.1483442295
 20
256.4437987555
 10
225.9197947775
 20
257.1285028121
 10
225.6690594879
 20
257.8130342912
 10
225.3966898258
 20
258.4958921667
 10
225.1032842764
 20
259.1755774705
 10
224.7894878184
 20
259.850583862
 10
224.4559900794
 20
260.519442496
 10
224.1035246781
 20
261.1806737324
 10
223.7328660628
 20
261.8328278976
 10
223.3448287213
 20
262.4744711391
 10
222.9402663908
 20
263.104190749
 10
222.5200681064
 20
263.7206071791
 10
222.0851568839
 20
264.3223601999
 10
221.6364899838
 20
264.9081233498
 10
221.1750525886
 20
265.4766221854
 10
220.7018593837
 20
266.0265944335
 10
220.2179503425
 20
266.5568410938
 10
219.7243901998
 20
267.0661878073
 10
219.2222626565
 20
267.5535222706
 10
218.7126719601
 20
268.0177689887
 10
218.1967386897
 20
268.4579063086
 10
217.6755960689
 20
268.872968549
 10
217.1503904919
 20
269.2620456952
 10
216.6222767823
 20
269.6242764035
 10
216.0924150322
 20
269.9588692927
 10
215.5619695482
 20
270.2650889525
 10
215.0321077981
 20
270.5422614182
 10
214.5039940886
 20
270.7897778202
 10
213.9787885115
 20
271.0070901258
 10
213.4576458907
 20
271.1937263479
 10
212.9417126204
 20
271.3492729024
 10
212.4321224507
 20
271.4733867748
 10
211.9299943806
 20
271.5657967369
 10
211.4364347648
 20
271.6263021303
 10
210.9525257236
 20
271.6547649564
 10
210.4793325187
 20
271.6511299537
 10
210.0178951234
 20
271.6153953944
 10
209.5692271696
 20
271.5476526293
 10
209.1343159472
 20
271.4480374176
 10
208.7141181896
 20
271.3167712959
 10
208.3095569127
 20
271.154148802
 10
207.9215193079
 20
270.9605240907
 10
207.550860956
 20
270.7363231015
 10
207.1983952913
 20
270.4820399073
 10
206.8648978157
 20
270.1982294148
 10
206.5510997771
 20
269.8855256143
 10
206.2576944912
 20
269.544598995
 10
205.9853246974
 20
269.1762125137
 10
205.7345909883
 20
268.7811729256
 10
205.5060412729
 20
268.3603466015
 10
205.300179206
 20
267.9146595284
 10
205.1174578663
 20
267.4450912249
 10
204.9582797562
 20
266.9526796085
 10
204.8229946945
 20
266.4384930104
 10
204.7118977092
 20
265.9036751943
 10
204.6252353593
 20
265.3493979048
 10
204.5631973056
 20
264.7768754666
 10
204.5259184181
 20
264.1873733027
 10
204.5134829904
 20
263.5821811662
  0
LINE
  5
419
330
1F
100
AcDbEntity
  8
0
  6
Continuous
 62
     7
370
    25
100
AcDbLine
 10
204.5134829904
 20
263.5821811662
 30
0.0
 11
204.5134829904
 21
252.967151001
 31
0.0
  0
LINE
  5
41A
330
1F
100
AcDbEntity
  8
0
  6
Continuous
 62
     7
370
    25
100
AcDbLine
 10
199.5637360279
 20
255.8245791004
 30
0.0
 11
204.5134829904
 21
252.967151001
 31
0.0
  0
LINE
  5
41B
330
1F
100
AcDbEntity
  8
0
  6
Continuous
 62
     7
370
    25
100
AcDbLine
 10
199.5637360279
 20
299.9177798274
 30
0.0
 11
199.5637360279
 21
255.8245791004
 31
0.0
  0
LINE
  5
41C
330
1F
100
AcDbEntity
  8
0
  6
Continuous
 62
     7
370
    25
100
AcDbLine
 10
251.1825324032
 20
226.0256822403
 30
0.0
 11
256.1322793658
 21
223.1682541409
 31
0.0
  0
LINE
  5
41D
330
1F
100
AcDbEntity
  8
0
  6
Continuous
 62
     7
370
    25
100
AcDbLine
 10
251.1825324032
 20
226.0256822403
 30
0.0
 11
251.1825324032
 21
236.6407124055
 31
0.0
  0
LWPOLYLINE
  5
41E
330
1F
100
AcDbEntity
  8
0
  6
Continuous
 62
     7
370
    25
100
AcDbPolyline
 90
       68
 70
   128
 43
0.0
 10
251.1825324032
 20
236.6407124055
 10
251.1700969756
 20
237.2602621812
 10
251.132818088
 20
237.8928056324
 10
251.0707800344
 20
238.5369556827
 10
250.9841176845
 20
239.1912911917
 10
250.8730206991
 20
239.8543788567
 10
250.7377356374
 20
240.5247622623
 10
250.5785575273
 20
241.2009570127
 10
250.3958361876
 20
241.8814908845
 10
250.1899741208
 20
242.5648612408
 10
249.9614244054
 20
243.2495654495
 10
249.7106906962
 20
243.9340960161
 10
249.4383209024
 20
244.6169539677
 10
249.1449156165
 20
245.2966391194
 10
248.8311175779
 20
245.9716464233
 10
248.4976201024
 20
246.6405049052
 10
248.1451544377
 20
247.3017362937
 10
247.7744960858
 20
247.9538903068
 10
247.3864584809
 20
248.5955337004
 10
246.9818972041
 20
249.2252527021
 10
246.5616994464
 20
249.841668828
 10
246.126788224
 20
250.4434218488
 10
245.6781202702
 20
251.029185607
 10
245.216682875
 20
251.5976844425
 10
244.74348967
 20
252.1476566906
 10
244.2595806289
 20
252.6779033509
 10
243.766021013
 20
253.1872497603
 10
243.2638929429
 20
253.6745845278
 10
242.7543027733
 20
254.1388309417
 10
242.2383695029
 20
254.5789682617
 10
241.7172268821
 20
254.994030502
 10
241.1920213051
 20
255.3831076483
 10
240.6639075955
 20
255.7453383565
 10
240.1340458454
 20
256.0799312457
 10
239.6036003615
 20
256.3861509056
 10
239.0737386113
 20
256.6633233712
 10
238.5456249018
 20
256.9108397732
 10
238.0204193248
 20
257.1281520788
 10
237.4992767039
 20
257.314788301
 10
236.9833434336
 20
257.4703348555
 10
236.4737527371
 20
257.594449032
 10
235.9716251938
 20
257.6868586899
 10
235.4780650512
 20
257.7473643874
 10
234.99415601
 20
257.7758272136
 10
234.520962805
 20
257.7721922108
 10
234.0595254098
 20
257.7364576516
 10
233.6108585097
 20
257.6687142782
 10
233.1759472873
 20
257.5690990665
 10
232.7557490028
 20
257.437833249
 10
232.3511866723
 20
257.2752113633
 10
231.9631493308
 20
257.0815864999
 10
231.5924907155
 20
256.8573856628
 10
231.2400253142
 20
256.6031023165
 10
230.9065275753
 20
256.3192919761
 10
230.5927311172
 20
256.0065872632
 10
230.2993255679
 20
255.665660796
 10
230.0269559058
 20
255.2972742386
 10
229.7762206161
 20
254.9022355629
 10
229.5476711641
 20
254.4814090868
 10
229.3418098875
 20
254.0357215575
 10
229.1590892064
 20
253.5661528738
 10
228.9999108328
 20
253.0737414095
 10
228.8646246516
 20
252.5595554576
 10
228.7535281273
 20
252.0247373755
 10
228.6668654481
 20
251.470460276
 10
228.604827131
 20
250.8979379899
 10
228.5675494947
 20
250.3084351037
 10
228.5551144622
 20
249.703242739
  0
LINE
  5
41F
330
1F
100
AcDbEntity
  8
0
  6
Continuous
 62
     7
370
    25
100
AcDbLine
 10
205.2205890973
 20
299.9177798274
 30
0.0
 11
205.5034323829
 21
302.7756796774
 31
0.0
  0
LINE
  5
420
330
1F
100
AcDbEntity
  8
0
  6
Continuous
 62
     7
370
    25
100
AcDbLine
 10
205.5034323829
 20
302.7756796774
 30
0.0
 11
256.1322793658
 21
273.5482684372
 31
0.0
  0
LINE
  5
421
330
1F
100
AcDbEntity
  8
0
  6
Continuous
 62
     7
370
    25
100
AcDbLine
 10
256.1322793658
 20
273.5482684372
 30
0.0
 11
256.1322793658
 21
270.5270866339
 31
0.0
  0
LINE
  5
422
330
1F
100
AcDbEntity
  8
0
  6
Continuous
 62
     7
370
    25
100
AcDbLine
 10
306.7611263486
 20
302.7756796774
 30
0.0
 11
307.0439696342
 21
299.9177798274
 31
0.0
  0
LINE
  5
423
330
1F
100
AcDbEntity
  8
0
  6
Continuous
 62
     7
370
    25
100
AcDbLine
 10
306.7611263486
 20
302.7756796774
 30
0.0
 11
256.1322793658
 21
273.5482684372
 31
0.0
  0
LINE
  5
424
330
1F
100
AcDbEntity
  8
0
  6
Continuous
 62
     7
370
    25
100
AcDbLine
 10
256.1322793658
 20
332.0030909177
 30
0.0
 11
255.2305032877
 21
331.4825066687
 31
0.0
  0
LINE
  5
425
330
1F
100
AcDbEntity
  8
0
  6
Continuous
 62
     7
370
    25
100
AcDbLine
 10
206.8295408245
 20
303.5412257856
 30
0.0
 11
205.5034323829
 21
302.7756796774
 31
0.0
  0
LINE
  5
426
330
1F
100
AcDbEntity
  8
0
  6
Continuous
 62
     7
370
    25
100
AcDbLine
 10
256.1322793658
 20
332.0030909177
 30
0.0
 11
257.0340554438
 21
331.4825066687
 31
0.0
  0
LINE
  5
427
330
1F
100
AcDbEntity
  8
0
  6
Continuous
 62
     7
370
    25
100
AcDbLine
 10
305.435017907
 20
303.5412257856
 30
0.0
 11
306.7611263486
 21
302.7756796774
 31
0.0
  0
SPLINE
  5
428
330
1F
100
AcDbEntity
  8
0
  6
Continuous
 62
     7
370
    25
100
AcDbSpline
210
0.0
220
0.0
230
1.0
 70
     8
 71
     3
 72
    27
 73
    23
 74
     0
 42
0.000000001
 43
0.00000001
 40
0.0
 40
0.0
 40
0.0
 40
0.0
 40
0.0176667074702083
 40
0.0721291817552213
 40
0.1250564557128122
 40
0.179519060163802
 40
0.2324466215810975
 40
0.2869090127277588
 40
0.3398365739085712
 40
0.3942990356483039
 40
0.4472263313347474
 40
0.5016888327274319
 40
0.5546161411941394
 40
0.6090790606062091
 40
0.6620063055337493
 40
0.7164695724161259
 40
0.7693968572818192
 40
0.8238599147408612
 40
0.8767874215939393
 40
0.9312498690109201
 40
0.9841768707083643
 40
1.0
 40
1.0
 40
1.0
 40
1.0
 10
269.2422494168977
 20
269.6364486380946
 30
0.0
 10
269.2598809279135
 20
269.6243193940188
 30
0.0
 10
269.3318664104841
 20
269.5747984262908
 30
0.0
 10
269.4851695952718
 20
269.5394271439976
 30
0.0
 10
269.6974748280341
 20
269.5330353076466
 30
0.0
 10
269.9250304163881
 20
269.5817950027264
 30
0.0
 10
270.1630582821014
 20
269.6809021087938
 30
0.0
 10
270.4013082404716
 20
269.8268504444766
 30
0.0
 10
270.637114634009
 20
270.017835175312
 30
0.0
 10
270.859493461338
 20
270.2451753596487
 30
0.0
 10
271.0661271761757
 20
270.5065006969112
 30
0.0
 10
271.2475457548944
 20
270.7896706186627
 30
0.0
 10
271.4019440757689
 20
271.0917267012937
 30
0.0
 10
271.5221086537093
 20
271.3987137823312
 30
0.0
 10
271.6067262463833
 20
271.7075278045723
 30
0.0
 10
271.6518705219531
 20
272.0038324328744
 30
0.0
 10
271.6572224902066
 20
272.2846190690953
 30
0.0
 10
271.622344204269
 20
272.5365372535717
 30
0.0
 10
271.5482398226643
 20
272.7583114758467
 30
0.0
 10
271.4356391377655
 20
272.9349381598162
 30
0.0
 10
271.3291192227599
 20
273.0471589725163
 30
0.0
 10
271.2534406772302
 20
273.0820573272273
 30
0.0
 10
271.236022944445
 20
273.0900893290681
 30
0.0
  0
LWPOLYLINE
  5
429
330
1F
100
AcDbEntity
  8
0
  6
Continuous
 62
     7
370
    25
100
AcDbPolyline
 90
       22
 70
   128
 43
0.0
 10
238.049523831
 20
257.1168716727
 10
237.7828770524
 20
257.0926046164
 10
237.3680814671
 20
257.027394025
 10
236.9674171932
 20
256.9297686601
 10
236.5819479119
 20
256.7999905248
 10
236.2126951574
 20
256.6383994899
 10
235.8606377903
 20
256.4454330653
 10
235.5267104169
 20
256.2215981114
 10
235.211798121
 20
255.9674836135
 10
234.9167354103
 20
255.6837710248
 10
234.6423054258
 20
255.3712103872
 10
234.389235991
 20
255.0306274797
 10
234.1581975042
 20
254.6629250346
 10
233.949803202
 20
254.2690825857
 10
233.764605735
 20
253.850143844
 10
233.6030958505
 20
253.4072174584
 10
233.4657021293
 20
252.9414771677
 10
233.3527886147
 20
252.4541631687
 10
233.2646550764
 20
251.9465624971
 10
233.2015351658
 20
251.4200246921
 10
233.1635958899
 20
250.8759426334
 10
233.150938401
 20
250.3157618183
  0
LWPOLYLINE
  5
42A
330
1F
100
AcDbEntity
  8
0
  6
Continuous
 62
     7
370
    25
100
AcDbPolyline
 90
       89
 70
   128
 43
0.0
 10
246.3034941547
 20
235.6992788003
 10
246.6572558351
 20
235.7539156639
 10
246.9971259141
 20
235.8402984205
 10
247.3219116361
 20
235.9581325068
 10
247.6304750361
 20
236.1069992573
 10
247.92173294
 20
236.2863753719
 10
248.1946643406
 20
236.4956335251
 10
248.448310397
 20
236.7340374987
 10
248.681780757
 20
237.0007580005
 10
248.894259879
 20
237.2948544134
 10
249.0849996567
 20
237.6152936545
 10
249.2533320623
 20
237.9609526095
 10
249.3986649326
 20
238.3306205659
 10
249.5204903983
 20
238.7229992138
 10
249.6183785613
 20
239.1367111624
 10
249.6919901395
 20
239.5703072419
 10
249.7410638226
 20
240.0222689354
 10
249.7654268084
 20
240.4910022964
 10
249.7649969105
 20
240.9748708013
 10
249.739774129
 20
241.4721758799
 10
249.6898448649
 20
241.9811690842
 10
249.615386135
 20
242.5000691224
 10
249.5166592497
 20
243.0270509083
 10
249.3940119206
 20
243.5602686788
 10
249.2478698307
 20
244.0978559937
 10
249.0787513864
 20
244.6379220869
 10
248.8872445361
 20
245.1785749817
 10
248.6740257368
 20
245.7179154096
 10
248.4398388804
 20
246.2540489752
 10
248.1855089914
 20
246.7851025837
 10
247.9119264221
 20
247.3092092302
 10
247.6200500131
 20
247.8245305095
 10
247.3109049866
 20
248.329257833
 10
246.9855755703
 20
248.821621553
 10
246.6452028901
 20
249.2998970469
 10
246.2909818091
 20
249.7624016745
 10
245.9241535521
 20
250.207513637
 10
245.5460057052
 20
250.6336719769
 10
245.1578637869
 20
251.0393863115
 10
244.7610912476
 20
251.4232319653
 10
244.3570778799
 20
251.7838566616
 10
243.9472429786
 20
252.1200030321
 10
243.5330226978
 20
252.4304867145
 10
243.1158700499
 20
252.7142158206
 10
242.6972496381
 20
252.970203711
 10
242.2786292263
 20
253.1975446601
 10
241.8614765785
 20
253.3954497494
 10
241.4472562976
 20
253.5632146234
 10
241.0374203427
 20
253.7002541661
 10
240.6334080286
 20
253.806092767
 10
240.2366344357
 20
253.8803515443
 10
239.8484935711
 20
253.9227757214
 10
239.4703457242
 20
253.9332175922
 10
239.1035174672
 20
253.9116365202
 10
238.7492958594
 20
253.8581071515
 10
238.4089231791
 20
253.7728175893
 10
238.0835937628
 20
253.6560712181
 10
237.7744492632
 20
253.5082748406
 10
237.482573381
 20
253.3299465858
 10
237.208989758
 20
253.1217122587
 10
236.9546593422
 20
252.8843019938
 10
236.7204735394
 20
252.618554209
 10
236.5072536865
 20
252.325391575
 10
236.3157478899
 20
252.0058471747
 10
236.1466283919
 20
251.6610416894
 10
236.0004878825
 20
251.2921855274
 10
235.8778389728
 20
250.9005742615
 10
235.7791126144
 20
250.487579807
 10
235.7046544113
 20
250.0546476842
 10
235.654725674
 20
249.6033012771
 10
235.6295018389
 20
249.1351184104
 10
235.6290714142
 20
248.6517465592
 10
235.6534359805
 20
248.154883381
 10
235.7025091367
 20
247.6462627232
 10
235.7761201881
 20
247.1276768287
 10
235.8740094048
 20
246.6009450045
 10
235.9958348704
 20
246.067909668
 10
236.1411677408
 20
245.5304439511
 10
236.3094996196
 20
244.9904328417
 10
236.5002393972
 20
244.4497701409
 10
236.7127174656
 20
243.9103511637
 10
236.9461888793
 20
243.3740709138
 10
237.1998349356
 20
242.842813437
 10
237.4727658094
 20
242.3184357004
 10
237.7640237134
 20
241.8027803678
 10
238.0725871133
 20
241.2976538988
 10
238.3973733621
 20
240.8048298957
 10
238.7372434412
 20
240.3260414984
 10
239.0910051215
 20
239.8629600927
  0
LINE
  5
42B
330
1F
100
AcDbEntity
  8
0
  6
Continuous
 62
     7
370
    25
100
AcDbLine
 10
239.0910051215
 20
239.8629600927
 30
0.0
 11
239.0910051215
 21
238.9663682603
 31
0.0
  0
LINE
  5
42C
330
1F
100
AcDbEntity
  8
0
  6
Continuous
 62
     7
370
    25
100
AcDbLine
 10
233.150938401
 20
242.395495787
 30
0.0
 11
239.0910051215
 21
238.9663682603
 31
0.0
  0
LINE
  5
42D
330
1F
100
AcDbEntity
  8
0
  6
Continuous
 62
     7
370
    25
100
AcDbLine
 10
233.150938401
 20
250.3157618183
 30
0.0
 11
233.150938401
 21
242.395495787
 31
0.0
  0
LINE
  5
42E
330
1F
100
AcDbEntity
  8
0
  6
Continuous
 62
     7
370
    25
100
AcDbLine
 10
246.3034941547
 20
234.8026869678
 30
0.0
 11
251.1825302959
 21
231.9860793567
 31
0.0
  0
LINE
  5
42F
330
1F
100
AcDbEntity
  8
0
  6
Continuous
 62
     7
370
    25
100
AcDbLine
 10
246.3034941547
 20
234.8026869678
 30
0.0
 11
246.3034941547
 21
235.6992788003
 31
0.0
  0
LINE
  5
430
330
1F
100
AcDbEntity
  8
0
  6
Continuous
 62
     7
370
    25
100
AcDbLine
 10
247.0106023689
 20
236.1074836834
 30
0.0
 11
246.3034941547
 21
235.6992788003
 31
0.0
  0
ARC
  5
431
330
1F
100
AcDbEntity
  8
0
  6
Continuous
 62
     7
370
    25
100
AcDbCircle
 10
246.6471766621
 20
239.6698630706
 30
0.0
 40
3.580869327772768
100
AcDbArc
 50
275.8250304945
 51
292.853227849
  0
LWPOLYLINE
  5
432
330
1F
100
AcDbEntity
  8
0
  6
Continuous
 62
     7
370
    25
100
AcDbPolyline
 90
       31
 70
   128
 43
0.0
 10
238.0637231043
 20
253.647710574
 10
237.9160979722
 20
253.5299171418
 10
237.6617675563
 20
253.2925068769
 10
237.4275817536
 20
253.0267590921
 10
237.2143619007
 20
252.7335964581
 10
237.0228561041
 20
252.4140520579
 10
236.8537366061
 20
252.0692465726
 10
236.7075960967
 20
251.7003904106
 10
236.584947187
 20
251.3087791446
 10
236.4862208286
 20
250.8957846901
 10
236.4117626255
 20
250.4628525674
 10
236.3618338882
 20
250.0115061602
 10
236.3366100531
 20
249.5433232935
 10
236.3361796284
 20
249.0599514423
 10
236.3605441947
 20
248.5630882642
 10
236.4096173509
 20
248.0544676064
 10
236.4832284023
 20
247.5358817119
 10
236.581117619
 20
247.0091498876
 10
236.7029430846
 20
246.4761145511
 10
236.848275955
 20
245.9386488343
 10
237.0166078338
 20
245.3986377248
 10
237.2073476114
 20
244.8579750241
 10
237.4198256798
 20
244.3185560469
 10
237.6532970935
 20
243.7822757969
 10
237.9069431498
 20
243.2510183202
 10
238.1798740236
 20
242.7266405836
 10
238.4711319275
 20
242.2109852509
 10
238.7796953275
 20
241.705858782
 10
239.1044815763
 20
241.2130347788
 10
239.4443516554
 20
240.7342463816
 10
239.7981133357
 20
240.2711649759
  0
LINE
  5
433
330
1F
100
AcDbEntity
  8
0
  6
Continuous
 62
     7
370
    25
100
AcDbLine
 10
239.7981133357
 20
240.2711649759
 30
0.0
 11
239.0910051215
 21
239.8629600927
 31
0.0
  0
LINE
  5
434
330
1F
100
AcDbEntity
  8
0
  6
Continuous
 62
     7
370
    25
100
AcDbLine
 10
239.7981133357
 20
240.2711649759
 30
0.0
 11
239.7981133357
 21
239.5377039926
 31
0.0
  0
LINE
  5
435
330
1F
100
AcDbEntity
  8
0
  6
Continuous
 62
     7
370
    25
100
AcDbLine
 10
239.7981133357
 20
239.5377039926
 30
0.0
 11
246.375336619
 21
235.7407538115
 31
0.0
  0
LWPOLYLINE
  5
436
330
1F
100
AcDbEntity
  8
0
  6
Continuous
 62
     7
370
    25
100
AcDbPolyline
 90
       22
 70
   128
 43
0.0
 10
291.1344352103
 20
257.2552305376
 10
291.1217785116
 20
257.815411809
 10
291.0838389723
 20
258.3594937156
 10
291.0207187983
 20
258.8860313685
 10
290.9325855234
 20
259.3936321922
 10
290.8196720089
 20
259.8809461911
 10
290.6822785511
 20
260.346686634
 10
290.5207686666
 20
260.7896130195
 10
290.3355706727
 20
261.2085514571
 10
290.1271766339
 20
261.6023940581
 10
289.8961381471
 20
261.9700965032
 10
289.6430684489
 20
262.3106792587
 10
289.3686387278
 20
262.6232400483
 10
289.0735760171
 20
262.906952637
 10
288.7586637212
 20
263.1610671348
 10
288.424735821
 20
263.3849017847
 10
288.0726789807
 20
263.5778685133
 10
287.7034262262
 20
263.7394595483
 10
287.3179569449
 20
263.8692376836
 10
286.9172926711
 20
263.9668630485
 10
286.5024965589
 20
264.0320733357
 10
286.2358503071
 20
264.0563406962
  0
LWPOLYLINE
  5
437
330
1F
100
AcDbEntity
  8
0
  6
Continuous
 62
     7
370
    25
100
AcDbPolyline
 90
       89
 70
   128
 43
0.0
 10
285.1943690166
 20
246.8024291162
 10
285.5481306969
 20
247.2655105219
 10
285.888000776
 20
247.7442989192
 10
286.2127870248
 20
248.2371229223
 10
286.5213504248
 20
248.7422493913
 10
286.8126083287
 20
249.2579047239
 10
287.0855386756
 20
249.7822821564
 10
287.339184732
 20
250.3135396331
 10
287.5726566725
 20
250.8498201872
 10
287.7851347409
 20
251.3892391644
 10
287.9758745185
 20
251.9299018652
 10
288.1442058705
 20
252.4699126705
 10
288.2895392677
 20
253.0073786914
 10
288.4113647333
 20
253.540414028
 10
288.50925395
 20
254.0671458522
 10
288.5828650014
 20
254.5857317467
 10
288.6319381576
 20
255.0943524045
 10
288.6563027239
 20
255.5912155827
 10
288.6558717724
 20
256.0745871297
 10
288.6306484641
 20
256.5427703006
 10
288.5807197268
 20
256.9941167077
 10
288.5062615237
 20
257.4270488305
 10
288.4075351653
 20
257.8400432849
 10
288.2848862556
 20
258.2316545509
 10
288.1387457462
 20
258.6005107129
 10
287.9696262482
 20
258.9453161982
 10
287.7781204516
 20
259.2648605984
 10
287.5649005987
 20
259.5580232325
 10
287.330714796
 20
259.8237710173
 10
287.0763838533
 20
260.061180978
 10
286.8028007571
 20
260.2694156093
 10
286.5109248749
 20
260.447743864
 10
286.2017803753
 20
260.5955402415
 10
285.876450959
 20
260.7122866128
 10
285.5360782788
 20
260.797576175
 10
285.181856671
 20
260.8511055436
 10
284.8150284139
 20
260.8726866157
 10
284.4368803036
 20
260.8622445928
 10
284.0487391756
 20
260.8198202636
 10
283.6519659778
 20
260.7455617145
 10
283.2479531368
 20
260.6397228094
 10
282.8381177088
 20
260.5026835708
 10
282.4238973621
 20
260.3349186588
 10
282.0067451752
 20
260.1370138357
 10
281.5881245
 20
259.9096727345
 10
281.1695038248
 20
259.653684692
 10
280.7523516379
 20
259.3699558521
 10
280.3381312912
 20
259.0594721316
 10
279.9282958631
 20
258.723325457
 10
279.5242830222
 20
258.3627010648
 10
279.1275098244
 20
257.9788550308
 10
278.7393686963
 20
257.5731411525
 10
278.3612205861
 20
257.1469826605
 10
277.994392329
 20
256.701870698
 10
277.6401707212
 20
256.2393657663
 10
277.299798041
 20
255.7610902724
 10
276.9744686247
 20
255.2687265523
 10
276.665324125
 20
254.763999533
 10
276.3734482429
 20
254.2486785578
 10
276.0998651467
 20
253.7245716072
 10
275.845534204
 20
253.1935173904
 10
275.6113484013
 20
252.6573844331
 10
275.3981285483
 20
252.118043397
 10
275.2066227518
 20
251.5773911104
 10
275.0375032537
 20
251.0373244089
 10
274.8913627444
 20
250.4997380064
 10
274.7687138347
 20
249.9665193235
 10
274.6699874763
 20
249.4395378418
 10
274.5955292732
 20
248.9206381077
 10
274.5456005359
 20
248.4116452075
 10
274.5203772276
 20
247.9143398247
 10
274.5199462761
 20
247.4304707117
 10
274.5443108423
 20
246.961738263
 10
274.5933839986
 20
246.5097762653
 10
274.66699505
 20
246.0761798817
 10
274.7648842667
 20
245.6624685414
 10
274.8867097323
 20
245.2700898935
 10
275.0320431295
 20
244.9004222413
 10
275.2003744815
 20
244.554762678
 10
275.3911142591
 20
244.2343234369
 10
275.6035923275
 20
243.9402264157
 10
275.837064268
 20
243.6735068263
 10
276.0907103244
 20
243.4351028527
 10
276.3636406713
 20
243.2258440913
 10
276.6548985752
 20
243.0464679766
 10
276.9634619752
 20
242.8976012261
 10
277.288248224
 20
242.7797674439
 10
277.6281183031
 20
242.6933846874
 10
277.9818799834
 20
242.6387478238
  0
LINE
  5
438
330
1F
100
AcDbEntity
  8
0
  6
Continuous
 62
     7
370
    25
100
AcDbLine
 10
277.9818799834
 20
242.6387478238
 30
0.0
 11
277.9818799834
 21
241.7421559913
 31
0.0
  0
LINE
  5
439
330
1F
100
AcDbEntity
  8
0
  6
Continuous
 62
     7
370
    25
100
AcDbLine
 10
273.1028433154
 20
238.9255480761
 30
0.0
 11
277.9818799834
 21
241.7421559913
 31
0.0
  0
LINE
  5
43A
330
1F
100
AcDbEntity
  8
0
  6
Continuous
 62
     7
370
    25
100
AcDbLine
 10
291.1344352103
 20
249.3349645063
 30
0.0
 11
291.1344352103
 21
257.2552305376
 31
0.0
  0
LINE
  5
43B
330
1F
100
AcDbEntity
  8
0
  6
Continuous
 62
     7
370
    25
100
AcDbLine
 10
285.1943690166
 20
245.9058372838
 30
0.0
 11
291.1344352103
 21
249.3349645063
 31
0.0
  0
LINE
  5
43C
330
1F
100
AcDbEntity
  8
0
  6
Continuous
 62
     7
370
    25
100
AcDbLine
 10
285.1943690166
 20
245.9058372838
 30
0.0
 11
285.1943690166
 21
246.8024291162
 31
0.0
  0
SPLINE
  5
43D
330
1F
100
AcDbEntity
  8
0
  6
Continuous
 62
     7
370
    25
100
AcDbSpline
210
0.0
220
0.0
230
1.0
 70
     8
 71
     3
 72
    27
 73
    23
 74
     0
 42
0.000000001
 43
0.00000001
 40
0.0
 40
0.0
 40
0.0
 40
0.0
 40
0.0176668652181032
 40
0.0721291328061052
 40
0.1250566014913466
 40
0.1795191890966161
 40
0.2324464989607404
 40
0.2869091105969528
 40
0.3398364226554779
 40
0.3942990891088259
 40
0.4472263684244324
 40
0.5016888529714285
 40
0.5546161450672948
 40
0.6090790476335469
 40
0.6620062761902659
 40
0.7164695262267172
 40
0.7693967894651303
 40
0.8238597954066731
 40
0.8767872858888489
 40
0.9312497164601579
 40
0.9841767017868561
 40
1.0
 40
1.0
 40
1.0
 40
1.0
 10
297.5265200321571
 20
285.9646105095858
 30
0.0
 10
297.5441519217275
 20
285.9524815176054
 30
0.0
 10
297.6161382582252
 20
285.9029620548961
 30
0.0
 10
297.7694402891333
 20
285.8675880689948
 30
0.0
 10
297.981746382208
 20
285.8611981551235
 30
0.0
 10
298.2093017091482
 20
285.9099573202262
 30
0.0
 10
298.4473295913831
 20
286.0090643517311
 30
0.0
 10
298.6855792485833
 20
286.1550123188523
 30
0.0
 10
298.9213858307585
 20
286.3459978265469
 30
0.0
 10
299.1437648917541
 20
286.5733373641194
 30
0.0
 10
299.350398832357
 20
286.8346632084638
 30
0.0
 10
299.5318174295489
 20
287.1178330914818
 30
0.0
 10
299.6862157344952
 20
287.41988917787
 30
0.0
 10
299.8063803584438
 20
287.7268762824312
 30
0.0
 10
299.8909977851793
 20
288.0356902079278
 30
0.0
 10
299.9361426850267
 20
288.3319951946402
 30
0.0
 10
299.9414923463094
 20
288.6127804040729
 30
0.0
 10
299.9066163175344
 20
288.8647000902907
 30
0.0
 10
299.8325114107373
 20
289.0864739533342
 30
0.0
 10
299.719910655307
 20
289.2631003243524
 30
0.0
 10
299.6133912141717
 20
289.3753224744075
 30
0.0
 10
299.5377116696986
 20
289.4102194485425
 30
0.0
 10
299.5202935597043
 20
289.4182512005594
 30
0.0
  0
LINE
  5
43E
330
1F
100
AcDbEntity
  8
0
  6
Continuous
 62
     7
370
    25
100
AcDbLine
 10
284.4872608024
 20
247.2106339994
 30
0.0
 11
285.1943690166
 21
246.8024291162
 31
0.0
  0
LWPOLYLINE
  5
43F
330
1F
100
AcDbEntity
  8
0
  6
Continuous
 62
     7
370
    25
100
AcDbPolyline
 90
       31
 70
   128
 43
0.0
 10
284.4872608024
 20
247.2106339994
 10
284.8410224827
 20
247.6737154051
 10
285.1808925618
 20
248.1525038023
 10
285.5056788106
 20
248.6453278055
 10
285.8142422106
 20
249.1504542744
 10
286.1055001146
 20
249.6661096071
 10
286.3784304615
 20
250.1904870396
 10
286.6320765178
 20
250.7217445163
 10
286.8655484583
 20
251.2580250704
 10
287.0780265267
 20
251.7974440476
 10
287.2687663043
 20
252.3381067483
 10
287.4370976563
 20
252.8781175536
 10
287.5824310535
 20
253.4155835746
 10
287.7042565191
 20
253.9486189111
 10
287.8021457358
 20
254.4753507354
 10
287.8757567872
 20
254.9939366299
 10
287.9248299435
 20
255.5025572877
 10
287.9491945097
 20
255.9994204658
 10
287.9487635582
 20
256.4827920129
 10
287.9235402499
 20
256.9509751837
 10
287.8736115126
 20
257.4023215909
 10
287.7991533096
 20
257.8352537136
 10
287.7004269511
 20
258.2482481681
 10
287.5777780414
 20
258.6398594341
 10
287.4316375321
 20
259.0087155961
 10
287.2625180341
 20
259.3535210814
 10
287.0710122375
 20
259.6730654816
 10
286.8577923845
 20
259.9662281156
 10
286.6236065818
 20
260.2319759004
 10
286.3692756391
 20
260.4693858612
 10
286.221650507
 20
260.5871792934
  0
ARC
  5
440
330
1F
100
AcDbEntity
  8
0
  6
Continuous
 62
     7
370
    25
100
AcDbCircle
 10
277.6380989052
 20
246.6089464857
 30
0.0
 40
3.580475706953255
100
AcDbArc
 50
247.1458291986
 51
264.1759124579
  0
LINE
  5
441
330
1F
100
AcDbEntity
  8
0
  6
Continuous
 62
     7
370
    25
100
AcDbLine
 10
277.2747717692
 20
243.0469527069
 30
0.0
 11
277.9818799834
 21
242.6387478238
 31
0.0
  0
LINE
  5
442
330
1F
100
AcDbEntity
  8
0
  6
Continuous
 62
     7
370
    25
100
AcDbLine
 10
284.4872608024
 20
246.4771730161
 30
0.0
 11
284.4872608024
 21
247.2106339994
 31
0.0
  0
LINE
  5
443
330
1F
100
AcDbEntity
  8
0
  6
Continuous
 62
     7
370
    25
100
AcDbLine
 10
277.9100377825
 20
242.6802229871
 30
0.0
 11
284.4872608024
 21
246.4771730161
 31
0.0
  0
LWPOLYLINE
  5
444
330
1F
100
AcDbEntity
  8
0
  6
Continuous
 62
     7
370
    25
100
AcDbPolyline
 90
       22
 70
   128
 43
0.0
 10
214.0078930178
 20
270.9958097197
 10
213.741246766
 20
270.9715423592
 10
213.3264511807
 20
270.9063317679
 10
212.9257874337
 20
270.8087060988
 10
212.5403165719
 20
270.6789288759
 10
212.1710638174
 20
270.517337841
 10
211.8190069771
 20
270.3243711123
 10
211.4850796037
 20
270.1005361583
 10
211.170166781
 20
269.8464219646
 10
210.8751051239
 20
269.5627087676
 10
210.6006743492
 20
269.2501485863
 10
210.3476057047
 20
268.9095652226
 10
210.1165672178
 20
268.5418627775
 10
209.9081721254
 20
268.1480207847
 10
209.7229746583
 20
267.729082043
 10
209.5614658275
 20
267.2861550492
 10
209.424071316
 20
266.8204152146
 10
209.3111578015
 20
266.3331012157
 10
209.2230245266
 20
265.825500392
 10
209.1599054063
 20
265.2989621308
 10
209.1219648132
 20
264.7548808325
 10
209.1093081146
 20
264.1946995611
  0
LWPOLYLINE
  5
445
330
1F
100
AcDbEntity
  8
0
  6
Continuous
 62
     7
370
    25
100
AcDbPolyline
 90
       89
 70
   128
 43
0.0
 10
222.2618633415
 20
249.5782168472
 10
222.6156250218
 20
249.6328537109
 10
222.9554951009
 20
249.7192364674
 10
223.2802813497
 20
249.8370702496
 10
223.5888447497
 20
249.9859370001
 10
223.8801026536
 20
250.1653131148
 10
224.1530335274
 20
250.3745715721
 10
224.4066795837
 20
250.6129755457
 10
224.6401509974
 20
250.8796954392
 10
224.8526290658
 20
251.1737924604
 10
225.0433688434
 20
251.4942317015
 10
225.2117007222
 20
251.8398909606
 10
225.3570335926
 20
252.209558917
 10
225.4788590582
 20
252.6019375649
 10
225.5767482749
 20
253.0156489052
 10
225.6503593263
 20
253.4492452888
 10
225.6994324825
 20
253.9012072865
 10
225.7237970488
 20
254.3699397351
 10
225.7233666241
 20
254.8538085441
 10
225.698142789
 20
255.351114231
 10
225.6482140517
 20
255.8601071311
 10
225.5737558486
 20
256.3790068653
 10
225.4750294902
 20
256.905988347
 10
225.3523805805
 20
257.4392070299
 10
225.2062400711
 20
257.9767934324
 10
225.0371205731
 20
258.5168601339
 10
224.8456147765
 20
259.0575124204
 10
224.6323949236
 20
259.5968534566
 10
224.3982091209
 20
260.1329864139
 10
224.143878705
 20
260.6640403266
 10
223.870295082
 20
261.1881475813
 10
223.5784191998
 20
261.7034685565
 10
223.2692747002
 20
262.2081955758
 10
222.9439452839
 20
262.7005592959
 10
222.6035726037
 20
263.1788347898
 10
222.2493509959
 20
263.6413397215
 10
221.8825227388
 20
264.0864516839
 10
221.504374892
 20
264.5126100239
 10
221.1162340273
 20
264.9183237502
 10
220.7194604344
 20
265.3021700123
 10
220.3154481203
 20
265.6627941003
 10
219.9056121654
 20
265.998941079
 10
219.4913918845
 20
266.3094247615
 10
219.0742392367
 20
266.5931538675
 10
218.6556188249
 20
266.849141758
 10
218.2369984131
 20
267.0764827071
 10
217.8198457653
 20
267.2743877963
 10
217.4056254844
 20
267.4421526703
 10
216.9957905832
 20
267.5791916048
 10
216.5917772154
 20
267.685030814
 10
216.1950046762
 20
267.759288983
 10
215.8068627578
 20
267.8017137684
 10
215.428714911
 20
267.8121556391
 10
215.0618866539
 20
267.7905745671
 10
214.707665573
 20
267.7370448944
 10
214.3672928928
 20
267.6517553321
 10
214.0419634764
 20
267.5350089609
 10
213.73281845
 20
267.3872128875
 10
213.440942041
 20
267.2088849369
 10
213.1673594716
 20
267.0006500015
 10
212.9130295826
 20
266.7632394325
 10
212.6788427262
 20
266.4974922559
 10
212.4656239269
 20
266.2043290137
 10
212.2741170767
 20
265.8847852217
 10
212.1049986323
 20
265.5399791281
 10
211.9588565425
 20
265.1711238786
 10
211.8362092133
 20
264.7795117002
 10
211.737482328
 20
264.3665175498
 10
211.6630235981
 20
263.9335857312
 10
211.613094334
 20
263.4822396282
 10
211.5878715525
 20
263.0140561532
 10
211.5874416546
 20
262.5306839979
 10
211.6118046404
 20
262.0338217322
 10
211.6608783235
 20
261.5252007702
 10
211.7344899018
 20
261.0066145715
 10
211.8323780648
 20
260.4798833556
 10
211.9542035304
 20
259.9468480191
 10
212.0995364008
 20
259.4093823022
 10
212.2678688064
 20
258.8693708886
 10
212.458608584
 20
258.3287081879
 10
212.6710877061
 20
257.7892886024
 10
212.9045580661
 20
257.2530089607
 10
213.1582041224
 20
256.721751484
 10
213.431135523
 20
256.1973734433
 10
213.722393427
 20
255.6817181106
 10
214.0309568269
 20
255.1765916417
 10
214.3557425489
 20
254.6837679427
 10
214.695612628
 20
254.2049795454
 10
215.0493743083
 20
253.7418981397
  0
LINE
  5
446
330
1F
100
AcDbEntity
  8
0
  6
Continuous
 62
     7
370
    25
100
AcDbLine
 10
215.0493743083
 20
253.7418981397
 30
0.0
 11
215.0493743083
 21
252.8453063072
 31
0.0
  0
LINE
  5
447
330
1F
100
AcDbEntity
  8
0
  6
Continuous
 62
     7
370
    25
100
AcDbLine
 10
209.1093081146
 20
256.2744335298
 30
0.0
 11
215.0493743083
 21
252.8453063072
 31
0.0
  0
LINE
  5
448
330
1F
100
AcDbEntity
  8
0
  6
Continuous
 62
     7
370
    25
100
AcDbLine
 10
209.1093081146
 20
264.1946995611
 30
0.0
 11
209.1093081146
 21
256.2744335298
 31
0.0
  0
LINE
  5
449
330
1F
100
AcDbEntity
  8
0
  6
Continuous
 62
     7
370
    25
100
AcDbLine
 10
222.2618633415
 20
248.6816250148
 30
0.0
 11
227.1409002729
 21
245.8650169475
 31
0.0
  0
LINE
  5
44A
330
1F
100
AcDbEntity
  8
0
  6
Continuous
 62
     7
370
    25
100
AcDbLine
 10
222.2618633415
 20
248.6816250148
 30
0.0
 11
222.2618633415
 21
249.5782168472
 31
0.0
  0
LINE
  5
44B
330
1F
100
AcDbEntity
  8
0
  6
Continuous
 62
     7
370
    25
100
AcDbLine
 10
233.150938401
 20
242.395495787
 30
0.0
 11
232.9211490414
 21
239.6701067066
 31
0.0
  0
LINE
  5
44C
330
1F
100
AcDbEntity
  8
0
  6
Continuous
 62
     7
370
    25
100
AcDbLine
 10
228.5551144622
 20
239.0882125739
 30
0.0
 11
232.9211490414
 21
239.6701067066
 31
0.0
  0
LINE
  5
44D
330
1F
100
AcDbEntity
  8
0
  6
Continuous
 62
     7
370
    25
100
AcDbLine
 10
239.0995672538
 20
239.1344419232
 30
0.0
 11
239.0910051215
 21
238.9663682603
 31
0.0
  0
LINE
  5
44E
330
1F
100
AcDbEntity
  8
0
  6
Continuous
 62
     7
370
    25
100
AcDbLine
 10
239.7981133357
 20
239.5377039926
 30
0.0
 11
239.0995672538
 21
239.1344419232
 31
0.0
  0
LINE
  5
44F
330
1F
100
AcDbEntity
  8
0
  6
Continuous
 62
     7
370
    25
100
AcDbLine
 10
222.9689715557
 20
249.9864217304
 30
0.0
 11
222.2618633415
 21
249.5782168472
 31
0.0
  0
ARC
  5
450
330
1F
100
AcDbEntity
  8
0
  6
Continuous
 62
     7
370
    25
100
AcDbCircle
 10
222.6056444197
 20
253.5484155092
 30
0.0
 40
3.580475706974011
100
AcDbArc
 50
275.8240875422
 51
292.8541708013
  0
LWPOLYLINE
  5
451
330
1F
100
AcDbEntity
  8
0
  6
Continuous
 62
     7
370
    25
100
AcDbPolyline
 90
       31
 70
   128
 43
0.0
 10
214.022092291
 20
267.526648621
 10
213.8744676858
 20
267.4088548847
 10
213.6201377968
 20
267.1714443156
 10
213.3859509404
 20
266.9056971391
 10
213.1727321411
 20
266.6125338968
 10
212.9812252908
 20
266.2929901048
 10
212.8121068465
 20
265.9481840113
 10
212.6659647566
 20
265.5793287617
 10
212.5433174275
 20
265.1877165833
 10
212.4445905422
 20
264.774722433
 10
212.3701318123
 20
264.3417906144
 10
212.3202025482
 20
263.8904445114
 10
212.2949797667
 20
263.4222610364
 10
212.2945498688
 20
262.938888881
 10
212.3189128546
 20
262.4420266153
 10
212.3679865377
 20
261.9334056534
 10
212.4415981159
 20
261.4148194547
 10
212.5394862789
 20
260.8880882387
 10
212.6613117446
 20
260.3550529022
 10
212.8066446149
 20
259.8175871854
 10
212.9749770205
 20
259.2775757718
 10
213.1657167982
 20
258.736913071
 10
213.3781959203
 20
258.1974934856
 10
213.6116662802
 20
257.6612138439
 10
213.8653123366
 20
257.1299563672
 10
214.1382437372
 20
256.6055783264
 10
214.4295016412
 20
256.0899229938
 10
214.7380650411
 20
255.5847965248
 10
215.0628507631
 20
255.0919728258
 10
215.4027208421
 20
254.6131844286
 10
215.7564825225
 20
254.1501030228
  0
LINE
  5
452
330
1F
100
AcDbEntity
  8
0
  6
Continuous
 62
     7
370
    25
100
AcDbLine
 10
215.7564825225
 20
254.1501030228
 30
0.0
 11
215.0493743083
 21
253.7418981397
 31
0.0
  0
LINE
  5
453
330
1F
100
AcDbEntity
  8
0
  6
Continuous
 62
     7
370
    25
100
AcDbLine
 10
215.7564825225
 20
254.1501030228
 30
0.0
 11
215.7564825225
 21
253.4166420396
 31
0.0
  0
LINE
  5
454
330
1F
100
AcDbEntity
  8
0
  6
Continuous
 62
     7
370
    25
100
AcDbLine
 10
215.7564825225
 20
253.4166420396
 30
0.0
 11
222.3337058058
 21
249.6196918585
 31
0.0
  0
LINE
  5
455
330
1F
100
AcDbEntity
  8
0
  6
Continuous
 62
     7
370
    25
100
AcDbLine
 10
291.3642250967
 20
246.6095757301
 30
0.0
 11
291.1344352103
 21
249.3349645063
 31
0.0
  0
LINE
  5
456
330
1F
100
AcDbEntity
  8
0
  6
Continuous
 62
     7
370
    25
100
AcDbLine
 10
291.3642250967
 20
246.6095757301
 30
0.0
 11
295.7302592808
 21
246.0276813693
 31
0.0
  0
LINE
  5
457
330
1F
100
AcDbEntity
  8
0
  6
Continuous
 62
     7
370
    25
100
AcDbLine
 10
285.1943690166
 20
245.9058372838
 30
0.0
 11
285.1858068843
 21
246.0739109467
 31
0.0
  0
LINE
  5
458
330
1F
100
AcDbEntity
  8
0
  6
Continuous
 62
     7
370
    25
100
AcDbLine
 10
285.1858068843
 20
246.0739109467
 30
0.0
 11
284.4872608024
 21
246.4771730161
 31
0.0
  0
LINE
  5
459
330
1F
100
AcDbEntity
  8
0
  6
Continuous
 62
     7
370
    25
100
AcDbLine
 10
209.1093081146
 20
256.2744335298
 30
0.0
 11
208.8795192819
 21
253.5490441453
 31
0.0
  0
LINE
  5
45A
330
1F
100
AcDbEntity
  8
0
  6
Continuous
 62
     7
370
    25
100
AcDbLine
 10
204.5134829904
 20
252.967151001
 30
0.0
 11
208.8795192819
 21
253.5490441453
 31
0.0
  0
LINE
  5
45B
330
1F
100
AcDbEntity
  8
0
  6
Continuous
 62
     7
370
    25
100
AcDbLine
 10
215.0579364406
 20
253.0133799702
 30
0.0
 11
215.0493743083
 21
252.8453063072
 31
0.0
  0
LINE
  5
45C
330
1F
100
AcDbEntity
  8
0
  6
Continuous
 62
     7
370
    25
100
AcDbLine
 10
215.7564825225
 20
253.4166420396
 30
0.0
 11
215.0579364406
 21
253.0133799702
 31
0.0
  0
LWPOLYLINE
  5
45D
330
1F
100
AcDbEntity
  8
0
  6
Continuous
 62
     7
370
    25
100
AcDbPolyline
 90
       24
 70
   128
 43
0.0
 10
270.6279693073
 20
271.5469383835
 10
270.6148584764
 20
271.4292205665
 10
270.5764985222
 20
271.305093504
 10
270.5157343571
 20
271.1837725226
 10
270.4370725327
 20
271.07423492
 10
270.3463482802
 20
270.9846286607
 10
270.2502882368
 20
270.9215916504
 10
270.1560173271
 20
270.8897918544
 10
270.0705277132
 20
270.8915915267
 10
270.0001603886
 20
270.9268550142
 10
269.9501320794
 20
270.9929773942
 10
269.9241548693
 20
271.0850445111
 10
269.9241548693
 20
271.1962254026
 10
269.9501320794
 20
271.3182851679
 10
270.0001603886
 20
271.4421690041
 10
270.0705277132
 20
271.5586768753
 10
270.1560173271
 20
271.6591807548
 10
270.2502882368
 20
271.7362238343
 10
270.3463482802
 20
271.7840953894
 10
270.4370725327
 20
271.7992371224
 10
270.5157343571
 20
271.780530263
 10
270.5764985222
 20
271.7293563594
 10
270.6148584764
 20
271.6495187573
 10
270.6279693073
 20
271.5469383835
  0
LWPOLYLINE
  5
45E
330
1F
100
AcDbEntity
  8
0
  6
Continuous
 62
     7
370
    25
100
AcDbPolyline
 90
       14
 70
   128
 43
0.0
 10
269.9537240446
 20
270.9506291219
 10
269.9294485135
 20
270.9676761108
 10
269.8794202043
 20
271.0337984907
 10
269.8534429942
 20
271.1258656077
 10
269.8534429942
 20
271.2370464992
 10
269.8794202043
 20
271.3591062645
 10
269.9294485135
 20
271.4829901007
 10
269.9998158381
 20
271.5994979719
 10
270.085305452
 20
271.7000018514
 10
270.1795763617
 20
271.7770449309
 10
270.2756364052
 20
271.824916486
 10
270.3663606576
 20
271.840058219
 10
270.445022482
 20
271.8213513596
 10
270.4536836593
 20
271.8166855633
  0
LWPOLYLINE
  5
45F
330
1F
100
AcDbEntity
  8
0
  6
Continuous
 62
     7
370
    25
100
AcDbPolyline
 90
       24
 70
   128
 43
0.0
 10
298.9122399226
 20
287.875100255
 10
298.8991290917
 20
287.757382438
 10
298.8607691375
 20
287.6332553755
 10
298.800006026
 20
287.5119350023
 10
298.7213442016
 20
287.4023973998
 10
298.6306188955
 20
287.3127905322
 10
298.534558852
 20
287.2497535219
 10
298.440288996
 20
287.2179543341
 10
298.3547993821
 20
287.2197540065
 10
298.2844310039
 20
287.2550168857
 10
298.2344037483
 20
287.3211398739
 10
298.2084265383
 20
287.4132069909
 10
298.2084265383
 20
287.5243878823
 10
298.2344037483
 20
287.6464476477
 10
298.2844310039
 20
287.7703308756
 10
298.3547993821
 20
287.8868393551
 10
298.440288996
 20
287.9873432346
 10
298.534558852
 20
288.0643857058
 10
298.6306188955
 20
288.1122572609
 10
298.7213442016
 20
288.1273996022
 10
298.800006026
 20
288.1086927428
 10
298.8607691375
 20
288.0575182309
 10
298.8991290917
 20
287.9776806288
 10
298.9122399226
 20
287.875100255
  0
LWPOLYLINE
  5
460
330
1F
100
AcDbEntity
  8
0
  6
Continuous
 62
     7
370
    25
100
AcDbPolyline
 90
       14
 70
   128
 43
0.0
 10
298.2379946598
 20
287.2787909934
 10
298.2137191288
 20
287.2958379823
 10
298.1636918733
 20
287.3619609705
 10
298.1377146632
 20
287.4540280875
 10
298.1377146632
 20
287.5652089789
 10
298.1636918733
 20
287.6872687442
 10
298.2137191288
 20
287.8111519722
 10
298.284087507
 20
287.9276604517
 10
298.3695771209
 20
288.0281643312
 10
298.463846977
 20
288.1052068024
 10
298.5599070204
 20
288.1530783575
 10
298.6506323265
 20
288.1682206988
 10
298.7292941509
 20
288.1495138394
 10
298.7379542746
 20
288.1448474348
  0
LINE
  5
461
330
1F
100
AcDbEntity
  8
0
  6
Continuous
 62
     7
370
    25
100
AcDbLine
 10
199.5637360279
 20
218.2637028974
 30
0.0
 11
256.1322793658
 21
185.6073779379
 31
0.0
  0
LINE
  5
462
330
1F
100
AcDbEntity
  8
0
  6
Continuous
 62
     7
370
    25
100
AcDbLine
 10
199.5637360279
 20
218.2637028974
 30
0.0
 11
199.5637360279
 21
226.429111138
 31
0.0
  0
LINE
  5
463
330
1F
100
AcDbEntity
  8
0
  6
Continuous
 62
     7
370
    25
100
AcDbLine
 10
256.1322793658
 20
193.7727861784
 30
0.0
 11
199.5637360279
 21
226.429111138
 31
0.0
  0
LINE
  5
464
330
1F
100
AcDbEntity
  8
0
  6
Continuous
 62
     7
370
    25
100
AcDbLine
 10
256.1322793658
 20
185.6073779379
 30
0.0
 11
256.1322793658
 21
193.7727861784
 31
0.0
  0
LINE
  5
465
330
1F
100
AcDbEntity
  8
0
  6
Continuous
 62
     7
370
    25
100
AcDbLine
 10
220.1593646425
 20
217.9318936186
 30
0.0
 11
239.1617169966
 21
206.9620691039
 31
0.0
  0
LINE
  5
466
330
1F
100
AcDbEntity
  8
0
  6
Continuous
 62
     7
370
    25
100
AcDbLine
 10
261.0820263283
 20
200.0226000804
 30
0.0
 11
280.0843792092
 21
210.9924248992
 31
0.0
  0
LINE
  5
467
330
1F
100
AcDbEntity
  8
0
  6
Continuous
 62
     7
370
    25
100
AcDbLine
 10
285.1236568781
 20
213.9015379753
 30
0.0
 11
304.1260105493
 21
224.8713632503
 31
0.0
  0
LINE
  5
468
330
1F
100
AcDbEntity
  8
0
  6
Continuous
 62
     7
370
    25
100
AcDbLine
 10
312.7008227036
 20
226.429111138
 30
0.0
 11
256.1322793658
 21
193.7727861784
 31
0.0
  0
LINE
  5
469
330
1F
100
AcDbEntity
  8
0
  6
Continuous
 62
     7
370
    25
100
AcDbLine
 10
199.5637360279
 20
226.429111138
 30
0.0
 11
200.2709580386
 21
226.8373817144
 31
0.0
  0
LINE
  5
46A
330
1F
100
AcDbEntity
  8
0
  6
Continuous
 62
     7
370
    25
100
AcDbLine
 10
311.9936006929
 20
226.8373817144
 30
0.0
 11
312.7008227036
 21
226.429111138
 31
0.0
  0
LINE
  5
46B
330
1F
100
AcDbEntity
  8
0
  6
Continuous
 62
     7
370
    25
100
AcDbLine
 10
256.1322793658
 20
185.6073779379
 30
0.0
 11
312.7008227036
 21
218.2637028974
 31
0.0
  0
LINE
  5
46C
330
1F
100
AcDbEntity
  8
0
  6
Continuous
 62
     7
370
    25
100
AcDbLine
 10
312.7008227036
 20
218.2637028974
 30
0.0
 11
312.7008227036
 21
226.429111138
 31
0.0
  0
LINE
  5
46D
330
1F
100
AcDbEntity
  8
0
  6
Continuous
 62
     7
370
    25
100
AcDbLine
 10
221.1038449612
 20
220.4443591559
 30
0.0
 11
239.1617159429
 21
210.0197721317
 31
0.0
  0
LINE
  5
46E
330
1F
100
AcDbEntity
  8
0
  6
Continuous
 62
     7
370
    25
100
AcDbLine
 10
261.0820263283
 20
203.0803025
 30
0.0
 11
279.1398987588
 21
213.5048903605
 31
0.0
  0
LINE
  5
46F
330
1F
100
AcDbEntity
  8
0
  6
Continuous
 62
     7
370
    25
100
AcDbLine
 10
285.1236579318
 20
216.9592410031
 30
0.0
 11
303.1815291769
 21
227.3838281794
 31
0.0
  0
LINE
  5
470
330
1F
100
AcDbEntity
  8
0
  6
Continuous
 62
     7
370
    25
100
AcDbLine
 10
267.4458727617
 20
192.1385768963
 30
0.0
 11
268.1530947724
 21
191.7303063198
 31
0.0
  0
LINE
  5
471
330
1F
100
AcDbEntity
  8
0
  6
Continuous
 62
     7
370
    25
100
AcDbLine
 10
268.1530947724
 20
191.7303063198
 30
0.0
 11
256.1322793658
 21
184.7908372964
 31
0.0
  0
LINE
  5
472
330
1F
100
AcDbEntity
  8
0
  6
Continuous
 62
     7
370
    25
100
AcDbLine
 10
256.1322793658
 20
184.7908372964
 30
0.0
 11
231.3835416554
 21
199.0779794661
 31
0.0
  0
LINE
  5
473
330
1F
100
AcDbEntity
  8
0
  6
Continuous
 62
     7
370
    25
100
AcDbLine
 10
231.3835416554
 20
199.0779794661
 30
0.0
 11
232.0907636661
 21
199.4862500426
 31
0.0
  0
LINE
  5
474
330
1F
100
AcDbEntity
  8
0
  6
Continuous
 62
     7
370
    25
100
AcDbLine
 10
256.1322793658
 20
184.7908372964
 30
0.0
 11
256.1322793658
 21
181.1164034969
 31
0.0
  0
LINE
  5
475
330
1F
100
AcDbEntity
  8
0
  6
Continuous
 62
     7
370
    25
100
AcDbLine
 10
256.1322793658
 20
181.1164034969
 30
0.0
 11
231.3835416554
 21
195.4035456666
 31
0.0
  0
LINE
  5
476
330
1F
100
AcDbEntity
  8
0
  6
Continuous
 62
     7
370
    25
100
AcDbLine
 10
231.3835416554
 20
195.4035456666
 30
0.0
 11
231.3835416554
 21
199.0779794661
 31
0.0
  0
LINE
  5
477
330
1F
100
AcDbEntity
  8
0
  6
Continuous
 62
     7
370
    25
100
AcDbLine
 10
256.1322793658
 20
181.1164034969
 30
0.0
 11
268.1530947724
 21
188.0558725203
 31
0.0
  0
LINE
  5
478
330
1F
100
AcDbEntity
  8
0
  6
Continuous
 62
     7
370
    25
100
AcDbLine
 10
268.1530947724
 20
188.0558725203
 30
0.0
 11
268.1530947724
 21
191.7303063198
 31
0.0
  0
LINE
  5
479
330
1F
100
AcDbEntity
  8
0
  6
Continuous
 62
     7
370
    25
100
AcDbLine
 10
297.7101591195
 20
208.5477162925
 30
0.0
 11
297.7101591195
 21
209.6097767131
 31
0.0
  0
LINE
  5
47A
330
1F
100
AcDbEntity
  8
0
  6
Continuous
 62
     7
370
    25
100
AcDbLine
 10
297.7101591195
 20
208.5477162925
 30
0.0
 11
268.153095826
 21
191.4847868479
 31
0.0
  0
LINE
  5
47B
330
1F
100
AcDbEntity
  8
0
  6
Continuous
 62
     7
370
    25
100
AcDbLine
 10
227.2823219157
 20
201.2000431462
 30
0.0
 11
227.2823219157
 21
202.2621035668
 31
0.0
  0
LINE
  5
47C
330
1F
100
AcDbEntity
  8
0
  6
Continuous
 62
     7
370
    25
100
AcDbLine
 10
231.3835413262
 20
198.832459576
 30
0.0
 11
227.2823219157
 21
201.2000431462
 31
0.0
  0
LINE
  5
47D
330
1F
100
AcDbEntity
  8
0
  6
Continuous
 62
     7
370
    25
100
AcDbLine
 10
224.3124737382
 20
203.1600200861
 30
0.0
 11
199.5637360279
 21
217.4471622559
 31
0.0
  0
LINE
  5
47E
330
1F
100
AcDbEntity
  8
0
  6
Continuous
 62
     7
370
    25
100
AcDbLine
 10
199.5637360279
 20
217.4471622559
 30
0.0
 11
200.2709580386
 21
217.8554328324
 31
0.0
  0
LINE
  5
47F
330
1F
100
AcDbEntity
  8
0
  6
Continuous
 62
     7
370
    25
100
AcDbLine
 10
225.0196957489
 20
203.5682906626
 30
0.0
 11
224.3124737382
 21
203.1600200861
 31
0.0
  0
LINE
  5
480
330
1F
100
AcDbEntity
  8
0
  6
Continuous
 62
     7
370
    25
100
AcDbLine
 10
199.5637360279
 20
213.7727284564
 30
0.0
 11
199.5637360279
 21
217.4471622559
 31
0.0
  0
LINE
  5
481
330
1F
100
AcDbEntity
  8
0
  6
Continuous
 62
     7
370
    25
100
AcDbLine
 10
224.3124737382
 20
199.4855862866
 30
0.0
 11
224.3124737382
 21
203.1600200861
 31
0.0
  0
LINE
  5
482
330
1F
100
AcDbEntity
  8
0
  6
Continuous
 62
     7
370
    25
100
AcDbLine
 10
224.3124737382
 20
199.4855862866
 30
0.0
 11
199.5637360279
 21
213.7727284564
 31
0.0
  0
LINE
  5
483
330
1F
100
AcDbEntity
  8
0
  6
Continuous
 62
     7
370
    25
100
AcDbLine
 10
227.2823219157
 20
201.2000431462
 30
0.0
 11
224.3124737382
 21
199.4855862866
 31
0.0
  0
LINE
  5
484
330
1F
100
AcDbEntity
  8
0
  6
Continuous
 62
     7
370
    25
100
AcDbLine
 10
300.680007297
 20
206.8332594329
 30
0.0
 11
300.680007297
 21
210.5076932324
 31
0.0
  0
LINE
  5
485
330
1F
100
AcDbEntity
  8
0
  6
Continuous
 62
     7
370
    25
100
AcDbLine
 10
300.680007297
 20
210.5076932324
 30
0.0
 11
299.9727852863
 21
210.9159638089
 31
0.0
  0
LINE
  5
486
330
1F
100
AcDbEntity
  8
0
  6
Continuous
 62
     7
370
    25
100
AcDbLine
 10
300.680007297
 20
206.8332594329
 30
0.0
 11
297.7101591195
 21
208.5477162925
 31
0.0
  0
LINE
  5
487
330
1F
100
AcDbEntity
  8
0
  6
Continuous
 62
     7
370
    25
100
AcDbLine
 10
312.7008227036
 20
217.4471622559
 30
0.0
 11
311.9936006929
 21
217.8554328324
 31
0.0
  0
LINE
  5
488
330
1F
100
AcDbEntity
  8
0
  6
Continuous
 62
     7
370
    25
100
AcDbLine
 10
312.7008227036
 20
217.4471622559
 30
0.0
 11
300.680007297
 21
210.5076932324
 31
0.0
  0
LINE
  5
489
330
1F
100
AcDbEntity
  8
0
  6
Continuous
 62
     7
370
    25
100
AcDbLine
 10
312.7008227036
 20
217.4471622559
 30
0.0
 11
312.7008227036
 21
213.7727284564
 31
0.0
  0
LINE
  5
48A
330
1F
100
AcDbEntity
  8
0
  6
Continuous
 62
     7
370
    25
100
AcDbLine
 10
300.680007297
 20
206.8332594329
 30
0.0
 11
312.7008227036
 21
213.7727284564
 31
0.0
  0
LINE
  5
48B
330
1F
100
AcDbEntity
  8
0
  6
PHANTOM
 62
     8
370
    18
100
AcDbLine
 10
257.5464936868
 20
274.5279589402
 30
0.0
 11
257.5464936868
 21
274.772922897
 31
0.0
  0
LINE
  5
48C
330
1F
100
AcDbEntity
  8
0
  6
PHANTOM
 62
     8
370
    18
100
AcDbLine
 10
254.7180650447
 20
274.5279589402
 30
0.0
 11
254.7180650447
 21
274.772922897
 31
0.0
  0
LINE
  5
48D
330
1F
100
AcDbEntity
  8
0
  6
PHANTOM
 62
     8
370
    18
100
AcDbLine
 10
305.0640687419
 20
301.9592711277
 30
0.0
 11
305.0640687419
 21
302.2042350844
 31
0.0
  0
LINE
  5
48E
330
1F
100
AcDbEntity
  8
0
  6
PHANTOM
 62
     8
370
    18
100
AcDbLine
 10
207.2004899896
 20
301.9592711277
 30
0.0
 11
207.2004899896
 21
302.2042350844
 31
0.0
  0
LINE
  5
48F
330
1F
100
AcDbEntity
  8
0
  6
PHANTOM
 62
     8
370
    18
100
AcDbLine
 10
271.7946945021
 20
294.1421639244
 30
0.0
 11
271.7946945021
 21
294.3871278811
 31
0.0
  0
LINE
  5
490
330
1F
100
AcDbEntity
  8
0
  6
PHANTOM
 62
     8
370
    18
100
AcDbLine
 10
270.3097704134
 20
294.9993923542
 30
0.0
 11
270.3097704134
 21
295.244356311
 31
0.0
  0
LINE
  5
491
330
1F
100
AcDbEntity
  8
0
  6
PHANTOM
 62
     8
370
    18
100
AcDbLine
 10
242.6618950835
 20
310.9601710474
 30
0.0
 11
242.6618950835
 21
311.2051350042
 31
0.0
  0
LINE
  5
492
330
1F
100
AcDbEntity
  8
0
  6
PHANTOM
 62
     8
370
    18
100
AcDbLine
 10
241.1769709948
 20
311.8173994772
 30
0.0
 11
241.1769709948
 21
312.062363434
 31
0.0
  0
LINE
  5
493
330
1F
100
AcDbEntity
  8
0
  6
PHANTOM
 62
     8
370
    18
100
AcDbLine
 10
279.1136203305
 20
221.736833889
 30
0.0
 11
283.7094442693
 21
221.1243148097
 31
0.0
  0
LINE
  5
494
330
1F
100
AcDbEntity
  8
0
  6
PHANTOM
 62
     8
370
    18
100
AcDbLine
 10
221.1301235212
 20
228.6763026083
 30
0.0
 11
216.5342994507
 21
228.0637836051
 31
0.0
  0
LINE
  5
495
330
1F
100
AcDbEntity
  8
0
  6
PHANTOM
 62
     8
370
    18
100
AcDbLine
 10
303.1552506169
 20
235.6157716318
 30
0.0
 11
307.7510757411
 21
235.0032532369
 31
0.0
  0
ARC
  5
496
330
1F
100
AcDbEntity
  8
0
  6
PHANTOM
 62
     8
370
    18
100
AcDbCircle
 10
241.8051354114
 20
226.3262896863
 30
0.0
 40
0.6039944498579438
100
AcDbArc
 50
1.7981709787
 51
58.1963333187
  0
ARC
  5
497
330
1F
100
AcDbEntity
  8
0
  6
PHANTOM
 62
     8
370
    18
100
AcDbCircle
 10
242.0427470674
 20
226.4585874313
 30
0.0
 40
0.4211470684461828
100
AcDbArc
 50
358.8679967423
 51
74.4776674623
  0
LWPOLYLINE
  5
498
330
1F
100
AcDbEntity
  8
0
  6
PHANTOM
 62
     8
370
    18
100
AcDbPolyline
 90
        3
 70
   128
 43
0.0
 10
242.4462904434
 20
226.3605705713
 10
242.4504261029
 20
226.3703310443
 10
242.4638119419
 20
226.4502672925
  0
LWPOLYLINE
  5
499
330
1F
100
AcDbEntity
  8
0
  6
PHANTOM
 62
     8
370
    18
100
AcDbPolyline
 90
       11
 70
   128
 43
0.0
 10
242.1630825874
 20
226.8683443211
 10
242.20554343
 20
226.8814343507
 10
242.2725779925
 20
226.8709109674
 10
242.3439146946
 20
226.8297291659
 10
242.4109492572
 20
226.7628560907
 10
242.465596861
 20
226.678358582
 10
242.5012646852
 20
226.5864280489
 10
242.513651644
 20
226.4981522453
 10
242.5012646852
 20
226.4241756865
 10
242.465596861
 20
226.3734263467
 10
242.4529275183
 20
226.3648374026
  0
ARC
  5
49A
330
1F
100
AcDbEntity
  8
0
  6
PHANTOM
 62
     8
370
    18
100
AcDbCircle
 10
213.5208559352
 20
242.6544464425
 30
0.0
 40
0.6040034669183413
100
AcDbArc
 50
1.7986295993
 51
58.1958746981
  0
ARC
  5
49B
330
1F
100
AcDbEntity
  8
0
  6
PHANTOM
 62
     8
370
    18
100
AcDbCircle
 10
213.7584750959
 20
242.7867496857
 30
0.0
 40
0.4211473665564716
100
AcDbArc
 50
358.868028207
 51
74.4776359976
  0
LWPOLYLINE
  5
49C
330
1F
100
AcDbEntity
  8
0
  6
PHANTOM
 62
     8
370
    18
100
AcDbPolyline
 90
        3
 70
   128
 43
0.0
 10
214.1620198281
 20
242.6887324428
 10
214.1661544339
 20
242.6984935241
 10
214.179540273
 20
242.7784297722
  0
LWPOLYLINE
  5
49D
330
1F
100
AcDbEntity
  8
0
  6
PHANTOM
 62
     8
370
    18
100
AcDbPolyline
 90
       11
 70
   128
 43
0.0
 10
213.8788119722
 20
243.1965061925
 10
213.9212728147
 20
243.2095962222
 10
213.9883073773
 20
243.1990728389
 10
214.0596440794
 20
243.1578910373
 10
214.1266786419
 20
243.0910179622
 10
214.1813251921
 20
243.0065210617
 10
214.2169930163
 20
242.9145905287
 10
214.2293810287
 20
242.8263141168
 10
214.2169930163
 20
242.7523381662
 10
214.1813251921
 20
242.7015888265
 10
214.1686558494
 20
242.6929998823
  0
LINE
  5
49E
330
1F
100
AcDbEntity
  8
0
  6
PHANTOM
 62
     8
370
    18
100
AcDbLine
 10
233.150938401
 20
250.3157618183
 30
0.0
 11
228.5551144622
 21
249.703242739
 31
0.0
  0
LINE
  5
49F
330
1F
100
AcDbEntity
  8
0
  6
PHANTOM
 62
     8
370
    18
100
AcDbLine
 10
291.1344352103
 20
257.2552305376
 30
0.0
 11
295.7302592808
 21
256.6427115344
 31
0.0
  0
LINE
  5
4A0
330
1F
100
AcDbEntity
  8
0
  6
PHANTOM
 62
     8
370
    18
100
AcDbLine
 10
209.1093081146
 20
264.1946995611
 30
0.0
 11
204.5134829904
 21
263.5821811662
 31
0.0
  0
ARC
  5
4A1
330
1F
100
AcDbEntity
  8
0
  6
PHANTOM
 62
     8
370
    18
100
AcDbCircle
 10
270.4594395662
 20
271.2360260282
 30
0.0
 40
0.604010902934421
100
AcDbArc
 50
121.8045121967
 51
178.2012277446
  0
LWPOLYLINE
  5
4A2
330
1F
100
AcDbEntity
  8
0
  6
PHANTOM
 62
     8
370
    18
100
AcDbPolyline
 90
        3
 70
   128
 43
0.0
 10
269.8007467896
 20
271.3600104861
 10
269.8141326286
 20
271.2800742379
 10
269.8182682882
 20
271.2703137649
  0
ARC
  5
4A3
330
1F
100
AcDbEntity
  8
0
  6
PHANTOM
 62
     8
370
    18
100
AcDbCircle
 10
270.2218041827
 20
271.3683385804
 30
0.0
 40
0.4211397458234496
100
AcDbArc
 50
105.5215528796
 51
181.1331054872
  0
LWPOLYLINE
  5
4A4
330
1F
100
AcDbEntity
  8
0
  6
PHANTOM
 62
     8
370
    18
100
AcDbPolyline
 90
       11
 70
   128
 43
0.0
 10
269.8109905811
 20
271.274952979
 10
269.7989618705
 20
271.2831744073
 10
269.7632940463
 20
271.3339237471
 10
269.7509070875
 20
271.407895439
 10
269.7632940463
 20
271.4961688091
 10
269.7989618705
 20
271.5880993421
 10
269.8536094743
 20
271.6725992843
 10
269.9206440369
 20
271.7394772264
 10
269.991980739
 20
271.780659028
 10
270.0590153015
 20
271.7911775443
 10
270.1022853636
 20
271.7776202104
  0
ARC
  5
4A5
330
1F
100
AcDbEntity
  8
0
  6
PHANTOM
 62
     8
370
    18
100
AcDbCircle
 10
298.7437185447
 20
287.5641829779
 30
0.0
 40
0.6040194165927487
100
AcDbArc
 50
121.8047096509
 51
178.2007860112
  0
LWPOLYLINE
  5
4A6
330
1F
100
AcDbEntity
  8
0
  6
PHANTOM
 62
     8
370
    18
100
AcDbPolyline
 90
        3
 70
   128
 43
0.0
 10
298.0850184585
 20
287.6881729659
 10
298.0984042976
 20
287.6082367177
 10
298.1025389034
 20
287.5984756364
  0
ARC
  5
4A7
330
1F
100
AcDbEntity
  8
0
  6
PHANTOM
 62
     8
370
    18
100
AcDbCircle
 10
298.5060761544
 20
287.6965008347
 30
0.0
 40
0.4211400440157505
100
AcDbArc
 50
105.5215843546
 51
181.1330740122
  0
LWPOLYLINE
  5
4A8
330
1F
100
AcDbEntity
  8
0
  6
PHANTOM
 62
     8
370
    18
100
AcDbPolyline
 90
       11
 70
   128
 43
0.0
 10
298.0952611963
 20
287.6031148504
 10
298.0832335395
 20
287.6113368871
 10
298.0475657152
 20
287.6620862268
 10
298.0351777028
 20
287.7360573105
 10
298.0475657152
 20
287.8243312888
 10
298.0832335395
 20
287.9162618219
 10
298.1378800896
 20
288.0007611558
 10
298.2049146521
 20
288.0676390979
 10
298.2762513542
 20
288.1088208995
 10
298.3432859168
 20
288.1193394158
 10
298.3865570325
 20
288.1057826901
  0
ENDSEC
  0
SECTION
  2
OBJECTS
  0
DICTIONARY
  5
C
330
0
100
AcDbDictionary
281
     1
  3
ACAD_GROUP
350
D
  3
ACAD_LAYOUT
350
1A
  3
ACAD_MLINESTYLE
350
17
  3
ACAD_PLOTSETTINGS
350
19
  3
ACAD_PLOTSTYLENAME
350
E
  3
ACAD_SCALELIST
350
47
  0
DICTIONARY
  5
D
102
{ACAD_REACTORS
330
C
102
}
330
C
100
AcDbDictionary
281
     1
  0
DICTIONARY
  5
1A
102
{ACAD_REACTORS
330
C
102
}
330
C
100
AcDbDictionary
281
     1
  3
Layout1
350
1E
  3
Layout2
350
26
  3
Model
350
22
  0
DICTIONARY
  5
17
102
{ACAD_REACTORS
330
C
102
}
330
C
100
AcDbDictionary
281
     1
  3
Standard
350
18
  0
DICTIONARY
  5
19
102
{ACAD_REACTORS
330
C
102
}
330
C
100
AcDbDictionary
281
     1
  0
ACDBDICTIONARYWDFLT
  5
E
102
{ACAD_REACTORS
330
C
102
}
330
C
100
AcDbDictionary
281
     1
  3
Normal
350
F
100
AcDbDictionaryWithDefault
340
F
  0
DICTIONARY
  5
47
102
{ACAD_REACTORS
330
C
102
}
330
C
100
AcDbDictionary
281
     1
  3
A0
350
48
  3
A1
350
49
  3
A2
350
4A
  3
A3
350
4B
  3
A4
350
4C
  3
A5
350
4D
  3
A6
350
4E
  3
A7
350
4F
  3
A8
350
50
  3
A9
350
51
  3
B0
350
52
  3
B1
350
53
  3
B2
350
54
  3
B3
350
55
  3
B4
350
56
  3
B5
350
57
  3
B6
350
58
  3
B7
350
59
  3
B8
350
5A
  3
B9
350
5B
  3
C0
350
5C
  3
C1
350
5D
  3
C2
350
5E
  3
C3
350
5F
  3
C4
350
60
  3
C5
350
61
  3
C6
350
62
  3
C7
350
63
  3
C8
350
64
  3
C9
350
65
  3
D0
350
66
  3
D1
350
67
  3
D2
350
68
  0
LAYOUT
  5
1E
102
{ACAD_REACTORS
330
1A
102
}
330
1A
100
AcDbPlotSettings
  1

  2
none_device
  4

  6

 40
0.0
 41
0.0
 42
0.0
 43
0.0
 44
0.0
 45
0.0
 46
0.0
 47
0.0
 48
0.0
 49
0.0
140
0.0
141
0.0
142
1.0
143
1.0
 70
   688
 72
     1
 73
     0
 74
     5
  7

 75
    16
147
1.0
148
0.0
149
0.0
100
AcDbLayout
  1
Layout1
 70
     1
 71
     1
 10
0.0
 20
0.0
 11
420.0
 21
297.0
 12
0.0
 22
0.0
 32
0.0
 14
1.0000000000E+20
 24
1.0000000000E+20
 34
1.0000000000E+20
 15
-1.0000000000E+20
 25
-1.0000000000E+20
 35
-1.0000000000E+20
146
0.0
 13
0.0
 23
0.0
 33
0.0
 16
1.0
 26
0.0
 36
0.0
 17
0.0
 27
1.0
 37
0.0
 76
     0
330
1B
  0
LAYOUT
  5
26
102
{ACAD_REACTORS
330
1A
102
}
330
1A
100
AcDbPlotSettings
  1

  2
none_device
  4

  6

 40
0.0
 41
0.0
 42
0.0
 43
0.0
 44
0.0
 45
0.0
 46
0.0
 47
0.0
 48
0.0
 49
0.0
140
0.0
141
0.0
142
1.0
143
1.0
 70
   688
 72
     1
 73
     0
 74
     5
  7

 75
    16
147
1.0
148
0.0
149
0.0
100
AcDbLayout
  1
Layout2
 70
     1
 71
     2
 10
0.0
 20
0.0
 11
0.0
 21
0.0
 12
0.0
 22
0.0
 32
0.0
 14
0.0
 24
0.0
 34
0.0
 15
0.0
 25
0.0
 35
0.0
146
0.0
 13
0.0
 23
0.0
 33
0.0
 16
1.0
 26
0.0
 36
0.0
 17
0.0
 27
1.0
 37
0.0
 76
     0
330
23
  0
LAYOUT
  5
22
102
{ACAD_REACTORS
330
1A
102
}
330
1A
100
AcDbPlotSettings
  1

  2
none_device
  4
Letter_(8.50_x_11.00_Inches)
  6

 40
6.35
 41
6.35
 42
6.35000508
 43
6.35000508
 44
215.9
 45
279.4
 46
0.0
 47
0.0
 48
0.0
 49
0.0
140
0.0
141
0.0
142
1.0
143
1.0
 70
  1712
 72
     1
 73
     0
 74
     0
  7

 75
     0
147
1.0
148
0.0
149
0.0
100
AcDbLayout
  1
Model
 70
     1
 71
     0
 10
0.0
 20
0.0
 11
594.0
 21
420.0
 12
0.0
 22
0.0
 32
0.0
 14
0.0
 24
0.0
 34
0.0
 15
594.0
 25
420.0
 35
0.0
146
0.0
 13
0.0
 23
0.0
 33
0.0
 16
1.0
 26
0.0
 36
0.0
 17
0.0
 27
1.0
 37
0.0
 76
     0
330
1F
331
29
  0
MLINESTYLE
  5
18
102
{ACAD_REACTORS
330
17
102
}
330
17
100
AcDbMlineStyle
  2
Standard
 70
     0
  3

 62
   256
 51
90.0
 52
90.0
 71
     2
 49
0.5
 62
   256
  6
BYLAYER
 49
-0.5
 62
   256
  6
BYLAYER
  0
ACDBPLACEHOLDER
  5
F
102
{ACAD_REACTORS
330
E
102
}
330
E
  0
SCALE
  5
48
102
{ACAD_REACTORS
330
47
102
}
330
47
100
AcDbScale
 70
     0
300
1:1
140
1.0
141
1.0
290
     1
  0
SCALE
  5
49
102
{ACAD_REACTORS
330
47
102
}
330
47
100
AcDbScale
 70
     0
300
1:2
140
1.0
141
2.0
290
     0
  0
SCALE
  5
4A
102
{ACAD_REACTORS
330
47
102
}
330
47
100
AcDbScale
 70
     0
300
1:4
140
1.0
141
4.0
290
     0
  0
SCALE
  5
4B
102
{ACAD_REACTORS
330
47
102
}
330
47
100
AcDbScale
 70
     0
300
1:5
140
1.0
141
5.0
290
     0
  0
SCALE
  5
4C
102
{ACAD_REACTORS
330
47
102
}
330
47
100
AcDbScale
 70
     0
300
1:8
140
1.0
141
8.0
290
     0
  0
SCALE
  5
4D
102
{ACAD_REACTORS
330
47
102
}
330
47
100
AcDbScale
 70
     0
300
1:10
140
1.0
141
10.0
290
     0
  0
SCALE
  5
4E
102
{ACAD_REACTORS
330
47
102
}
330
47
100
AcDbScale
 70
     0
300
1:16
140
1.0
141
16.0
290
     0
  0
SCALE
  5
4F
102
{ACAD_REACTORS
330
47
102
}
330
47
100
AcDbScale
 70
     0
300
1:20
140
1.0
141
20.0
290
     0
  0
SCALE
  5
50
102
{ACAD_REACTORS
330
47
102
}
330
47
100
AcDbScale
 70
     0
300
1:30
140
1.0
141
30.0
290
     0
  0
SCALE
  5
51
102
{ACAD_REACTORS
330
47
102
}
330
47
100
AcDbScale
 70
     0
300
1:40
140
1.0
141
40.0
290
     0
  0
SCALE
  5
52
102
{ACAD_REACTORS
330
47
102
}
330
47
100
AcDbScale
 70
     0
300
1:50
140
1.0
141
50.0
290
     0
  0
SCALE
  5
53
102
{ACAD_REACTORS
330
47
102
}
330
47
100
AcDbScale
 70
     0
300
1:100
140
1.0
141
100.0
290
     0
  0
SCALE
  5
54
102
{ACAD_REACTORS
330
47
102
}
330
47
100
AcDbScale
 70
     0
300
2:1
140
2.0
141
1.0
290
     0
  0
SCALE
  5
55
102
{ACAD_REACTORS
330
47
102
}
330
47
100
AcDbScale
 70
     0
300
4:1
140
4.0
141
1.0
290
     0
  0
SCALE
  5
56
102
{ACAD_REACTORS
330
47
102
}
330
47
100
AcDbScale
 70
     0
300
8:1
140
8.0
141
1.0
290
     0
  0
SCALE
  5
57
102
{ACAD_REACTORS
330
47
102
}
330
47
100
AcDbScale
 70
     0
300
10:1
140
10.0
141
1.0
290
     0
  0
SCALE
  5
58
102
{ACAD_REACTORS
330
47
102
}
330
47
100
AcDbScale
 70
     0
300
100:1
140
100.0
141
1.0
290
     0
  0
SCALE
  5
59
102
{ACAD_REACTORS
330
47
102
}
330
47
100
AcDbScale
 70
     0
300
1/128" = 1'-0"
140
0.0078125
141
12.0
290
     0
  0
SCALE
  5
5A
102
{ACAD_REACTORS
330
47
102
}
330
47
100
AcDbScale
 70
     0
300
1/64" = 1'-0"
140
0.015625
141
12.0
290
     0
  0
SCALE
  5
5B
102
{ACAD_REACTORS
330
47
102
}
330
47
100
AcDbScale
 70
     0
300
1/32" = 1'-0"
140
0.03125
141
12.0
290
     0
  0
SCALE
  5
5C
102
{ACAD_REACTORS
330
47
102
}
330
47
100
AcDbScale
 70
     0
300
1/16" = 1'-0"
140
0.0625
141
12.0
290
     0
  0
SCALE
  5
5D
102
{ACAD_REACTORS
330
47
102
}
330
47
100
AcDbScale
 70
     0
300
3/32" = 1'-0"
140
0.09375
141
12.0
290
     0
  0
SCALE
  5
5E
102
{ACAD_REACTORS
330
47
102
}
330
47
100
AcDbScale
 70
     0
300
1/8" = 1'-0"
140
0.125
141
12.0
290
     0
  0
SCALE
  5
5F
102
{ACAD_REACTORS
330
47
102
}
330
47
100
AcDbScale
 70
     0
300
3/16" = 1'-0"
140
0.1875
141
12.0
290
     0
  0
SCALE
  5
60
102
{ACAD_REACTORS
330
47
102
}
330
47
100
AcDbScale
 70
     0
300
1/4" = 1'-0"
140
0.25
141
12.0
290
     0
  0
SCALE
  5
61
102
{ACAD_REACTORS
330
47
102
}
330
47
100
AcDbScale
 70
     0
300
3/8" = 1'-0"
140
0.375
141
12.0
290
     0
  0
SCALE
  5
62
102
{ACAD_REACTORS
330
47
102
}
330
47
100
AcDbScale
 70
     0
300
1/2" = 1'-0"
140
0.5
141
12.0
290
     0
  0
SCALE
  5
63
102
{ACAD_REACTORS
330
47
102
}
330
47
100
AcDbScale
 70
     0
300
3/4" = 1'-0"
140
0.75
141
12.0
290
     0
  0
SCALE
  5
64
102
{ACAD_REACTORS
330
47
102
}
330
47
100
AcDbScale
 70
     0
300
1" = 1'-0"
140
1.0
141
12.0
290
     0
  0
SCALE
  5
65
102
{ACAD_REACTORS
330
47
102
}
330
47
100
AcDbScale
 70
     0
300
1-1/2" = 1'-0"
140
1.5
141
12.0
290
     0
  0
SCALE
  5
66
102
{ACAD_REACTORS
330
47
102
}
330
47
100
AcDbScale
 70
     0
300
3" = 1'-0"
140
3.0
141
12.0
290
     0
  0
SCALE
  5
67
102
{ACAD_REACTORS
330
47
102
}
330
47
100
AcDbScale
 70
     0
300
6" = 1'-0"
140
6.0
141
12.0
290
     0
  0
SCALE
  5
68
102
{ACAD_REACTORS
330
47
102
}
330
47
100
AcDbScale
 70
     0
300
1'-0" = 1'-0"
140
12.0
141
12.0
290
     0
  0
ENDSEC
  0
EOF
