  0
SECTION
  2
HEADER
  9
$ACADVER
  1
AC1027
  9
$ACADMAINTVER
 70
   105
  9
$DWGCODEPAGE
  3
ANSI_1252
  9
$REQUIREDVERSIONS
160
                 0
  9
$INSBASE
 10
0.0
 20
0.0
 30
0.0
  9
$EXTMIN
 10
0.0
 20
0.0
 30
0.0
  9
$EXTMAX
 10
5940.0
 20
4200.0
 30
0.0
  9
$LIMMIN
 10
0.0
 20
0.0
  9
$LIMMAX
 10
5940.0
 20
4200.0
  9
$ORTHOMODE
 70
     0
  9
$REGENMODE
 70
     1
  9
$FILLMODE
 70
     1
  9
$QTEXTMODE
 70
     0
  9
$MIRRTEXT
 70
     1
  9
$LTSCALE
 40
10.0
  9
$ATTMODE
 70
     1
  9
$TEXTSIZE
 40
35.0
  9
$TRACEWID
 40
1.0
  9
$TEXTSTYLE
  7
Standard
  9
$CLAYER
  8
0
  9
$CELTYPE
  6
ByLayer
  9
$CECOLOR
 62
   256
  9
$CELTSCALE
 40
1.0
  9
$DISPSILH
 70
     0
  9
$DIMSCALE
 40
1.0
  9
$DIMASZ
 40
33.02
  9
$DIMEXO
 40
10.0
  9
$DIMDLI
 40
3.75
  9
$DIMRND
 40
0.0
  9
$DIMDLE
 40
0.0
  9
$DIMEXE
 40
10.0
  9
$DIMTP
 40
0.0
  9
$DIMTM
 40
0.0
  9
$DIMTXT
 40
35.0
  9
$DIMCEN
 40
2.5
  9
$DIMTSZ
 40
0.0
  9
$DIMTOL
 70
     0
  9
$DIMLIM
 70
     0
  9
$DIMTIH
 70
     1
  9
$DIMTOH
 70
     1
  9
$DIMSE1
 70
     0
  9
$DIMSE2
 70
     0
  9
$DIMTAD
 70
     1
  9
$DIMZIN
 70
     0
  9
$DIMBLK
  1

  9
$DIMASO
 70
     1
  9
$DIMSHO
 70
     1
  9
$DIMPOST
  1

  9
$DIMAPOST
  1

  9
$DIMALT
 70
     0
  9
$DIMALTD
 70
     3
  9
$DIMALTF
 40
0.0393700787
  9
$DIMLFAC
 40
1.0
  9
$DIMTOFL
 70
     1
  9
$DIMTVP
 40
0.0
  9
$DIMTIX
 70
     0
  9
$DIMSOXD
 70
     0
  9
$DIMSAH
 70
     0
  9
$DIMBLK1
  1

  9
$DIMBLK2
  1

  9
$DIMSTYLE
  2
ISO-25
  9
$DIMCLRD
 70
     0
  9
$DIMCLRE
 70
     0
  9
$DIMCLRT
 70
     0
  9
$DIMTFAC
 40
1.0
  9
$DIMGAP
 40
15.24
  9
$DIMJUST
 70
     0
  9
$DIMSD1
 70
     0
  9
$DIMSD2
 70
     0
  9
$DIMTOLJ
 70
     0
  9
$DIMTZIN
 70
     0
  9
$DIMALTZ
 70
     0
  9
$DIMALTTZ
 70
     0
  9
$DIMUPT
 70
     0
  9
$DIMDEC
 70
     2
  9
$DIMTDEC
 70
     2
  9
$DIMALTU
 70
     2
  9
$DIMALTTD
 70
     3
  9
$DIMTXSTY
  7
Standard
  9
$DIMAUNIT
 70
     0
  9
$DIMADEC
 70
     2
  9
$DIMALTRND
 40
0.0
  9
$DIMAZIN
 70
     0
  9
$DIMDSEP
 70
    44
  9
$DIMATFIT
 70
     3
  9
$DIMFRAC
 70
     0
  9
$DIMLDRBLK
  1

  9
$DIMLUNIT
 70
     2
  9
$DIMLWD
 70
    -2
  9
$DIMLWE
 70
    -2
  9
$DIMTMOVE
 70
     0
  9
$DIMFXL
 40
1.0
  9
$DIMFXLON
 70
     0
  9
$DIMJOGANG
 40
0.7853981634
  9
$DIMTFILL
 70
     0
  9
$DIMTFILLCLR
 70
     0
  9
$DIMARCSYM
 70
     0
  9
$DIMLTYPE
  6

  9
$DIMLTEX1
  6

  9
$DIMLTEX2
  6

  9
$DIMTXTDIRECTION
 70
     0
  9
$LUNITS
 70
     2
  9
$LUPREC
 70
     2
  9
$SKETCHINC
 40
1.0
  9
$FILLETRAD
 40
10.0
  9
$AUNITS
 70
     0
  9
$AUPREC
 70
     2
  9
$MENU
  1
.
  9
$ELEVATION
 40
0.0
  9
$PELEVATION
 40
0.0
  9
$THICKNESS
 40
0.0
  9
$LIMCHECK
 70
     0
  9
$CHAMFERA
 40
0.0
  9
$CHAMFERB
 40
0.0
  9
$CHAMFERC
 40
0.0
  9
$CHAMFERD
 40
0.0
  9
$SKPOLY
 70
     0
  9
$TDCREATE
 40
2459774.628052708
  9
$TDUCREATE
 40
2459774.544719375
  9
$TDUPDATE
 40
2459774.628055787
  9
$TDUUPDATE
 40
2459774.544722454
  9
$TDINDWG
 40
0.0000000116
  9
$TDUSRTIMER
 40
0.0000000116
  9
$USRTIMER
 70
     1
  9
$ANGBASE
 50
0.0
  9
$ANGDIR
 70
     0
  9
$PDMODE
 70
     0
  9
$PDSIZE
 40
-1.0
  9
$PLINEWID
 40
0.0
  9
$SPLFRAME
 70
     0
  9
$SPLINETYPE
 70
     6
  9
$SPLINESEGS
 70
     8
  9
$HANDSEED
  5
2A9
  9
$SURFTAB1
 70
     6
  9
$SURFTAB2
 70
     6
  9
$SURFTYPE
 70
     6
  9
$SURFU
 70
     6
  9
$SURFV
 70
     6
  9
$UCSBASE
  2

  9
$UCSNAME
  2

  9
$UCSORG
 10
0.0
 20
0.0
 30
0.0
  9
$UCSXDIR
 10
1.0
 20
0.0
 30
0.0
  9
$UCSYDIR
 10
0.0
 20
1.0
 30
0.0
  9
$UCSORTHOREF
  2

  9
$UCSORTHOVIEW
 70
     0
  9
$UCSORGTOP
 10
0.0
 20
0.0
 30
0.0
  9
$UCSORGBOTTOM
 10
0.0
 20
0.0
 30
0.0
  9
$UCSORGLEFT
 10
0.0
 20
0.0
 30
0.0
  9
$UCSORGRIGHT
 10
0.0
 20
0.0
 30
0.0
  9
$UCSORGFRONT
 10
0.0
 20
0.0
 30
0.0
  9
$UCSORGBACK
 10
0.0
 20
0.0
 30
0.0
  9
$PUCSBASE
  2

  9
$PUCSNAME
  2

  9
$PUCSORG
 10
0.0
 20
0.0
 30
0.0
  9
$PUCSXDIR
 10
1.0
 20
0.0
 30
0.0
  9
$PUCSYDIR
 10
0.0
 20
1.0
 30
0.0
  9
$PUCSORTHOREF
  2

  9
$PUCSORTHOVIEW
 70
     0
  9
$PUCSORGTOP
 10
0.0
 20
0.0
 30
0.0
  9
$PUCSORGBOTTOM
 10
0.0
 20
0.0
 30
0.0
  9
$PUCSORGLEFT
 10
0.0
 20
0.0
 30
0.0
  9
$PUCSORGRIGHT
 10
0.0
 20
0.0
 30
0.0
  9
$PUCSORGFRONT
 10
0.0
 20
0.0
 30
0.0
  9
$PUCSORGBACK
 10
0.0
 20
0.0
 30
0.0
  9
$USERI1
 70
     0
  9
$USERI2
 70
     0
  9
$USERI3
 70
     0
  9
$USERI4
 70
     0
  9
$USERI5
 70
     0
  9
$USERR1
 40
0.0
  9
$USERR2
 40
0.0
  9
$USERR3
 40
0.0
  9
$USERR4
 40
0.0
  9
$USERR5
 40
0.0
  9
$WORLDVIEW
 70
     1
  9
$SHADEDGE
 70
     3
  9
$SHADEDIF
 70
    70
  9
$TILEMODE
 70
     1
  9
$MAXACTVP
 70
    64
  9
$PINSBASE
 10
0.0
 20
0.0
 30
0.0
  9
$PLIMCHECK
 70
     0
  9
$PEXTMIN
 10
1.0000000000E+20
 20
1.0000000000E+20
 30
1.0000000000E+20
  9
$PEXTMAX
 10
-1.0000000000E+20
 20
-1.0000000000E+20
 30
-1.0000000000E+20
  9
$PLIMMIN
 10
0.0
 20
0.0
  9
$PLIMMAX
 10
420.0
 20
297.0
  9
$UNITMODE
 70
     0
  9
$VISRETAIN
 70
     1
  9
$PLINEGEN
 70
     0
  9
$PSLTSCALE
 70
     1
  9
$TREEDEPTH
 70
  3020
  9
$CMLSTYLE
  2
Standard
  9
$CMLJUST
 70
     0
  9
$CMLSCALE
 40
20.0
  9
$PROXYGRAPHICS
 70
     1
  9
$MEASUREMENT
 70
     1
  9
$CELWEIGHT
370
    -1
  9
$ENDCAPS
280
     0
  9
$JOINSTYLE
280
     0
  9
$LWDISPLAY
290
     1
  9
$INSUNITS
 70
     4
  9
$HYPERLINKBASE
  1

  9
$STYLESHEET
  1

  9
$XEDIT
290
     1
  9
$CEPSNTYPE
380
     0
  9
$PSTYLEMODE
290
     1
  9
$FINGERPRINTGUID
  2
{60762118-8816-4D4C-B57B-056ED9698197}
  9
$VERSIONGUID
  2
{FAEB1C32-E019-11D5-929B-00C0DF256EC4}
  9
$EXTNAMES
290
     1
  9
$PSVPSCALE
 40
0.0
  9
$OLESTARTUP
290
     0
  9
$SORTENTS
280
   127
  9
$INDEXCTL
280
     0
  9
$HIDETEXT
280
     1
  9
$XCLIPFRAME
280
     2
  9
$HALOGAP
280
     0
  9
$OBSCOLOR
 70
   257
  9
$OBSLTYPE
280
     0
  9
$INTERSECTIONDISPLAY
280
     0
  9
$INTERSECTIONCOLOR
 70
   257
  9
$DIMASSOC
280
     2
  9
$PROJECTNAME
  1

  9
$CAMERADISPLAY
290
     0
  9
$LENSLENGTH
 40
50.0
  9
$CAMERAHEIGHT
 40
0.0
  9
$STEPSPERSEC
 40
2.0
  9
$STEPSIZE
 40
6.0
  9
$3DDWFPREC
 40
2.0
  9
$PSOLWIDTH
 40
5.0
  9
$PSOLHEIGHT
 40
80.0
  9
$LOFTANG1
 40
1.5707963268
  9
$LOFTANG2
 40
1.5707963268
  9
$LOFTMAG1
 40
0.0
  9
$LOFTMAG2
 40
0.0
  9
$LOFTPARAM
 70
     7
  9
$LOFTNORMALS
280
     1
  9
$LATITUDE
 40
37.795
  9
$LONGITUDE
 40
-122.394
  9
$NORTHDIRECTION
 40
0.0
  9
$TIMEZONE
 70
 -8000
  9
$LIGHTGLYPHDISPLAY
280
     1
  9
$TILEMODELIGHTSYNCH
280
     1
  9
$CMATERIAL
347
44
  9
$SOLIDHIST
280
     0
  9
$SHOWHIST
280
     1
  9
$DWFFRAME
280
     2
  9
$DGNFRAME
280
     2
  9
$REALWORLDSCALE
290
     1
  9
$INTERFERECOLOR
 62
   256
  9
$CSHADOW
280
     0
  9
$SHADOWPLANELOCATION
 40
0.0
  0
ENDSEC
  0
SECTION
  2
CLASSES
  0
CLASS
  1
ACDBDICTIONARYWDFLT
  2
AcDbDictionaryWithDefault
  3
ObjectDBX Classes
 90
        0
 91
        4
280
     0
281
     0
  0
CLASS
  1
VISUALSTYLE
  2
AcDbVisualStyle
  3
ObjectDBX Classes
 90
     4095
 91
        4
280
     0
281
     0
  0
CLASS
  1
MATERIAL
  2
AcDbMaterial
  3
ObjectDBX Classes
 90
     1153
 91
        4
280
     0
281
     0
  0
CLASS
  1
SCALE
  2
AcDbScale
  3
ObjectDBX Classes
 90
     1153
 91
        4
280
     0
281
     0
  0
CLASS
  1
TABLESTYLE
  2
AcDbTableStyle
  3
ObjectDBX Classes
 90
     4095
 91
        4
280
     0
281
     0
  0
CLASS
  1
MLEADERSTYLE
  2
AcDbMLeaderStyle
  3
ACDB_MLEADERSTYLE_CLASS
 90
     4095
 91
        4
280
     0
281
     0
  0
CLASS
  1
SUN
  2
AcDbSun
  3
SCENEOE
 90
     1153
 91
        4
280
     0
281
     0
  0
CLASS
  1
DICTIONARYVAR
  2
AcDbDictionaryVar
  3
ObjectDBX Classes
 90
        0
 91
        4
280
     0
281
     0
  0
CLASS
  1
CELLSTYLEMAP
  2
AcDbCellStyleMap
  3
ObjectDBX Classes
 90
     1152
 91
        4
280
     0
281
     0
  0
ENDSEC
  0
SECTION
  2
TABLES
  0
TABLE
  2
VPORT
  5
8
330
0
100
AcDbSymbolTable
 70
     1
  0
VPORT
  5
29
330
8
100
AcDbSymbolTableRecord
100
AcDbViewportTableRecord
  2
*Active
 70
     0
 10
0.0
 20
0.0
 11
1.0
 21
1.0
 12
2970.0
 22
2100.0
 13
0.0
 23
0.0
 14
10.0
 24
10.0
 15
10.0
 25
10.0
 16
0.0
 26
0.0
 36
1.0
 17
0.0
 27
0.0
 37
0.0
 40
4200.0
 41
1.4142857143
 42
50.0
 43
0.0
 44
0.0
 50
0.0
 51
0.0
 71
     0
 72
  2000
 73
     1
 74
     3
 75
     0
 76
     0
 77
     0
 78
     0
281
     0
 65
     1
110
0.0
120
0.0
130
0.0
111
1.0
121
0.0
131
0.0
112
0.0
122
1.0
132
0.0
 79
     0
146
0.0
348
2F
 60
     3
 61
     5
292
     1
282
     1
141
0.0
142
0.0
 63
   250
361
6D
  0
ENDTAB
  0
TABLE
  2
LTYPE
  5
5
330
0
100
AcDbSymbolTable
 70
     6
  0
LTYPE
  5
14
330
5
100
AcDbSymbolTableRecord
100
AcDbLinetypeTableRecord
  2
ByBlock
 70
     0
  3

 72
    65
 73
     0
 40
0.0
  0
LTYPE
  5
15
330
5
100
AcDbSymbolTableRecord
100
AcDbLinetypeTableRecord
  2
ByLayer
 70
     0
  3

 72
    65
 73
     0
 40
0.0
  0
LTYPE
  5
16
330
5
100
AcDbSymbolTableRecord
100
AcDbLinetypeTableRecord
  2
Continuous
 70
     0
  3
Solid line
 72
    65
 73
     0
 40
0.0
  0
LTYPE
  5
6E
330
5
100
AcDbSymbolTableRecord
100
AcDbLinetypeTableRecord
  2
HIDDEN
 70
     0
  3
Hidden __ __ __ __ __ __ __ __ __ __ __ __ __ __
 72
    65
 73
     2
 40
1.905
 49
1.27
 74
     0
 49
-0.635
 74
     0
  0
LTYPE
  5
6F
330
5
100
AcDbSymbolTableRecord
100
AcDbLinetypeTableRecord
  2
PHANTOM
 70
     0
  3
Phantom ______  __  __  ______  __  __  ______
 72
    65
 73
     6
 40
12.7
 49
6.35
 74
     0
 49
-1.27
 74
     0
 49
1.27
 74
     0
 49
-1.27
 74
     0
 49
1.27
 74
     0
 49
-1.27
 74
     0
  0
LTYPE
  5
70
330
5
100
AcDbSymbolTableRecord
100
AcDbLinetypeTableRecord
  2
CENTER
 70
     0
  3
Center ____ _ ____ _ ____ _ ____ _ ____ _ ____
 72
    65
 73
     4
 40
10.16
 49
6.35
 74
     0
 49
-1.27
 74
     0
 49
1.27
 74
     0
 49
-1.27
 74
     0
  0
LTYPE
  5
71
330
5
100
AcDbSymbolTableRecord
100
AcDbLinetypeTableRecord
  2
CENTERX2
 70
     0
  3
Center (2x) ________  __  ________  __  _____
 72
    65
 73
     4
 40
20.32
 49
12.7
 74
     0
 49
-2.54
 74
     0
 49
2.54
 74
     0
 49
-2.54
 74
     0
  0
LTYPE
  5
72
330
5
100
AcDbSymbolTableRecord
100
AcDbLinetypeTableRecord
  2
DOT2
 70
     0
  3
Dot (.5x) ........................................
 72
    65
 73
     2
 40
0.635
 49
0.0
 74
     0
 49
-0.635
 74
     0
  0
ENDTAB
  0
TABLE
  2
LAYER
  5
2
330
0
100
AcDbSymbolTable
 70
    37
  0
LAYER
  5
10
330
2
100
AcDbSymbolTableRecord
100
AcDbLayerTableRecord
  2
0
 70
     0
 62
     7
  6
Continuous
370
    -3
390
F
347
46
348
0
  0
LAYER
  5
73
330
2
100
AcDbSymbolTableRecord
100
AcDbLayerTableRecord
  2
SLD-0
 70
     0
 62
     7
  6
Continuous
370
    -3
390
F
347
46
348
0
  0
LAYER
  5
74
330
2
100
AcDbSymbolTableRecord
100
AcDbLayerTableRecord
  2
RAHMEN025
 70
     0
 62
     7
  6
Continuous
370
    -3
390
F
347
46
348
0
  0
LAYER
  5
75
330
2
100
AcDbSymbolTableRecord
100
AcDbLayerTableRecord
  2
RAHMEN07
 70
     0
 62
     5
  6
Continuous
370
    -3
390
F
347
46
348
0
  0
LAYER
  5
76
330
2
100
AcDbSymbolTableRecord
100
AcDbLayerTableRecord
  2
RAHMEN05
 70
     0
 62
     6
  6
Continuous
370
    -3
390
F
347
46
348
0
  0
LAYER
  5
77
330
2
100
AcDbSymbolTableRecord
100
AcDbLayerTableRecord
  2
TB
 70
     0
 62
     7
  6
Continuous
370
    -3
390
F
347
46
348
0
  0
LAYER
  5
78
330
2
100
AcDbSymbolTableRecord
100
AcDbLayerTableRecord
  2
1-VIDNO
 70
     0
 62
     5
  6
Continuous
370
    -3
390
F
347
46
348
0
  0
LAYER
  5
79
330
2
100
AcDbSymbolTableRecord
100
AcDbLayerTableRecord
  2
2-NEVIDNO
 70
     0
 62
     5
  6
HIDDEN
370
    -3
390
F
347
46
348
0
  0
LAYER
  5
7A
330
2
100
AcDbSymbolTableRecord
100
AcDbLayerTableRecord
  2
O-GLAVE
 70
     0
 62
     5
  6
Continuous
370
    -3
390
F
347
46
348
0
  0
LAYER
  5
7B
330
2
100
AcDbSymbolTableRecord
100
AcDbLayerTableRecord
  2
O-TEKST
 70
     0
 62
     7
  6
Continuous
370
    -3
390
F
347
46
348
0
  0
LAYER
  5
7C
330
2
100
AcDbSymbolTableRecord
100
AcDbLayerTableRecord
  2
O-ZUNANJI
 70
     0
 62
     7
  6
Continuous
370
    -3
390
F
347
46
348
0
  0
LAYER
  5
7D
330
2
100
AcDbSymbolTableRecord
100
AcDbLayerTableRecord
  2
SLD-DEFPOINTS
 70
     0
 62
     7
  6
Continuous
370
    -3
390
F
347
46
348
0
  0
LAYER
  5
7E
330
2
100
AcDbSymbolTableRecord
100
AcDbLayerTableRecord
  2
3-POMOZNO
 70
     0
 62
     4
  6
Continuous
370
    -3
390
F
347
46
348
0
  0
LAYER
  5
7F
330
2
100
AcDbSymbolTableRecord
100
AcDbLayerTableRecord
  2
4-SREDNJICA
 70
     0
 62
     1
  6
CENTER
370
    -3
390
F
347
46
348
0
  0
LAYER
  5
80
330
2
100
AcDbSymbolTableRecord
100
AcDbLayerTableRecord
  2
5-SRAFURA
 70
     0
 62
     7
  6
Continuous
370
    -3
390
F
347
46
348
0
  0
LAYER
  5
81
330
2
100
AcDbSymbolTableRecord
100
AcDbLayerTableRecord
  2
6-KOTE
 70
     0
 62
     7
  6
Continuous
370
    -3
390
F
347
46
348
0
  0
LAYER
  5
82
330
2
100
AcDbSymbolTableRecord
100
AcDbLayerTableRecord
  2
7-TEKST
 70
     0
 62
     7
  6
Continuous
370
    -3
390
F
347
46
348
0
  0
LAYER
  5
83
330
2
100
AcDbSymbolTableRecord
100
AcDbLayerTableRecord
  2
8-VARJENJA
 70
     0
 62
     1
  6
Continuous
370
    -3
390
F
347
46
348
0
  0
LAYER
  5
84
330
2
100
AcDbSymbolTableRecord
100
AcDbLayerTableRecord
  2
BEMASSUNG
 70
     0
 62
     7
  6
Continuous
370
    -3
390
F
347
46
348
0
  0
LAYER
  5
85
330
2
100
AcDbSymbolTableRecord
100
AcDbLayerTableRecord
  2
UMRISS03
 70
     0
 62
     7
  6
Continuous
370
    -3
390
F
347
46
348
0
  0
LAYER
  5
86
330
2
100
AcDbSymbolTableRecord
100
AcDbLayerTableRecord
  2
UMRISS02
 70
     0
 62
     7
  6
Continuous
370
    -3
390
F
347
46
348
0
  0
LAYER
  5
87
330
2
100
AcDbSymbolTableRecord
100
AcDbLayerTableRecord
  2
HILFSLINIEN
 70
     0
 62
     7
  6
Continuous
370
    -3
390
F
347
46
348
0
  0
LAYER
  5
88
330
2
100
AcDbSymbolTableRecord
100
AcDbLayerTableRecord
  2
UMRISS03_-PSPAC_
 70
     0
 62
     7
  6
Continuous
370
    -3
390
F
347
46
348
0
  0
LAYER
  5
89
330
2
100
AcDbSymbolTableRecord
100
AcDbLayerTableRecord
  2
ACA_VARSAVE
 70
     0
 62
     7
  6
Continuous
370
    -3
390
F
347
46
348
0
  0
LAYER
  5
8A
330
2
100
AcDbSymbolTableRecord
100
AcDbLayerTableRecord
  2
KONTUREN
 70
     0
 62
     7
  6
Continuous
370
    -3
390
F
347
46
348
0
  0
LAYER
  5
8B
330
2
100
AcDbSymbolTableRecord
100
AcDbLayerTableRecord
  2
ACHSE
 70
     0
 62
     7
  6
Continuous
370
    -3
390
F
347
46
348
0
  0
LAYER
  5
8C
330
2
100
AcDbSymbolTableRecord
100
AcDbLayerTableRecord
  2
UNSICHTBAR
 70
     0
 62
     7
  6
Continuous
370
    -3
390
F
347
46
348
0
  0
LAYER
  5
8D
330
2
100
AcDbSymbolTableRecord
100
AcDbLayerTableRecord
  2
MASSE
 70
     0
 62
     7
  6
Continuous
370
    -3
390
F
347
46
348
0
  0
LAYER
  5
8E
330
2
100
AcDbSymbolTableRecord
100
AcDbLayerTableRecord
  2
RAND
 70
     0
 62
     7
  6
Continuous
370
    -3
390
F
347
46
348
0
  0
LAYER
  5
8F
330
2
100
AcDbSymbolTableRecord
100
AcDbLayerTableRecord
  2
D-TEXT
 70
     0
 62
     7
  6
Continuous
370
    -3
390
F
347
46
348
0
  0
LAYER
  5
90
330
2
100
AcDbSymbolTableRecord
100
AcDbLayerTableRecord
  2
F-TEXT
 70
     0
 62
     7
  6
Continuous
370
    -3
390
F
347
46
348
0
  0
LAYER
  5
91
330
2
100
AcDbSymbolTableRecord
100
AcDbLayerTableRecord
  2
I-TEXT
 70
     0
 62
     7
  6
Continuous
370
    -3
390
F
347
46
348
0
  0
LAYER
  5
92
330
2
100
AcDbSymbolTableRecord
100
AcDbLayerTableRecord
  2
D-TEXT-FETT
 70
     0
 62
     7
  6
Continuous
370
    -3
390
F
347
46
348
0
  0
LAYER
  5
93
330
2
100
AcDbSymbolTableRecord
100
AcDbLayerTableRecord
  2
F-TEXT-FETT
 70
     0
 62
     7
  6
Continuous
370
    -3
390
F
347
46
348
0
  0
LAYER
  5
94
330
2
100
AcDbSymbolTableRecord
100
AcDbLayerTableRecord
  2
I-TEXT-FETT
 70
     0
 62
     7
  6
Continuous
370
    -3
390
F
347
46
348
0
  0
LAYER
  5
95
330
2
100
AcDbSymbolTableRecord
100
AcDbLayerTableRecord
  2
TEXT-D-F-I
 70
     0
 62
     7
  6
Continuous
370
    -3
390
F
347
46
348
0
  0
LAYER
  5
96
330
2
100
AcDbSymbolTableRecord
100
AcDbLayerTableRecord
  2
TEXT-D-F-I-FETT
 70
     0
 62
     7
  6
Continuous
370
    -3
390
F
347
46
348
0
  0
ENDTAB
  0
TABLE
  2
STYLE
  5
3
330
0
100
AcDbSymbolTable
 70
     2
  0
STYLE
  5
11
330
3
100
AcDbSymbolTableRecord
100
AcDbTextStyleTableRecord
  2
Standard
 70
     0
 40
0.0
 41
1.0
 50
0.0
 71
     0
 42
35.0
  3
txt
  4

  0
STYLE
  5
B2
330
3
100
AcDbSymbolTableRecord
100
AcDbTextStyleTableRecord
  2
SLDTEXTSTYLE0
 70
     0
 40
0.0
 41
0.75
 50
0.0
 71
     0
 42
35.0
  3
TXT
  4

  0
ENDTAB
  0
TABLE
  2
VIEW
  5
6
330
0
100
AcDbSymbolTable
 70
     0
  0
ENDTAB
  0
TABLE
  2
UCS
  5
7
330
0
100
AcDbSymbolTable
 70
     0
  0
ENDTAB
  0
TABLE
  2
APPID
  5
9
330
0
100
AcDbSymbolTable
 70
     1
  0
APPID
  5
12
330
9
100
AcDbSymbolTableRecord
100
AcDbRegAppTableRecord
  2
ACAD
 70
     0
  0
ENDTAB
  0
TABLE
  2
DIMSTYLE
  5
A
330
0
100
AcDbSymbolTable
 70
     1
100
AcDbDimStyleTable
  0
DIMSTYLE
105
27
330
A
100
AcDbSymbolTableRecord
100
AcDbDimStyleTableRecord
  2
ISO-25
 70
     0
 41
2.5
 42
0.625
 43
3.75
 44
1.25
 73
     0
 74
     0
 77
     1
 78
     8
140
2.5
141
2.5
143
0.0393700787
147
0.625
171
     3
172
     1
178
     0
271
     2
272
     2
274
     3
278
    44
283
     0
284
     8
340
11
  0
ENDTAB
  0
TABLE
  2
BLOCK_RECORD
  5
1
330
0
100
AcDbSymbolTable
 70
     1
  0
BLOCK_RECORD
  5
1F
330
1
100
AcDbSymbolTableRecord
100
AcDbBlockTableRecord
  2
*Model_Space
340
22
 70
     0
280
     1
281
     0
  0
BLOCK_RECORD
  5
1B
330
1
100
AcDbSymbolTableRecord
100
AcDbBlockTableRecord
  2
*Paper_Space
340
1E
 70
     0
280
     1
281
     0
  0
BLOCK_RECORD
  5
23
330
1
100
AcDbSymbolTableRecord
100
AcDbBlockTableRecord
  2
*Paper_Space0
340
26
 70
     0
280
     1
281
     0
  0
ENDTAB
  0
ENDSEC
  0
SECTION
  2
BLOCKS
  0
BLOCK
  5
20
330
1F
100
AcDbEntity
  8
0
100
AcDbBlockBegin
  2
*Model_Space
 70
     0
 10
0.0
 20
0.0
 30
0.0
  3
*Model_Space
  1

  0
ENDBLK
  5
21
330
1F
100
AcDbEntity
  8
0
100
AcDbBlockEnd
  0
BLOCK
  5
1C
330
1B
100
AcDbEntity
 67
     1
  8
0
100
AcDbBlockBegin
  2
*Paper_Space
 70
     0
 10
0.0
 20
0.0
 30
0.0
  3
*Paper_Space
  1

  0
ENDBLK
  5
1D
330
1B
100
AcDbEntity
 67
     1
  8
0
100
AcDbBlockEnd
  0
BLOCK
  5
24
330
23
100
AcDbEntity
  8
0
100
AcDbBlockBegin
  2
*Paper_Space0
 70
     0
 10
0.0
 20
0.0
 30
0.0
  3
*Paper_Space0
  1

  0
ENDBLK
  5
25
330
23
100
AcDbEntity
  8
0
100
AcDbBlockEnd
  0
ENDSEC
  0
SECTION
  2
ENTITIES
  0
LINE
  5
97
330
1F
100
AcDbEntity
  8
O-TEKST
100
AcDbLine
 10
5940.0006605382
 20
-0.0004679532
 30
0.0
 11
5939.6643374575
 21
-0.0004679532
 31
0.0
  0
LINE
  5
98
330
1F
100
AcDbEntity
  8
O-TEKST
100
AcDbLine
 10
5940.0006605382
 20
-0.0004679532
 30
0.0
 11
5940.0006605382
 21
0.378112713
 31
0.0
  0
LINE
  5
99
330
1F
100
AcDbEntity
  8
SLD-0
100
AcDbLine
 10
4080.0006605382
 20
429.9995320468
 30
0.0
 11
5840.0006605382
 21
429.9995320468
 31
0.0
  0
LINE
  5
9A
330
1F
100
AcDbEntity
  8
SLD-0
 62
   250
420
  3618615
100
AcDbLine
 10
3922.4006605382
 20
549.9995320468
 30
0.0
 11
3922.4006605382
 21
99.9995320468
 31
0.0
  0
LINE
  5
9B
330
1F
100
AcDbEntity
  8
SLD-0
100
AcDbLine
 10
5700.0006605382
 20
259.9995320468
 30
0.0
 11
5700.0006605382
 21
429.9995320468
 31
0.0
  0
LINE
  5
9C
330
1F
100
AcDbEntity
  8
SLD-0
100
AcDbLine
 10
5230.0006605382
 20
429.9995320468
 30
0.0
 11
5230.0006605382
 21
99.9995320468
 31
0.0
  0
LINE
  5
9D
330
1F
100
AcDbEntity
  8
SLD-0
100
AcDbLine
 10
4650.0006605382
 20
179.9995320468
 30
0.0
 11
5080.0006605382
 21
179.9995320468
 31
0.0
  0
LINE
  5
9E
330
1F
100
AcDbEntity
  8
SLD-0
100
AcDbLine
 10
5840.0006605382
 20
259.9995320468
 30
0.0
 11
3922.4006605382
 21
259.9995320468
 31
0.0
  0
LINE
  5
9F
330
1F
100
AcDbEntity
  8
SLD-0
100
AcDbLine
 10
5700.0006605382
 20
99.9995320468
 30
0.0
 11
5700.0006605382
 21
259.9995320468
 31
0.0
  0
LINE
  5
A0
330
1F
100
AcDbEntity
  8
SLD-0
100
AcDbLine
 10
5540.0006605382
 20
429.9995320468
 30
0.0
 11
5540.0006605382
 21
259.9995320468
 31
0.0
  0
LINE
  5
A1
330
1F
100
AcDbEntity
  8
SLD-0
100
AcDbLine
 10
5400.0006605382
 20
372.9995320468
 30
0.0
 11
5840.0006605382
 21
372.9995320468
 31
0.0
  0
LINE
  5
A2
330
1F
100
AcDbEntity
  8
SLD-0
100
AcDbLine
 10
5400.0006605382
 20
315.9995320468
 30
0.0
 11
5840.0006605382
 21
315.9995320468
 31
0.0
  0
LINE
  5
A3
330
1F
100
AcDbEntity
  8
SLD-0
100
AcDbLine
 10
4650.0006605382
 20
259.9995320468
 30
0.0
 11
4650.0006605382
 21
99.9995320468
 31
0.0
  0
LINE
  5
A4
330
1F
100
AcDbEntity
  8
SLD-0
100
AcDbLine
 10
5080.0006605382
 20
259.9995320468
 30
0.0
 11
5080.0006605382
 21
99.9995320468
 31
0.0
  0
LINE
  5
A5
330
1F
100
AcDbEntity
  8
SLD-0
100
AcDbLine
 10
5400.0006605382
 20
429.9995320468
 30
0.0
 11
5400.0006605382
 21
259.9995320468
 31
0.0
  0
LINE
  5
A6
330
1F
100
AcDbEntity
  8
SLD-0
100
AcDbLine
 10
4080.0006605382
 20
549.9995320468
 30
0.0
 11
4080.0006605382
 21
259.9995320468
 31
0.0
  0
LINE
  5
A7
330
1F
100
AcDbEntity
  8
SLD-0
100
AcDbLine
 10
4010.0006605382
 20
549.9995320468
 30
0.0
 11
4010.0006605382
 21
259.9995320468
 31
0.0
  0
LINE
  5
A8
330
1F
100
AcDbEntity
  8
SLD-0
100
AcDbLine
 10
5400.0006605382
 20
549.9995320468
 30
0.0
 11
5400.0006605382
 21
429.9995320468
 31
0.0
  0
LINE
  5
A9
330
1F
100
AcDbEntity
  8
SLD-0
100
AcDbLine
 10
4140.0006605382
 20
489.9995320468
 30
0.0
 11
4980.0006605382
 21
489.9995320468
 31
0.0
  0
LINE
  5
AA
330
1F
100
AcDbEntity
  8
SLD-0
100
AcDbLine
 10
3922.4006605382
 20
488.7518870251
 30
0.0
 11
4080.0006605382
 21
488.7518870251
 31
0.0
  0
LINE
  5
AB
330
1F
100
AcDbEntity
  8
SLD-0
100
AcDbLine
 10
4140.0006605382
 20
549.9995320468
 30
0.0
 11
4140.0006605382
 21
429.9995320468
 31
0.0
  0
LINE
  5
AC
330
1F
100
AcDbEntity
  8
SLD-0
100
AcDbLine
 10
3922.4006605382
 20
549.9995320468
 30
0.0
 11
5840.0006605382
 21
549.9995320468
 31
0.0
  0
LINE
  5
AD
330
1F
100
AcDbEntity
  8
SLD-0
100
AcDbLine
 10
4980.0006605382
 20
549.9995320468
 30
0.0
 11
4980.0006605382
 21
429.9995320468
 31
0.0
  0
LINE
  5
AE
330
1F
100
AcDbEntity
  8
SLD-0
 62
   250
420
  3618615
100
AcDbLine
 10
98.0206517156
 20
99.9995320468
 30
0.0
 11
98.0206517156
 21
4100.0
 31
0.0
  0
LINE
  5
AF
330
1F
100
AcDbEntity
  8
SLD-0
 62
   250
420
  3618615
100
AcDbLine
 10
98.0206517156
 20
4100.0
 30
0.0
 11
5840.0006605382
 21
4100.0
 31
0.0
  0
LINE
  5
B0
330
1F
100
AcDbEntity
  8
SLD-0
 62
   250
420
  3618615
100
AcDbLine
 10
5840.0006605382
 20
4100.0
 30
0.0
 11
5840.0006605382
 21
99.9995320468
 31
0.0
  0
LINE
  5
B1
330
1F
100
AcDbEntity
  8
SLD-0
 62
   250
420
  3618615
100
AcDbLine
 10
5840.0006605382
 20
99.9995320468
 30
0.0
 11
98.0206517156
 21
99.9995320468
 31
0.0
  0
MTEXT
  5
B3
330
1F
100
AcDbEntity
  8
SLD-0
100
AcDbMText
 10
4152.2272042693
 20
540.4994836857
 30
0.0
 40
35.0
 41
0.0
 46
0.0
 71
     1
 72
     1
  1
Allgemeintoleranzen ISO 2768-m
  7
SLDTEXTSTYLE0
 73
     1
 44
1.0
  0
MTEXT
  5
B4
330
1F
100
AcDbEntity
  8
SLD-0
100
AcDbMText
 10
5569.4317135747
 20
475.7749683175
 30
0.0
 40
25.0
 41
0.0
 46
0.0
 71
     1
 72
     1
  1
kg
  7
SLDTEXTSTYLE0
 73
     1
 44
1.0
  0
MTEXT
  5
B5
330
1F
100
AcDbEntity
  8
SLD-0
100
AcDbMText
 10
5562.4291578148
 20
536.5629695855
 30
0.0
 40
20.0
 41
0.0
 46
0.0
 71
     1
 72
     1
  1
Gewicht:
  7
SLDTEXTSTYLE0
 73
     1
 44
1.0
  0
MTEXT
  5
B6
330
1F
100
AcDbEntity
  8
SLD-0
100
AcDbMText
 10
5716.7166598692
 20
297.2774036664
 30
0.0
 40
15.0
 41
0.0
 46
0.0
 71
     1
 72
     1
  1
Name
  7
SLDTEXTSTYLE0
 73
     1
 44
1.0
  0
MTEXT
  5
B7
330
1F
100
AcDbEntity
  8
SLD-0
100
AcDbMText
 10
5554.6707826269
 20
294.96652195
 30
0.0
 40
15.0
 41
0.0
 46
0.0
 71
     1
 72
     1
  1
Datum
  7
SLDTEXTSTYLE0
 73
     1
 44
1.0
  0
MTEXT
  5
B8
330
1F
100
AcDbEntity
  8
SLD-0
100
AcDbMText
 10
5412.0109471652
 20
351.0448103638
 30
0.0
 40
15.0
 41
0.0
 46
0.0
 71
     1
 72
     1
  1
Geprüft
  7
SLDTEXTSTYLE0
 73
     1
 44
1.0
  0
MTEXT
  5
B9
330
1F
100
AcDbEntity
  8
SLD-0
100
AcDbMText
 10
5408.1028252302
 20
408.5022017191
 30
0.0
 40
15.0
 41
0.0
 46
0.0
 71
     1
 72
     1
  1
Gezeichnet
  7
SLDTEXTSTYLE0
 73
     1
 44
1.0
  0
MTEXT
  5
BA
330
1F
100
AcDbEntity
  8
SLD-0
100
AcDbMText
 10
5249.5287885038
 20
412.0412426113
 30
0.0
 40
20.0
 41
0.0
 46
0.0
 71
     1
 72
     1
  1
Massstab
  7
SLDTEXTSTYLE0
 73
     1
 44
1.0
  0
MTEXT
  5
BB
330
1F
100
AcDbEntity
  8
SLD-0
100
AcDbMText
 10
5096.5576977357
 20
242.7656048961
 30
0.0
 40
20.0
 41
0.0
 46
0.0
 71
     1
 72
     1
  1
Format
  7
SLDTEXTSTYLE0
 73
     1
 44
1.0
  0
MTEXT
  5
BC
330
1F
100
AcDbEntity
  8
SLD-0
100
AcDbMText
 10
5239.1346148286
 20
241.0784245542
 30
0.0
 40
20.0
 41
0.0
 46
0.0
 71
     1
 72
     1
  1
Zeichungsnr.
  7
SLDTEXTSTYLE0
 73
     1
 44
1.0
  0
MTEXT
  5
BD
330
1F
100
AcDbEntity
  8
SLD-0
100
AcDbMText
 10
5271.6104804125
 20
343.4647152551
 30
0.0
 40
40.0
 41
0.0
 46
0.0
 71
     1
 72
     1
  1
1:5
  7
SLDTEXTSTYLE0
 73
     1
 44
1.0
  0
MTEXT
  5
BE
330
1F
100
AcDbEntity
  8
SLD-0
100
AcDbMText
 10
5121.1812840811
 20
186.8640870654
 30
0.0
 40
40.0
 41
0.0
 46
0.0
 71
     1
 72
     1
  1
A2
  7
SLDTEXTSTYLE0
 73
     1
 44
1.0
  0
MTEXT
  5
BF
330
1F
100
AcDbEntity
  8
SLD-0
100
AcDbMText
 10
5135.0269263373
 20
536.5629695855
 30
0.0
 40
20.0
 41
0.0
 46
0.0
 71
     1
 72
     1
  1
Material:
  7
SLDTEXTSTYLE0
 73
     1
 44
1.0
  0
LINE
  5
C0
330
1F
100
AcDbEntity
  8
0
  6
Continuous
 62
     7
370
    25
100
AcDbLine
 10
1736.5
 20
3557.4
 30
0.0
 11
936.5
 21
3557.4
 31
0.0
  0
LINE
  5
C1
330
1F
100
AcDbEntity
  8
0
  6
Continuous
 62
     7
370
    25
100
AcDbLine
 10
866.5
 20
2844.4
 30
0.0
 11
866.5
 21
2754.4
 31
0.0
  0
LINE
  5
C2
330
1F
100
AcDbEntity
  8
0
  6
Continuous
 62
     7
370
    25
100
AcDbLine
 10
1806.5
 20
2844.4
 30
0.0
 11
1806.5
 21
2754.4
 31
0.0
  0
LINE
  5
C3
330
1F
100
AcDbEntity
  8
0
  6
Continuous
 62
     7
370
    25
100
AcDbLine
 10
866.5
 20
2754.4
 30
0.0
 11
1806.5
 21
2754.4
 31
0.0
  0
LINE
  5
C4
330
1F
100
AcDbEntity
  8
0
  6
Continuous
 62
     7
370
    25
100
AcDbLine
 10
866.5
 20
2844.4
 30
0.0
 11
1806.5
 21
2844.4
 31
0.0
  0
LINE
  5
C5
330
1F
100
AcDbEntity
  8
0
  6
Continuous
 62
     7
370
    25
100
AcDbLine
 10
866.5
 20
3264.4
 30
0.0
 11
866.5
 21
2844.4
 31
0.0
  0
LINE
  5
C6
330
1F
100
AcDbEntity
  8
0
  6
Continuous
 62
     7
370
    25
100
AcDbLine
 10
1806.5
 20
3264.4
 30
0.0
 11
1806.5
 21
2844.4
 31
0.0
  0
LINE
  5
C7
330
1F
100
AcDbEntity
  8
0
  6
Continuous
 62
     7
370
    25
100
AcDbLine
 10
1666.5
 20
2844.4
 30
0.0
 11
1806.5
 21
2844.4
 31
0.0
  0
LINE
  5
C8
330
1F
100
AcDbEntity
  8
0
  6
Continuous
 62
     7
370
    25
100
AcDbLine
 10
1666.5
 20
2844.4
 30
0.0
 11
1661.5
 21
3034.4
 31
0.0
  0
LINE
  5
C9
330
1F
100
AcDbEntity
  8
0
  6
Continuous
 62
     7
370
    25
100
AcDbLine
 10
1451.5
 20
3034.4
 30
0.0
 11
1446.5
 21
2844.4
 31
0.0
  0
LINE
  5
CA
330
1F
100
AcDbEntity
  8
0
  6
Continuous
 62
     7
370
    25
100
AcDbLine
 10
866.5
 20
2844.4
 30
0.0
 11
1446.5
 21
2844.4
 31
0.0
  0
LINE
  5
CB
330
1F
100
AcDbEntity
  8
0
  6
Continuous
 62
     7
370
    25
100
AcDbLine
 10
1661.5
 20
3034.4
 30
0.0
 11
1451.5
 21
3034.4
 31
0.0
  0
LINE
  5
CC
330
1F
100
AcDbEntity
  8
0
  6
Continuous
 62
     7
370
    25
100
AcDbLine
 10
866.5
 20
3264.4
 30
0.0
 11
1806.5
 21
3264.4
 31
0.0
  0
LINE
  5
CD
330
1F
100
AcDbEntity
  8
0
  6
Continuous
 62
     7
370
    25
100
AcDbLine
 10
1642.0193917803
 20
3014.4
 30
0.0
 11
1470.9806082197
 21
3014.4
 31
0.0
  0
LINE
  5
CE
330
1F
100
AcDbEntity
  8
0
  6
Continuous
 62
     7
370
    25
100
AcDbLine
 10
1646.4930759908
 20
2844.4
 30
0.0
 11
1642.0193917803
 21
3014.4
 31
0.0
  0
LINE
  5
CF
330
1F
100
AcDbEntity
  8
0
  6
Continuous
 62
     7
370
    25
100
AcDbLine
 10
1470.9806082197
 20
3014.4
 30
0.0
 11
1466.5069240092
 21
2844.4
 31
0.0
  0
LINE
  5
D0
330
1F
100
AcDbEntity
  8
0
  6
Continuous
 62
     7
370
    25
100
AcDbLine
 10
850.5
 20
3511.2938415433
 30
0.0
 11
1822.5
 21
3511.2938415433
 31
0.0
  0
LINE
  5
D1
330
1F
100
AcDbEntity
  8
0
  6
Continuous
 62
     7
370
    25
100
AcDbLine
 10
1817.4220089385
 20
3414.4
 30
0.0
 11
1822.5
 21
3511.2938415433
 31
0.0
  0
LINE
  5
D2
330
1F
100
AcDbEntity
  8
0
  6
Continuous
 62
     7
370
    25
100
AcDbLine
 10
855.5779910615
 20
3414.4
 30
0.0
 11
1817.4220089385
 21
3414.4
 31
0.0
  0
LINE
  5
D3
330
1F
100
AcDbEntity
  8
0
  6
Continuous
 62
     7
370
    25
100
AcDbLine
 10
850.5
 20
3511.2938415433
 30
0.0
 11
855.5779910615
 21
3414.4
 31
0.0
  0
LINE
  5
D4
330
1F
100
AcDbEntity
  8
0
  6
Continuous
 62
     7
370
    25
100
AcDbLine
 10
930.5
 20
3525.4
 30
0.0
 11
1742.5
 21
3525.4
 31
0.0
  0
LINE
  5
D5
330
1F
100
AcDbEntity
  8
0
  6
Continuous
 62
     7
370
    25
100
AcDbLine
 10
1822.5
 20
3511.2938415433
 30
0.0
 11
1742.5
 21
3525.4
 31
0.0
  0
LINE
  5
D6
330
1F
100
AcDbEntity
  8
0
  6
Continuous
 62
     7
370
    25
100
AcDbLine
 10
930.5
 20
3525.4
 30
0.0
 11
850.5
 21
3511.2938415433
 31
0.0
  0
LINE
  5
D7
330
1F
100
AcDbEntity
  8
0
  6
Continuous
 62
     7
370
    25
100
AcDbLine
 10
1736.5
 20
3525.4
 30
0.0
 11
1736.5
 21
3554.4
 31
0.0
  0
LINE
  5
D8
330
1F
100
AcDbEntity
  8
0
  6
Continuous
 62
     7
370
    25
100
AcDbLine
 10
936.5
 20
3525.4
 30
0.0
 11
936.5
 21
3554.4
 31
0.0
  0
LINE
  5
D9
330
1F
100
AcDbEntity
  8
0
  6
Continuous
 62
     7
370
    25
100
AcDbLine
 10
1736.5
 20
3554.4
 30
0.0
 11
1736.5
 21
3557.4
 31
0.0
  0
LINE
  5
DA
330
1F
100
AcDbEntity
  8
0
  6
Continuous
 62
     7
370
    25
100
AcDbLine
 10
936.5
 20
3554.4
 30
0.0
 11
936.5
 21
3557.4
 31
0.0
  0
LINE
  5
DB
330
1F
100
AcDbEntity
  8
0
  6
Continuous
 62
     7
370
    25
100
AcDbLine
 10
932.5
 20
3554.4
 30
0.0
 11
932.5
 21
3525.4
 31
0.0
  0
LINE
  5
DC
330
1F
100
AcDbEntity
  8
0
  6
Continuous
 62
     7
370
    25
100
AcDbLine
 10
930.5
 20
3554.4
 30
0.0
 11
930.5
 21
3525.4
 31
0.0
  0
LINE
  5
DD
330
1F
100
AcDbEntity
  8
0
  6
Continuous
 62
     7
370
    25
100
AcDbLine
 10
936.5
 20
3547.4
 30
0.0
 11
936.5
 21
3554.4
 31
0.0
  0
LINE
  5
DE
330
1F
100
AcDbEntity
  8
0
  6
Continuous
 62
     7
370
    25
100
AcDbLine
 10
934.5
 20
3547.4
 30
0.0
 11
934.5
 21
3554.4
 31
0.0
  0
LINE
  5
DF
330
1F
100
AcDbEntity
  8
0
  6
Continuous
 62
     7
370
    25
100
AcDbLine
 10
936.5
 20
3547.4
 30
0.0
 11
934.5
 21
3547.4
 31
0.0
  0
ARC
  5
E0
330
1F
100
AcDbEntity
  8
0
  6
Continuous
 62
     7
370
    25
100
AcDbCircle
 10
933.5
 20
3554.4
 30
0.0
 40
1.000000000000114
100
AcDbArc
 50
0.0
 51
180.0
  0
ARC
  5
E1
330
1F
100
AcDbEntity
  8
0
  6
Continuous
 62
     7
370
    25
100
AcDbCircle
 10
933.5
 20
3554.4
 30
0.0
 40
3.0
100
AcDbArc
 50
0.0
 51
180.0
  0
LINE
  5
E2
330
1F
100
AcDbEntity
  8
0
  6
Continuous
 62
     7
370
    25
100
AcDbLine
 10
934.5
 20
3547.4
 30
0.0
 11
934.5
 21
3525.4
 31
0.0
  0
ARC
  5
E3
330
1F
100
AcDbEntity
  8
0
  6
Continuous
 62
     7
370
    25
100
AcDbCircle
 10
1739.5
 20
3554.4
 30
0.0
 40
1.0
100
AcDbArc
 50
0.0
 51
180.0
  0
ARC
  5
E4
330
1F
100
AcDbEntity
  8
0
  6
Continuous
 62
     7
370
    25
100
AcDbCircle
 10
1739.5
 20
3554.4
 30
0.0
 40
3.000000000000227
100
AcDbArc
 50
0.0
 51
180.0
  0
LINE
  5
E5
330
1F
100
AcDbEntity
  8
0
  6
Continuous
 62
     7
370
    25
100
AcDbLine
 10
1736.5
 20
3547.4
 30
0.0
 11
1736.5
 21
3554.4
 31
0.0
  0
LINE
  5
E6
330
1F
100
AcDbEntity
  8
0
  6
Continuous
 62
     7
370
    25
100
AcDbLine
 10
1738.5
 20
3547.4
 30
0.0
 11
1738.5
 21
3554.4
 31
0.0
  0
LINE
  5
E7
330
1F
100
AcDbEntity
  8
0
  6
Continuous
 62
     7
370
    25
100
AcDbLine
 10
1736.5
 20
3547.4
 30
0.0
 11
1738.5
 21
3547.4
 31
0.0
  0
LINE
  5
E8
330
1F
100
AcDbEntity
  8
0
  6
Continuous
 62
     7
370
    25
100
AcDbLine
 10
1740.5
 20
3554.4
 30
0.0
 11
1740.5
 21
3525.4
 31
0.0
  0
LINE
  5
E9
330
1F
100
AcDbEntity
  8
0
  6
Continuous
 62
     7
370
    25
100
AcDbLine
 10
1742.5
 20
3554.4
 30
0.0
 11
1742.5
 21
3525.4
 31
0.0
  0
LINE
  5
EA
330
1F
100
AcDbEntity
  8
0
  6
Continuous
 62
     7
370
    25
100
AcDbLine
 10
1738.5
 20
3547.4
 30
0.0
 11
1738.5
 21
3525.4
 31
0.0
  0
LINE
  5
EB
330
1F
100
AcDbEntity
  8
0
  6
Continuous
 62
     7
370
    25
100
AcDbLine
 10
866.5
 20
3414.4
 30
0.0
 11
866.5
 21
3264.4
 31
0.0
  0
LINE
  5
EC
330
1F
100
AcDbEntity
  8
0
  6
Continuous
 62
     7
370
    25
100
AcDbLine
 10
1806.5
 20
3414.4
 30
0.0
 11
1806.5
 21
3264.4
 31
0.0
  0
LINE
  5
ED
330
1F
100
AcDbEntity
  8
0
  6
PHANTOM
 62
     1
370
    18
100
AcDbLine
 10
1736.5
 20
3554.4
 30
0.0
 11
936.5
 21
3554.4
 31
0.0
  0
LINE
  5
EE
330
1F
100
AcDbEntity
  8
0
  6
PHANTOM
 62
     1
370
    18
100
AcDbLine
 10
932.5
 20
3554.4
 30
0.0
 11
930.5
 21
3554.4
 31
0.0
  0
LINE
  5
EF
330
1F
100
AcDbEntity
  8
0
  6
PHANTOM
 62
     1
370
    18
100
AcDbLine
 10
936.5
 20
3554.4
 30
0.0
 11
934.5
 21
3554.4
 31
0.0
  0
LINE
  5
F0
330
1F
100
AcDbEntity
  8
0
  6
PHANTOM
 62
     1
370
    18
100
AcDbLine
 10
1738.5
 20
3554.4
 30
0.0
 11
1736.5
 21
3554.4
 31
0.0
  0
LINE
  5
F1
330
1F
100
AcDbEntity
  8
0
  6
PHANTOM
 62
     1
370
    18
100
AcDbLine
 10
1742.5
 20
3554.4
 30
0.0
 11
1740.5
 21
3554.4
 31
0.0
  0
LINE
  5
F2
330
1F
100
AcDbEntity
  8
0
  6
CENTERX2
 62
     7
100
AcDbLine
 10
990.8758003065
 20
1252.8960516089
 30
0.0
 11
990.8758003065
 21
1312.6776094669
 31
0.0
  0
POINT
  5
F3
330
1F
100
AcDbEntity
  8
0
  6
Continuous
 62
     7
100
AcDbPoint
 10
989.3758003065
 20
1298.8960516089
 30
0.0
  0
POINT
  5
F4
330
1F
100
AcDbEntity
  8
0
  6
Continuous
 62
     7
100
AcDbPoint
 10
1028.8758003065
 20
1267.8960516089
 30
0.0
  0
POINT
  5
F5
330
1F
100
AcDbEntity
  8
0
  6
Continuous
 62
     7
100
AcDbPoint
 10
952.8758003065
 20
1267.8960516089
 30
0.0
  0
LINE
  5
F6
330
1F
100
AcDbEntity
  8
0
  6
Continuous
 62
     7
370
    25
100
AcDbLine
 10
938.2518420361
 20
1708.2538078088
 30
0.0
 11
938.2518420361
 21
1243.5461921912
 31
0.0
  0
LINE
  5
F7
330
1F
100
AcDbEntity
  8
0
  6
Continuous
 62
     7
370
    25
100
AcDbLine
 10
938.3306322519
 20
1709.8471858314
 30
0.0
 11
938.3306322519
 21
1708.3474142886
 31
0.0
  0
LINE
  5
F8
330
1F
100
AcDbEntity
  8
0
  6
Continuous
 62
     7
370
    25
100
AcDbLine
 10
1724.3759210181
 20
1709.8559815176
 30
0.0
 11
949.375921018
 21
1709.8559815176
 31
0.0
  0
LINE
  5
F9
330
1F
100
AcDbEntity
  8
0
  6
Continuous
 62
     7
370
    25
100
AcDbLine
 10
938.3306322519
 20
1243.4525857114
 30
0.0
 11
938.3306322519
 21
1241.9528141686
 31
0.0
  0
LINE
  5
FA
330
1F
100
AcDbEntity
  8
0
  6
Continuous
 62
     7
370
    25
100
AcDbLine
 10
949.375921018
 20
1241.9440184824
 30
0.0
 11
1724.3759210181
 21
1241.9440184824
 31
0.0
  0
LINE
  5
FB
330
1F
100
AcDbEntity
  8
0
  6
Continuous
 62
     7
370
    25
100
AcDbLine
 10
1735.4212097842
 20
1708.3474142886
 30
0.0
 11
1735.4212097842
 21
1709.8471858314
 31
0.0
  0
LINE
  5
FC
330
1F
100
AcDbEntity
  8
0
  6
Continuous
 62
     7
370
    25
100
AcDbLine
 10
1735.5
 20
1243.5461921912
 30
0.0
 11
1735.5
 21
1708.2538078088
 31
0.0
  0
LINE
  5
FD
330
1F
100
AcDbEntity
  8
0
  6
Continuous
 62
     7
370
    25
100
AcDbLine
 10
1735.4212097842
 20
1241.9528141686
 30
0.0
 11
1735.4212097842
 21
1243.4525857114
 31
0.0
  0
LINE
  5
FE
330
1F
100
AcDbEntity
  8
0
  6
Continuous
 62
     7
370
    25
100
AcDbLine
 10
1742.5
 20
1716.9
 30
0.0
 11
1822.5
 21
1796.9
 31
0.0
  0
LINE
  5
FF
330
1F
100
AcDbEntity
  8
0
  6
Continuous
 62
     7
370
    25
100
AcDbLine
 10
850.5
 20
1796.9
 30
0.0
 11
930.5
 21
1716.9
 31
0.0
  0
LINE
  5
100
330
1F
100
AcDbEntity
  8
0
  6
Continuous
 62
     7
370
    25
100
AcDbLine
 10
1822.5
 20
1796.9
 30
0.0
 11
850.5
 21
1796.9
 31
0.0
  0
LINE
  5
101
330
1F
100
AcDbEntity
  8
0
  6
Continuous
 62
     7
370
    25
100
AcDbLine
 10
850.5
 20
1154.9
 30
0.0
 11
850.5
 21
1796.9
 31
0.0
  0
LINE
  5
102
330
1F
100
AcDbEntity
  8
0
  6
Continuous
 62
     7
370
    25
100
AcDbLine
 10
930.5
 20
1234.9
 30
0.0
 11
850.5
 21
1154.9
 31
0.0
  0
LINE
  5
103
330
1F
100
AcDbEntity
  8
0
  6
Continuous
 62
     7
370
    25
100
AcDbLine
 10
1822.5
 20
1154.9
 30
0.0
 11
1822.5
 21
1796.9
 31
0.0
  0
LINE
  5
104
330
1F
100
AcDbEntity
  8
0
  6
Continuous
 62
     7
370
    25
100
AcDbLine
 10
1822.5
 20
1154.9
 30
0.0
 11
1742.5
 21
1234.9
 31
0.0
  0
LINE
  5
105
330
1F
100
AcDbEntity
  8
0
  6
Continuous
 62
     7
370
    25
100
AcDbLine
 10
850.5
 20
1154.9
 30
0.0
 11
1822.5
 21
1154.9
 31
0.0
  0
LINE
  5
106
330
1F
100
AcDbEntity
  8
0
  6
Continuous
 62
     7
370
    25
100
AcDbLine
 10
948.8758003065
 20
1644.9039483911
 30
0.0
 11
1010.8758003065
 21
1644.9039483911
 31
0.0
  0
ARC
  5
107
330
1F
100
AcDbEntity
  8
0
  6
Continuous
 62
     7
370
    25
100
AcDbCircle
 10
1010.8758003065
 20
1667.9039483911
 30
0.0
 40
23.0
100
AcDbArc
 50
270.0
 51
0.0
  0
LINE
  5
108
330
1F
100
AcDbEntity
  8
0
  6
Continuous
 62
     7
370
    25
100
AcDbLine
 10
1033.8758003065
 20
1667.9039483911
 30
0.0
 11
1033.8758003065
 21
1698.9039483911
 31
0.0
  0
LINE
  5
109
330
1F
100
AcDbEntity
  8
0
  6
Continuous
 62
     7
370
    25
100
AcDbLine
 10
1724.8759210181
 20
1698.9039483911
 30
0.0
 11
1033.8758003065
 21
1698.9039483911
 31
0.0
  0
LINE
  5
10A
330
1F
100
AcDbEntity
  8
0
  6
Continuous
 62
     7
370
    25
100
AcDbLine
 10
1724.8759210181
 20
1252.9
 30
0.0
 11
1724.8759210181
 21
1698.9039483911
 31
0.0
  0
LINE
  5
10B
330
1F
100
AcDbEntity
  8
0
  6
Continuous
 62
     7
370
    25
100
AcDbLine
 10
1033.8758003065
 20
1252.9
 30
0.0
 11
1724.8759210181
 21
1252.9
 31
0.0
  0
LINE
  5
10C
330
1F
100
AcDbEntity
  8
0
  6
Continuous
 62
     7
370
    25
100
AcDbLine
 10
1033.8758003065
 20
1283.9
 30
0.0
 11
1033.8758003065
 21
1252.9
 31
0.0
  0
ARC
  5
10D
330
1F
100
AcDbEntity
  8
0
  6
Continuous
 62
     7
370
    25
100
AcDbCircle
 10
1010.8758003065
 20
1283.9
 30
0.0
 40
23.00000000000023
100
AcDbArc
 50
360.0
 51
90.0
  0
LINE
  5
10E
330
1F
100
AcDbEntity
  8
0
  6
Continuous
 62
     7
370
    25
100
AcDbLine
 10
948.8758003065
 20
1306.9
 30
0.0
 11
1010.8758003065
 21
1306.9
 31
0.0
  0
LINE
  5
10F
330
1F
100
AcDbEntity
  8
0
  6
Continuous
 62
     7
370
    25
100
AcDbLine
 10
948.8758003065
 20
1644.9039483911
 30
0.0
 11
948.8758003065
 21
1306.9
 31
0.0
  0
CIRCLE
  5
110
330
1F
100
AcDbEntity
  8
0
  6
Continuous
 62
     7
370
    25
100
AcDbCircle
 10
1661.4759210181
 20
1284.4
 30
0.0
 40
17.0
  0
CIRCLE
  5
111
330
1F
100
AcDbEntity
  8
0
  6
Continuous
 62
     7
370
    25
100
AcDbCircle
 10
1661.4759210181
 20
1667.4
 30
0.0
 40
17.0
  0
CIRCLE
  5
112
330
1F
100
AcDbEntity
  8
0
  6
Continuous
 62
     7
370
    25
100
AcDbCircle
 10
989.3758003065
 20
1298.8960516089
 30
0.0
 40
3.000000000000227
  0
CIRCLE
  5
113
330
1F
100
AcDbEntity
  8
0
  6
Continuous
 62
     7
370
    25
100
AcDbCircle
 10
989.3758003065
 20
1298.8960516089
 30
0.0
 40
4.5
  0
LINE
  5
114
330
1F
100
AcDbEntity
  8
0
  6
Continuous
 62
     7
370
    25
100
AcDbLine
 10
947.8758003065
 20
1306.8960516089
 30
0.0
 11
1011.3758003065
 21
1306.8960516089
 31
0.0
  0
ARC
  5
115
330
1F
100
AcDbEntity
  8
0
  6
Continuous
 62
     7
370
    25
100
AcDbCircle
 10
1011.3758003065
 20
1284.3960516089
 30
0.0
 40
22.5
100
AcDbArc
 50
0.0
 51
90.0
  0
LINE
  5
116
330
1F
100
AcDbEntity
  8
0
  6
Continuous
 62
     7
370
    25
100
AcDbLine
 10
1033.8758003065
 20
1284.3960516089
 30
0.0
 11
1033.8758003065
 21
1252.8960516089
 31
0.0
  0
LINE
  5
117
330
1F
100
AcDbEntity
  8
0
  6
Continuous
 62
     7
370
    25
100
AcDbLine
 10
1033.8758003065
 20
1252.8960516089
 30
0.0
 11
947.8758003065
 21
1252.8960516089
 31
0.0
  0
LINE
  5
118
330
1F
100
AcDbEntity
  8
0
  6
Continuous
 62
     7
370
    25
100
AcDbLine
 10
947.8758003065
 20
1252.8960516089
 30
0.0
 11
947.8758003065
 21
1306.8960516089
 31
0.0
  0
CIRCLE
  5
119
330
1F
100
AcDbEntity
  8
0
  6
Continuous
 62
     7
370
    25
100
AcDbCircle
 10
1011.3758003065
 20
1284.3960516089
 30
0.0
 40
17.5
  0
ELLIPSE
  5
11A
330
1F
100
AcDbEntity
  8
0
  6
Continuous
 62
     7
370
    25
100
AcDbEllipse
 10
975.3758003065
 20
1277.3960516089
 30
0.0
 11
17.50000000000011
 21
0.0
 31
0.0
210
0.0
220
0.0
230
1.0
 40
0.8571428571
 41
0.0
 42
6.283185307179586
  0
CIRCLE
  5
11B
330
1F
100
AcDbEntity
  8
0
  6
Continuous
 62
     7
370
    25
100
AcDbCircle
 10
1028.8758003065
 20
1267.8960516089
 30
0.0
 40
4.5
  0
CIRCLE
  5
11C
330
1F
100
AcDbEntity
  8
0
  6
Continuous
 62
     7
370
    25
100
AcDbCircle
 10
953.3758003065
 20
1267.8960516089
 30
0.0
 40
4.5
  0
CIRCLE
  5
11D
330
1F
100
AcDbEntity
  8
0
  6
Continuous
 62
     7
370
    25
100
AcDbCircle
 10
953.3758003065
 20
1267.8960516089
 30
0.0
 40
3.0
  0
CIRCLE
  5
11E
330
1F
100
AcDbEntity
  8
0
  6
Continuous
 62
     7
370
    25
100
AcDbCircle
 10
1028.8758003065
 20
1267.8960516089
 30
0.0
 40
3.000000000000227
  0
ARC
  5
11F
330
1F
100
AcDbEntity
  8
0
  6
Continuous
 62
     7
370
    25
100
AcDbCircle
 10
952.8758003065
 20
1683.9039483911
 30
0.0
 40
4.500000000000152
100
AcDbArc
 50
207.2660444507
 51
152.7339555493
  0
CIRCLE
  5
120
330
1F
100
AcDbEntity
  8
0
  6
Continuous
 62
     7
370
    25
100
AcDbCircle
 10
952.8758003065
 20
1683.9039483911
 30
0.0
 40
3.000000000000227
  0
CIRCLE
  5
121
330
1F
100
AcDbEntity
  8
0
  6
Continuous
 62
     7
370
    25
100
AcDbCircle
 10
1028.8758003065
 20
1683.9039483911
 30
0.0
 40
4.499999999999773
  0
CIRCLE
  5
122
330
1F
100
AcDbEntity
  8
0
  6
Continuous
 62
     7
370
    25
100
AcDbCircle
 10
1028.8758003065
 20
1683.9039483911
 30
0.0
 40
3.000000000000227
  0
LINE
  5
123
330
1F
100
AcDbEntity
  8
0
  6
Continuous
 62
     7
370
    25
100
AcDbLine
 10
962.009213768
 20
1695.6731791603
 30
0.0
 11
964.337338768
 21
1695.6731791603
 31
0.0
  0
LINE
  5
124
330
1F
100
AcDbEntity
  8
0
  6
Continuous
 62
     7
370
    25
100
AcDbLine
 10
961.086136845
 20
1696.9039483911
 30
0.0
 11
962.2604156911
 21
1696.9039483911
 31
0.0
  0
LINE
  5
125
330
1F
100
AcDbEntity
  8
0
  6
Continuous
 62
     7
370
    25
100
AcDbLine
 10
961.4286849219
 20
1692.8270253142
 30
0.0
 11
961.4356304097
 21
1692.8354387757
 31
0.0
  0
LINE
  5
126
330
1F
100
AcDbEntity
  8
0
  6
Continuous
 62
     7
370
    25
100
AcDbLine
 10
961.4303993838
 20
1692.8354387757
 30
0.0
 11
961.4286849219
 21
1692.8270253142
 31
0.0
  0
LINE
  5
127
330
1F
100
AcDbEntity
  8
0
  6
Continuous
 62
     7
370
    25
100
AcDbLine
 10
961.804886845
 20
1694.6731791603
 30
0.0
 11
961.6481360437
 21
1693.9039483911
 31
0.0
  0
LINE
  5
128
330
1F
100
AcDbEntity
  8
0
  6
Continuous
 62
     7
370
    25
100
AcDbLine
 10
973.1065695373
 20
1695.2885637757
 30
0.0
 11
975.337338768
 21
1695.2885637757
 31
0.0
  0
LINE
  5
129
330
1F
100
AcDbEntity
  8
0
  6
Continuous
 62
     7
370
    25
100
AcDbLine
 10
972.8758003065
 20
1694.1347176219
 30
0.0
 11
973.1065695373
 21
1695.2885637757
 31
0.0
  0
LINE
  5
12A
330
1F
100
AcDbEntity
  8
0
  6
Continuous
 62
     7
370
    25
100
AcDbLine
 10
975.1065695373
 20
1694.1347176219
 30
0.0
 11
972.8758003065
 21
1694.1347176219
 31
0.0
  0
LINE
  5
12B
330
1F
100
AcDbEntity
  8
0
  6
Continuous
 62
     7
370
    25
100
AcDbLine
 10
975.337338768
 20
1695.2885637757
 30
0.0
 11
975.1065695373
 21
1694.1347176219
 31
0.0
  0
SPLINE
  5
12C
330
1F
100
AcDbEntity
  8
0
  6
Continuous
 62
     7
370
    25
100
AcDbSpline
210
0.0
220
0.0
230
1.0
 70
     8
 71
     3
 72
    13
 73
     9
 74
     0
 42
0.000000001
 43
0.00000001
 40
0.0
 40
0.0
 40
0.0
 40
0.0
 40
0.1398485252536975
 40
0.2797783418898025
 40
0.4196255190248664
 40
0.5597281978137473
 40
0.7799067542671998
 40
1.0
 40
1.0
 40
1.0
 40
1.0
 10
986.4983964603491
 20
1691.827025314192
 30
0.0
 10
986.669470681318
 20
1691.841822582179
 30
0.0
 10
987.0117185655622
 20
1691.871425719532
 30
0.0
 10
987.4777851868961
 20
1692.108037313686
 30
0.0
 10
987.8591046677021
 20
1692.458025608319
 30
0.0
 10
988.1784132870581
 20
1692.982040575011
 30
0.0
 10
988.4297474751994
 20
1693.652589247184
 30
0.0
 10
988.4707084186356
 20
1694.189587719874
 30
0.0
 10
988.4911849218875
 20
1694.458034929577
 30
0.0
  0
SPLINE
  5
12D
330
1F
100
AcDbEntity
  8
0
  6
Continuous
 62
     7
370
    25
100
AcDbSpline
210
0.0
220
0.0
230
1.0
 70
     8
 71
     3
 72
    12
 73
     8
 74
     0
 42
0.000000001
 43
0.00000001
 40
0.0
 40
0.0
 40
0.0
 40
0.0
 40
0.187099215037178
 40
0.3738833234225485
 40
0.5602066026945807
 40
0.7797735171875723
 40
1.0
 40
1.0
 40
1.0
 40
1.0
 10
985.3373387680414
 20
1692.827025314192
 30
0.0
 10
985.3611756760408
 20
1692.724110136405
 30
0.0
 10
985.4088093466637
 20
1692.518453107357
 30
0.0
 10
985.5504678969471
 20
1692.23105642813
 30
0.0
 10
985.791120670125
 20
1691.989895408647
 30
0.0
 10
986.1251501910886
 20
1691.847115212911
 30
0.0
 10
986.3738567069594
 20
1691.83372863915
 30
0.0
 10
986.4983964603491
 20
1691.827025314192
 30
0.0
  0
LINE
  5
12E
330
1F
100
AcDbEntity
  8
0
  6
Continuous
 62
     7
370
    25
100
AcDbLine
 10
985.6450310757
 20
1694.7501022373
 30
0.0
 11
984.4911849219
 21
1694.9376022373
 31
0.0
  0
LINE
  5
12F
330
1F
100
AcDbEntity
  8
0
  6
Continuous
 62
     7
370
    25
100
AcDbLine
 10
998.4911849219
 20
1695.2885637757
 30
0.0
 11
1000.7219541527
 21
1695.2885637757
 31
0.0
  0
LINE
  5
130
330
1F
100
AcDbEntity
  8
0
  6
Continuous
 62
     7
370
    25
100
AcDbLine
 10
998.2604156911
 20
1694.1347176219
 30
0.0
 11
998.4911849219
 21
1695.2885637757
 31
0.0
  0
LINE
  5
131
330
1F
100
AcDbEntity
  8
0
  6
Continuous
 62
     7
370
    25
100
AcDbLine
 10
1000.4911849219
 20
1694.1347176219
 30
0.0
 11
998.2604156911
 21
1694.1347176219
 31
0.0
  0
LINE
  5
132
330
1F
100
AcDbEntity
  8
0
  6
Continuous
 62
     7
370
    25
100
AcDbLine
 10
1000.7219541527
 20
1695.2885637757
 30
0.0
 11
1000.4911849219
 21
1694.1347176219
 31
0.0
  0
LINE
  5
133
330
1F
100
AcDbEntity
  8
0
  6
Continuous
 62
     7
370
    25
100
AcDbLine
 10
1012.1250608033
 20
1692.0140519302
 30
0.0
 11
1013.737104076
 21
1692.0140519392
 31
0.0
  0
LINE
  5
134
330
1F
100
AcDbEntity
  8
0
  6
Continuous
 62
     7
370
    25
100
AcDbLine
 10
1020.6450310757
 20
1695.9039483911
 30
0.0
 11
1020.8758003065
 21
1696.9039483911
 31
0.0
  0
LINE
  5
135
330
1F
100
AcDbEntity
  8
0
  6
Continuous
 62
     7
370
    25
100
AcDbLine
 10
1024.1125791527
 20
1695.9039483911
 30
0.0
 11
1020.6450310757
 21
1695.9039483911
 31
0.0
  0
LINE
  5
136
330
1F
100
AcDbEntity
  8
0
  6
Continuous
 62
     7
370
    25
100
AcDbLine
 10
1033.8758003065
 20
1667.4039483911
 30
0.0
 11
1033.8758003065
 21
1698.9039483911
 31
0.0
  0
ARC
  5
137
330
1F
100
AcDbEntity
  8
0
  6
Continuous
 62
     7
370
    25
100
AcDbCircle
 10
1011.3758003065
 20
1667.4039483911
 30
0.0
 40
22.50000000000023
100
AcDbArc
 50
270.0
 51
0.0
  0
LINE
  5
138
330
1F
100
AcDbEntity
  8
0
  6
Continuous
 62
     7
370
    25
100
AcDbLine
 10
948.8758003065
 20
1644.9039483911
 30
0.0
 11
1011.3758003065
 21
1644.9039483911
 31
0.0
  0
LINE
  5
139
330
1F
100
AcDbEntity
  8
0
  6
Continuous
 62
     7
370
    25
100
AcDbLine
 10
1033.8758003065
 20
1698.9039483911
 30
0.0
 11
948.8758003065
 21
1698.9039483911
 31
0.0
  0
CIRCLE
  5
13A
330
1F
100
AcDbEntity
  8
0
  6
Continuous
 62
     7
370
    25
100
AcDbCircle
 10
989.3758003065
 20
1652.9039483911
 30
0.0
 40
4.5
  0
SPLINE
  5
13B
330
1F
100
AcDbEntity
  8
0
  6
Continuous
 62
     7
370
    25
100
AcDbSpline
210
0.0
220
0.0
230
1.0
 70
     8
 71
     3
 72
    11
 73
     7
 74
     0
 42
0.000000001
 43
0.00000001
 40
0.0
 40
0.0
 40
0.0
 40
0.0
 40
0.2798991681875465
 40
0.5592164693538872
 40
0.7794307254751058
 40
0.9999999999999999
 40
0.9999999999999999
 40
0.9999999999999999
 40
0.9999999999999999
 10
1025.952723383426
 20
1692.370294544962
 30
0.0
 10
1025.96745054121
 20
1692.550579311813
 30
0.0
 10
1025.996874241297
 20
1692.910774061407
 30
0.0
 10
1026.265566027091
 20
1693.353086590916
 30
0.0
 10
1026.631272075282
 20
1693.643985233178
 30
0.0
 10
1026.894380514402
 20
1693.748355727832
 30
0.0
 10
1027.026040691118
 20
1693.8005830065
 30
0.0
  0
SPLINE
  5
13C
330
1F
100
AcDbEntity
  8
0
  6
Continuous
 62
     7
370
    25
100
AcDbSpline
210
0.0
220
0.0
230
1.0
 70
     8
 71
     3
 72
     9
 73
     5
 74
     0
 42
0.000000001
 43
0.00000001
 40
0.0
 40
0.0
 40
0.0
 40
0.0
 40
0.5601155386292993
 40
1.0
 40
1.0
 40
1.0
 40
1.0
 10
1028.239982998811
 20
1690.903948391116
 30
0.0
 10
1028.067055092701
 20
1690.904051401532
 30
0.0
 10
1027.758318958487
 20
1690.904235310761
 30
0.0
 10
1027.450922901578
 20
1690.932417061491
 30
0.0
 10
1027.315704152657
 20
1690.944813775731
 30
0.0
  0
SPLINE
  5
13D
330
1F
100
AcDbEntity
  8
0
  6
Continuous
 62
     7
370
    25
100
AcDbSpline
210
0.0
220
0.0
230
1.0
 70
     8
 71
     3
 72
    13
 73
     9
 74
     0
 42
0.000000001
 43
0.00000001
 40
0.0
 40
0.0
 40
0.0
 40
0.0
 40
0.1250878527217616
 40
0.2501874559533908
 40
0.3753167681003079
 40
0.5002437112262177
 40
0.7497629922318553
 40
1.0
 40
1.0
 40
1.0
 40
1.0
 10
1027.260415691118
 20
1695.039765698808
 30
0.0
 10
1027.263971301532
 20
1694.982815896743
 30
0.0
 10
1027.271082856366
 20
1694.868910942859
 30
0.0
 10
1027.343160208261
 20
1694.711043235982
 30
0.0
 10
1027.452415629953
 20
1694.578747442416
 30
0.0
 10
1027.640531138359
 20
1694.447958798757
 30
0.0
 10
1027.921069695097
 20
1694.375701070341
 30
0.0
 10
1028.147192110275
 20
1694.368894850142
 30
0.0
 10
1028.260415691118
 20
1694.365486852654
 30
0.0
  0
LINE
  5
13E
330
1F
100
AcDbEntity
  8
0
  6
Continuous
 62
     7
370
    25
100
AcDbLine
 10
1014.414261845
 20
1690.9039483911
 30
0.0
 11
1014.6450310757
 21
1691.9039483911
 31
0.0
  0
LINE
  5
13F
330
1F
100
AcDbEntity
  8
0
  6
Continuous
 62
     7
370
    25
100
AcDbLine
 10
1019.1065695373
 20
1690.9039483911
 30
0.0
 11
1014.414261845
 21
1690.9039483911
 31
0.0
  0
SPLINE
  5
140
330
1F
100
AcDbEntity
  8
0
  6
Continuous
 62
     7
370
    25
100
AcDbSpline
210
0.0
220
0.0
230
1.0
 70
     8
 71
     3
 72
     9
 73
     5
 74
     0
 42
0.000000001
 43
0.00000001
 40
0.0
 40
0.0
 40
0.0
 40
0.0
 40
0.5599041079336678
 40
1.0
 40
1.0
 40
1.0
 40
1.0
 10
1005.827723383426
 20
1694.970054160346
 30
0.0
 10
1005.980142852162
 20
1695.161367827021
 30
0.0
 10
1006.252367089448
 20
1695.503057884237
 30
0.0
 10
1006.545062973419
 20
1695.827339259305
 30
0.0
 10
1006.67387722958
 20
1695.970054160347
 30
0.0
  0
SPLINE
  5
141
330
1F
100
AcDbEntity
  8
0
  6
Continuous
 62
     7
370
    25
100
AcDbSpline
210
0.0
220
0.0
230
1.0
 70
     8
 71
     3
 72
     9
 73
     5
 74
     0
 42
0.000000001
 43
0.00000001
 40
0.0
 40
0.0
 40
0.0
 40
0.0
 40
0.5600421141634758
 40
1.0
 40
1.0
 40
1.0
 40
1.0
 10
1005.332531075734
 20
1695.998900314192
 30
0.0
 10
1005.43160038519
 20
1695.810000542687
 30
0.0
 10
1005.608496563086
 20
1695.472704888077
 30
0.0
 10
1005.760741863102
 20
1695.123631673732
 30
0.0
 10
1005.827723383426
 20
1694.970054160346
 30
0.0
  0
LINE
  5
142
330
1F
100
AcDbEntity
  8
0
  6
Continuous
 62
     7
370
    25
100
AcDbLine
 10
1004.8541656911
 20
1696.9039483911
 30
0.0
 11
1005.3325310757
 21
1695.9989003142
 31
0.0
  0
LINE
  5
143
330
1F
100
AcDbEntity
  8
0
  6
Continuous
 62
     7
370
    25
100
AcDbLine
 10
1003.5681079988
 20
1696.9039483911
 30
0.0
 11
1004.8541656911
 21
1696.9039483911
 31
0.0
  0
LINE
  5
144
330
1F
100
AcDbEntity
  8
0
  6
Continuous
 62
     7
370
    25
100
AcDbLine
 10
1005.0368579988
 20
1694.0686118527
 30
0.0
 11
1003.5681079988
 21
1696.9039483911
 31
0.0
  0
LINE
  5
145
330
1F
100
AcDbEntity
  8
0
  6
Continuous
 62
     7
370
    25
100
AcDbLine
 10
1003.7652233834
 20
1690.9039483911
 30
0.0
 11
1002.2604156911
 21
1690.9039483911
 31
0.0
  0
LINE
  5
146
330
1F
100
AcDbEntity
  8
0
  6
Continuous
 62
     7
370
    25
100
AcDbLine
 10
1004.7351753065
 20
1691.9820733911
 30
0.0
 11
1003.7652233834
 21
1690.9039483911
 31
0.0
  0
SPLINE
  5
147
330
1F
100
AcDbEntity
  8
0
  6
Continuous
 62
     7
370
    25
100
AcDbSpline
210
0.0
220
0.0
230
1.0
 70
     8
 71
     3
 72
     9
 73
     5
 74
     0
 42
0.000000001
 43
0.00000001
 40
0.0
 40
0.0
 40
0.0
 40
0.0
 40
0.560003286595633
 40
1.0
 40
1.0
 40
1.0
 40
1.0
 10
1005.59575222958
 20
1692.990486852654
 30
0.0
 10
1005.437269198229
 20
1692.800402565962
 30
0.0
 10
1005.154265446029
 20
1692.460968331838
 30
0.0
 10
1004.863229962666
 20
1692.128401641744
 30
0.0
 10
1004.735175306503
 20
1691.982073391116
 30
0.0
  0
SPLINE
  5
148
330
1F
100
AcDbEntity
  8
0
  6
Continuous
 62
     7
370
    25
100
AcDbSpline
210
0.0
220
0.0
230
1.0
 70
     8
 71
     3
 72
     9
 73
     5
 74
     0
 42
0.000000001
 43
0.00000001
 40
0.0
 40
0.0
 40
0.0
 40
0.0
 40
0.5599978155312617
 40
0.9999999999999999
 40
0.9999999999999999
 40
0.9999999999999999
 40
0.9999999999999999
 10
1006.068107998811
 20
1692.039765698808
 30
0.0
 10
1005.990190441884
 20
1692.196335193698
 30
0.0
 10
1005.851051404613
 20
1692.475924668062
 30
0.0
 10
1005.712155286502
 20
1692.755634895437
 30
0.0
 10
1005.651040691118
 20
1692.8787080065
 30
0.0
  0
LINE
  5
149
330
1F
100
AcDbEntity
  8
0
  6
Continuous
 62
     7
370
    25
100
AcDbLine
 10
1006.6762810757
 20
1690.9039483911
 30
0.0
 11
1006.0681079988
 21
1692.0397656988
 31
0.0
  0
LINE
  5
14A
330
1F
100
AcDbEntity
  8
0
  6
Continuous
 62
     7
370
    25
100
AcDbLine
 10
1007.8758003065
 20
1690.9039483911
 30
0.0
 11
1006.6762810757
 21
1690.9039483911
 31
0.0
  0
LINE
  5
14B
330
1F
100
AcDbEntity
  8
0
  6
Continuous
 62
     7
370
    25
100
AcDbLine
 10
1009.0296464603
 20
1696.9039483911
 30
0.0
 11
1006.3770022296
 21
1693.8799099296
 31
0.0
  0
LINE
  5
14C
330
1F
100
AcDbEntity
  8
0
  6
Continuous
 62
     7
370
    25
100
AcDbLine
 10
990.6450310757
 20
1695.9039483911
 30
0.0
 11
990.8758003065
 21
1696.9039483911
 31
0.0
  0
LINE
  5
14D
330
1F
100
AcDbEntity
  8
0
  6
Continuous
 62
     7
370
    25
100
AcDbLine
 10
993.7832522296
 20
1694.2885637757
 30
0.0
 11
994.1125791527
 21
1695.9039483911
 31
0.0
  0
LINE
  5
14E
330
1F
100
AcDbEntity
  8
0
  6
Continuous
 62
     7
370
    25
100
AcDbLine
 10
990.6450310757
 20
1694.2885637757
 30
0.0
 11
993.7832522296
 21
1694.2885637757
 31
0.0
  0
LINE
  5
14F
330
1F
100
AcDbEntity
  8
0
  6
Continuous
 62
     7
370
    25
100
AcDbLine
 10
990.414261845
 20
1693.2885637757
 30
0.0
 11
990.6450310757
 21
1694.2885637757
 31
0.0
  0
LINE
  5
150
330
1F
100
AcDbEntity
  8
0
  6
Continuous
 62
     7
370
    25
100
AcDbLine
 10
993.5801272296
 20
1693.2885637757
 30
0.0
 11
990.414261845
 21
1693.2885637757
 31
0.0
  0
LINE
  5
151
330
1F
100
AcDbEntity
  8
0
  6
Continuous
 62
     7
370
    25
100
AcDbLine
 10
993.2988772296
 20
1691.9039483911
 30
0.0
 11
993.5801272296
 21
1693.2885637757
 31
0.0
  0
LINE
  5
152
330
1F
100
AcDbEntity
  8
0
  6
Continuous
 62
     7
370
    25
100
AcDbLine
 10
990.1065695373
 20
1691.9039483911
 30
0.0
 11
993.2988772296
 21
1691.9039483911
 31
0.0
  0
LINE
  5
153
330
1F
100
AcDbEntity
  8
0
  6
Continuous
 62
     7
370
    25
100
AcDbLine
 10
994.2712329988
 20
1690.9039483911
 30
0.0
 11
989.8758003065
 21
1690.9039483911
 31
0.0
  0
LINE
  5
154
330
1F
100
AcDbEntity
  8
0
  6
Continuous
 62
     7
370
    25
100
AcDbLine
 10
995.4911849219
 20
1696.9039483911
 30
0.0
 11
994.2712329988
 21
1690.9039483911
 31
0.0
  0
LINE
  5
155
330
1F
100
AcDbEntity
  8
0
  6
Continuous
 62
     7
370
    25
100
AcDbLine
 10
990.8758003065
 20
1696.9039483911
 30
0.0
 11
995.4911849219
 21
1696.9039483911
 31
0.0
  0
SPLINE
  5
156
330
1F
100
AcDbEntity
  8
0
  6
Continuous
 62
     7
370
    25
100
AcDbSpline
210
0.0
220
0.0
230
1.0
 70
     8
 71
     3
 72
     9
 73
     5
 74
     0
 42
0.000000001
 43
0.00000001
 40
0.0
 40
0.0
 40
0.0
 40
0.0
 40
0.5598642503590162
 40
1.0
 40
1.0
 40
1.0
 40
1.0
 10
983.6450310757336
 20
1694.543371468039
 30
0.0
 10
983.6349628862425
 20
1694.333001361288
 30
0.0
 10
983.6169796171113
 20
1693.957249370309
 30
0.0
 10
983.5271266539536
 20
1693.592244370916
 30
0.0
 10
983.4875791526567
 20
1693.431592621885
 30
0.0
  0
SPLINE
  5
157
330
1F
100
AcDbEntity
  8
0
  6
Continuous
 62
     7
370
    25
100
AcDbSpline
210
0.0
220
0.0
230
1.0
 70
     8
 71
     3
 72
    13
 73
     9
 74
     0
 42
0.000000001
 43
0.00000001
 40
0.0
 40
0.0
 40
0.0
 40
0.0
 40
0.186775458928895
 40
0.3731335127427601
 40
0.5595943382241872
 40
0.7062110295938392
 40
0.8531314467721591
 40
0.9999999999999999
 40
0.9999999999999999
 40
0.9999999999999999
 40
0.9999999999999999
 10
981.2231560757336
 20
1696.980871468039
 30
0.0
 10
981.4644597772431
 20
1696.968177861218
 30
0.0
 10
981.9465279156287
 20
1696.942819015203
 30
0.0
 10
982.617815079401
 20
1696.644897308993
 30
0.0
 10
983.1293808403549
 20
1696.196762969662
 30
0.0
 10
983.4384288981917
 20
1695.655185885306
 30
0.0
 10
983.6089352374411
 20
1695.110024693374
 30
0.0
 10
983.6330005457569
 20
1694.732233645406
 30
0.0
 10
983.6450310757336
 20
1694.543371468039
 30
0.0
  0
SPLINE
  5
158
330
1F
100
AcDbEntity
  8
0
  6
Continuous
 62
     7
370
    25
100
AcDbSpline
210
0.0
220
0.0
230
1.0
 70
     8
 71
     3
 72
    12
 73
     8
 74
     0
 42
0.000000001
 43
0.00000001
 40
0.0
 40
0.0
 40
0.0
 40
0.0
 40
0.1871657177721585
 40
0.3740017811877406
 40
0.560625336306316
 40
0.7801383859830996
 40
1.0
 40
1.0
 40
1.0
 40
1.0
 10
979.029646460349
 20
1693.34385223727
 30
0.0
 10
979.0361167993191
 20
1693.199956750389
 30
0.0
 10
979.0490460810726
 20
1692.912419219271
 30
0.0
 10
979.1944608969866
 20
1692.498758863251
 30
0.0
 10
979.4775382743387
 20
1692.13507455218
 30
0.0
 10
979.8994791939679
 20
1691.868896218759
 30
0.0
 10
980.2393726184383
 20
1691.840989661983
 30
0.0
 10
980.4094541526567
 20
1691.827025314192
 30
0.0
  0
SPLINE
  5
159
330
1F
100
AcDbEntity
  8
0
  6
Continuous
 62
     7
370
    25
100
AcDbSpline
210
0.0
220
0.0
230
1.0
 70
     8
 71
     3
 72
    13
 73
     9
 74
     0
 42
0.000000001
 43
0.00000001
 40
0.0
 40
0.0
 40
0.0
 40
0.0
 40
0.1397740308473635
 40
0.2797538684574303
 40
0.4197544314653386
 40
0.5599383419986755
 40
0.7800957794440029
 40
1.0
 40
1.0
 40
1.0
 40
1.0
 10
981.094550306503
 20
1695.980871468039
 30
0.0
 10
980.9226566391962
 20
1695.96354073496
 30
0.0
 10
980.5786162040679
 20
1695.928853750599
 30
0.0
 10
980.1170186412838
 20
1695.677608681989
 30
0.0
 10
979.7323796410434
 20
1695.329165159927
 30
0.0
 10
979.3934810076931
 20
1694.814479487733
 30
0.0
 10
979.1051911559259
 20
1694.153340163046
 30
0.0
 10
979.0548183638334
 20
1693.613578017269
 30
0.0
 10
979.029646460349
 20
1693.34385223727
 30
0.0
  0
SPLINE
  5
15A
330
1F
100
AcDbEntity
  8
0
  6
Continuous
 62
     7
370
    25
100
AcDbSpline
210
0.0
220
0.0
230
1.0
 70
     8
 71
     3
 72
    12
 73
     8
 74
     0
 42
0.000000001
 43
0.00000001
 40
0.0
 40
0.0
 40
0.0
 40
0.0
 40
0.1869652297217003
 40
0.3737318610981474
 40
0.5605649630661361
 40
0.7800653905987898
 40
1.0
 40
1.0
 40
1.0
 40
1.0
 10
982.4911849218876
 20
1694.525342621885
 30
0.0
 10
982.4826464988714
 20
1694.666324672312
 30
0.0
 10
982.4655787225298
 20
1694.948139019107
 30
0.0
 10
982.2971501280192
 20
1695.343451704689
 30
0.0
 10
982.0124083386692
 20
1695.691839325923
 30
0.0
 10
981.5937542292946
 20
1695.943192611795
 30
0.0
 10
981.2610611860695
 20
1695.96830357903
 30
0.0
 10
981.094550306503
 20
1695.980871468039
 30
0.0
  0
LINE
  5
15B
330
1F
100
AcDbEntity
  8
0
  6
Continuous
 62
     7
370
    25
100
AcDbLine
 10
970.1065695373
 20
1696.9039483911
 30
0.0
 11
969.3146479664
 21
1693.0090986554
 31
0.0
  0
LINE
  5
15C
330
1F
100
AcDbEntity
  8
0
  6
Continuous
 62
     7
370
    25
100
AcDbLine
 10
968.0260406911
 20
1696.9039483911
 30
0.0
 11
970.1065695373
 21
1696.9039483911
 31
0.0
  0
LINE
  5
15D
330
1F
100
AcDbEntity
  8
0
  6
Continuous
 62
     7
370
    25
100
AcDbLine
 10
967.1714733834
 20
1691.9039483911
 30
0.0
 11
969.0899429347
 21
1691.9039483911
 31
0.0
  0
SPLINE
  5
15E
330
1F
100
AcDbEntity
  8
0
  6
Continuous
 62
     7
370
    25
100
AcDbSpline
210
0.0
220
0.0
230
1.0
 70
     8
 71
     3
 72
     9
 73
     5
 74
     0
 42
0.000000001
 43
0.00000001
 40
0.0
 40
0.0
 40
0.0
 40
0.0
 40
0.5594066969819517
 40
1.0
 40
1.0
 40
1.0
 40
1.0
 10
966.3878195372722
 20
1691.977265698808
 30
0.0
 10
966.5328594477761
 20
1691.951011976372
 30
0.0
 10
966.7921339814678
 20
1691.904080606804
 30
0.0
 10
967.0554556289885
 20
1691.903988828168
 30
0.0
 10
967.171473383426
 20
1691.903948391116
 30
0.0
  0
SPLINE
  5
15F
330
1F
100
AcDbEntity
  8
0
  6
Continuous
 62
     7
370
    25
100
AcDbSpline
210
0.0
220
0.0
230
1.0
 70
     8
 71
     3
 72
    11
 73
     7
 74
     0
 42
0.000000001
 43
0.00000001
 40
0.0
 40
0.0
 40
0.0
 40
0.0
 40
0.2806621346724804
 40
0.5602282086705037
 40
0.7803094348121465
 40
1.0
 40
1.0
 40
1.0
 40
1.0
 10
965.6450310757336
 20
1693.349861852654
 30
0.0
 10
965.65003102754
 20
1693.193306223031
 30
0.0
 10
965.6600114050038
 20
1692.880806355376
 30
0.0
 10
965.7925666556164
 20
1692.457970313434
 30
0.0
 10
966.0526682786394
 20
1692.136498464894
 30
0.0
 10
966.276168631493
 20
1692.030311844705
 30
0.0
 10
966.3878195372722
 20
1691.977265698808
 30
0.0
  0
SPLINE
  5
160
330
1F
100
AcDbEntity
  8
0
  6
Continuous
 62
     7
370
    25
100
AcDbSpline
210
0.0
220
0.0
230
1.0
 70
     8
 71
     3
 72
    11
 73
     7
 74
     0
 42
0.000000001
 43
0.00000001
 40
0.0
 40
0.0
 40
0.0
 40
0.0
 40
0.2796836361412425
 40
0.5596712610854224
 40
0.779767932478652
 40
1.0
 40
1.0
 40
1.0
 40
1.0
 10
966.5224349218876
 20
1695.510919544962
 30
0.0
 10
966.369865942764
 20
1695.345943846021
 30
0.0
 10
966.0645621569341
 20
1695.015813135662
 30
0.0
 10
965.7971123412024
 20
1694.442125444304
 30
0.0
 10
965.6636970249568
 20
1693.878759897863
 30
0.0
 10
965.6512543341372
 20
1693.526197337396
 30
0.0
 10
965.6450310757336
 20
1693.349861852654
 30
0.0
  0
LINE
  5
161
330
1F
100
AcDbEntity
  8
0
  6
Continuous
 62
     7
370
    25
100
AcDbLine
 10
968.727963768
 20
1695.9039483911
 30
0.0
 11
968.0909445373
 21
1695.9039483911
 31
0.0
  0
LINE
  5
162
330
1F
100
AcDbEntity
  8
0
  6
Continuous
 62
     7
370
    25
100
AcDbLine
 10
968.1390775688
 20
1693.0090986554
 30
0.0
 11
968.727963768
 21
1695.9039483911
 31
0.0
  0
LINE
  5
163
330
1F
100
AcDbEntity
  8
0
  6
Continuous
 62
     7
370
    25
100
AcDbLine
 10
969.3146479664
 20
1693.0090986554
 30
0.0
 11
968.1390775688
 21
1693.0090986554
 31
0.0
  0
SPLINE
  5
164
330
1F
100
AcDbEntity
  8
0
  6
Continuous
 62
     7
370
    25
100
AcDbSpline
210
0.0
220
0.0
230
1.0
 70
     8
 71
     3
 72
    13
 73
     9
 74
     0
 42
0.000000001
 43
0.00000001
 40
0.0
 40
0.0
 40
0.0
 40
0.0
 40
0.2502771709616389
 40
0.4997211322509411
 40
0.6246621605478716
 40
0.7498206150167587
 40
0.8749301044975157
 40
0.9999999999999999
 40
0.9999999999999999
 40
0.9999999999999999
 40
0.9999999999999999
 10
956.2604156911184
 20
1692.671977237269
 30
0.0
 10
956.2631051155163
 20
1692.577209367814
 30
0.0
 10
956.2684750108209
 20
1692.387989125138
 30
0.0
 10
956.3288448162738
 20
1692.154476919656
 30
0.0
 10
956.4318918095124
 20
1691.993134936974
 30
0.0
 10
956.5408115185251
 20
1691.89954579754
 30
0.0
 10
956.6715224987843
 20
1691.836176187486
 30
0.0
 10
956.7668473480929
 20
1691.830075283443
 30
0.0
 10
956.8145022295798
 20
1691.827025314192
 30
0.0
  0
SPLINE
  5
165
330
1F
100
AcDbEntity
  8
0
  6
Continuous
 62
     7
370
    25
100
AcDbSpline
210
0.0
220
0.0
230
1.0
 70
     8
 71
     3
 72
    10
 73
     6
 74
     0
 42
0.000000001
 43
0.00000001
 40
0.0
 40
0.0
 40
0.0
 40
0.0
 40
0.2794682490498261
 40
0.5596491680138985
 40
1.0
 40
1.0
 40
1.0
 40
1.0
 10
957.0608964603491
 20
1695.756111852654
 30
0.0
 10
956.9750164201677
 20
1695.621278296633
 30
0.0
 10
956.8030373377494
 20
1695.351267346537
 30
0.0
 10
956.6206405647713
 20
1694.807459170576
 30
0.0
 10
956.5246244808043
 20
1694.408554871947
 30
0.0
 10
956.4659445372722
 20
1694.164765698808
 30
0.0
  0
SPLINE
  5
166
330
1F
100
AcDbEntity
  8
0
  6
Continuous
 62
     7
370
    25
100
AcDbSpline
210
0.0
220
0.0
230
1.0
 70
     8
 71
     3
 72
    10
 73
     6
 74
     0
 42
0.000000001
 43
0.00000001
 40
0.0
 40
0.0
 40
0.0
 40
0.0
 40
0.2801808178754724
 40
0.5602579929712639
 40
1.0
 40
1.0
 40
1.0
 40
1.0
 10
957.6342137680413
 20
1696.057794544962
 30
0.0
 10
957.5716517826373
 20
1696.05263677966
 30
0.0
 10
957.4465509543774
 20
1696.042323156986
 30
0.0
 10
957.2404972105205
 20
1695.944296353484
 30
0.0
 10
957.1290067033298
 20
1695.827477323369
 30
0.0
 10
957.060896460349
 20
1695.756111852654
 30
0.0
  0
SPLINE
  5
167
330
1F
100
AcDbEntity
  8
0
  6
Continuous
 62
     7
370
    25
100
AcDbSpline
210
0.0
220
0.0
230
1.0
 70
     8
 71
     3
 72
    13
 73
     9
 74
     0
 42
0.000000001
 43
0.00000001
 40
0.0
 40
0.0
 40
0.0
 40
0.0
 40
0.2502749277431754
 40
0.4999476838743481
 40
0.6248441978644023
 40
0.7498558645277276
 40
0.8750020365826999
 40
1.0
 40
1.0
 40
1.0
 40
1.0
 10
958.1834926141952
 20
1695.185198391116
 30
0.0
 10
958.1807533448317
 20
1695.281879520388
 30
0.0
 10
958.1752813968977
 20
1695.475009160219
 30
0.0
 10
958.1235519408225
 20
1695.715901380318
 30
0.0
 10
958.0216075309124
 20
1695.88295472331
 30
0.0
 10
957.913235828203
 20
1695.981734781393
 30
0.0
 10
957.780242119316
 20
1696.048092225072
 30
0.0
 10
957.6828706544974
 20
1696.054561716041
 30
0.0
 10
957.6342137680413
 20
1696.057794544962
 30
0.0
  0
SPLINE
  5
168
330
1F
100
AcDbEntity
  8
0
  6
Continuous
 62
     7
370
    25
100
AcDbSpline
210
0.0
220
0.0
230
1.0
 70
     8
 71
     3
 72
     9
 73
     5
 74
     0
 42
0.000000001
 43
0.00000001
 40
0.0
 40
0.0
 40
0.0
 40
0.0
 40
0.5601061919666752
 40
1.0
 40
1.0
 40
1.0
 40
1.0
 10
957.9647426141952
 20
1693.646736852654
 30
0.0
 10
958.0285900782352
 20
1693.930856239793
 30
0.0
 10
958.1425817907995
 20
1694.438116097323
 30
0.0
 10
958.1709941800796
 20
1694.956961507745
 30
0.0
 10
958.1834926141952
 20
1695.185198391116
 30
0.0
  0
SPLINE
  5
169
330
1F
100
AcDbEntity
  8
0
  6
Continuous
 62
     7
370
    25
100
AcDbSpline
210
0.0
220
0.0
230
1.0
 70
     8
 71
     3
 72
     9
 73
     5
 74
     0
 42
0.000000001
 43
0.00000001
 40
0.0
 40
0.0
 40
0.0
 40
0.0
 40
0.5599874057668306
 40
1.0
 40
1.0
 40
1.0
 40
1.0
 10
957.8254865885444
 20
1693.123900314195
 30
0.0
 10
957.8538797587063
 20
1693.220860484589
 30
0.0
 10
957.9045829885821
 20
1693.394007540031
 30
0.0
 10
957.9463601409861
 20
1693.569512472165
 30
0.0
 10
957.9647426141952
 20
1693.646736852654
 30
0.0
  0
LINE
  5
16A
330
1F
100
AcDbEntity
  8
0
  6
Continuous
 62
     7
370
    25
100
AcDbLine
 10
959.0320503065
 20
1693.1239003142
 30
0.0
 11
957.8254865885
 21
1693.1239003142
 31
0.0
  0
SPLINE
  5
16B
330
1F
100
AcDbEntity
  8
0
  6
Continuous
 62
     7
370
    25
100
AcDbSpline
210
0.0
220
0.0
230
1.0
 70
     8
 71
     3
 72
     9
 73
     5
 74
     0
 42
0.000000001
 43
0.00000001
 40
0.0
 40
0.0
 40
0.0
 40
0.0
 40
0.559824475386535
 40
1.0
 40
1.0
 40
1.0
 40
1.0
 10
959.3373387680414
 20
1694.943611852654
 30
0.0
 10
959.3198054516579
 20
1694.597030243916
 30
0.0
 10
959.2884861414911
 20
1693.977940468501
 30
0.0
 10
959.1104274044791
 20
1693.38492931138
 30
0.0
 10
959.0320503065028
 20
1693.123900314193
 30
0.0
  0
SPLINE
  5
16C
330
1F
100
AcDbEntity
  8
0
  6
Continuous
 62
     7
370
    25
100
AcDbSpline
210
0.0
220
0.0
230
1.0
 70
     8
 71
     3
 72
    15
 73
    11
 74
     0
 42
0.000000001
 43
0.00000001
 40
0.0
 40
0.0
 40
0.0
 40
0.0
 40
0.1667092212105688
 40
0.3334804918411175
 40
0.5002099277518057
 40
0.6252308097584336
 40
0.7501256411043159
 40
0.8334484926706803
 40
0.9167170500056259
 40
0.9999999999999999
 40
0.9999999999999999
 40
0.9999999999999999
 40
0.9999999999999999
 10
955.1065695372721
 20
1692.949621468039
 30
0.0
 10
955.1216256733311
 20
1693.240957406208
 30
0.0
 10
955.1517435493653
 20
1693.823737718216
 30
0.0
 10
955.366292814298
 20
1694.674277345291
 30
0.0
 10
955.6386844917242
 20
1695.429742823967
 30
0.0
 10
956.0050626033195
 20
1696.062284120544
 30
0.0
 10
956.3981679207911
 20
1696.50048448217
 30
0.0
 10
956.8215510496236
 20
1696.787664111614
 30
0.0
 10
957.2326505604278
 20
1696.95266897635
 30
0.0
 10
957.5243894234392
 20
1696.971470095905
 30
0.0
 10
957.6702714603491
 20
1696.980871468039
 30
0.0
  0
SPLINE
  5
16D
330
1F
100
AcDbEntity
  8
0
  6
Continuous
 62
     7
370
    25
100
AcDbSpline
210
0.0
220
0.0
230
1.0
 70
     8
 71
     3
 72
    12
 73
     8
 74
     0
 42
0.000000001
 43
0.00000001
 40
0.0
 40
0.0
 40
0.0
 40
0.0
 40
0.186604926175586
 40
0.3729935193316448
 40
0.5594999474797578
 40
0.7794904581271972
 40
0.9999999999999999
 40
0.9999999999999999
 40
0.9999999999999999
 40
0.9999999999999999
 10
956.7652233834259
 20
1690.903948391116
 30
0.0
 10
956.5796640651603
 20
1690.918882892159
 30
0.0
 10
956.2087605494643
 20
1690.948734580525
 30
0.0
 10
955.7188749046222
 20
1691.24060956276
 30
0.0
 10
955.337249138857
 20
1691.696574572452
 30
0.0
 10
955.1350039870921
 20
1692.29681047551
 30
0.0
 10
955.1160551295485
 20
1692.731846939329
 30
0.0
 10
955.1065695372721
 20
1692.949621468039
 30
0.0
  0
LINE
  5
16E
330
1F
100
AcDbEntity
  8
0
  6
Continuous
 62
     7
370
    25
100
AcDbLine
 10
957.1084927108
 20
1691.9039483852
 30
0.0
 11
958.4533873013
 21
1691.9039484002
 31
0.0
  0
SPLINE
  5
16F
330
1F
100
AcDbEntity
  8
0
  6
Continuous
 62
     7
370
    25
100
AcDbSpline
210
0.0
220
0.0
230
1.0
 70
     8
 71
     3
 72
    13
 73
     9
 74
     0
 42
0.000000001
 43
0.00000001
 40
0.0
 40
0.0
 40
0.0
 40
0.0
 40
0.2502771709616285
 40
0.4997211322509446
 40
0.6246621605478346
 40
0.7498206150167449
 40
0.874930104497509
 40
1.0
 40
1.0
 40
1.0
 40
1.0
 10
951.6450310757338
 20
1692.671977237269
 30
0.0
 10
951.6477205001316
 20
1692.577209367814
 30
0.0
 10
951.6530903954364
 20
1692.387989125138
 30
0.0
 10
951.7134602008894
 20
1692.154476919656
 30
0.0
 10
951.8165071941277
 20
1691.993134936974
 30
0.0
 10
951.9254269031404
 20
1691.89954579754
 30
0.0
 10
952.0561378833997
 20
1691.836176187486
 30
0.0
 10
952.1514627327084
 20
1691.830075283443
 30
0.0
 10
952.1991176141953
 20
1691.827025314192
 30
0.0
  0
SPLINE
  5
170
330
1F
100
AcDbEntity
  8
0
  6
Continuous
 62
     7
370
    25
100
AcDbSpline
210
0.0
220
0.0
230
1.0
 70
     8
 71
     3
 72
     9
 73
     5
 74
     0
 42
0.000000001
 43
0.00000001
 40
0.0
 40
0.0
 40
0.0
 40
0.0
 40
0.5601165665487025
 40
1.0
 40
1.0
 40
1.0
 40
1.0
 10
951.8505599218873
 20
1694.164765698808
 30
0.0
 10
951.7920134633637
 20
1693.888707271208
 30
0.0
 10
951.6874879734564
 20
1693.395848384171
 30
0.0
 10
951.6580016298149
 20
1692.893119392306
 30
0.0
 10
951.6450310757338
 20
1692.671977237269
 30
0.0
  0
SPLINE
  5
171
330
1F
100
AcDbEntity
  8
0
  6
Continuous
 62
     7
370
    25
100
AcDbSpline
210
0.0
220
0.0
230
1.0
 70
     8
 71
     3
 72
    10
 73
     6
 74
     0
 42
0.000000001
 43
0.00000001
 40
0.0
 40
0.0
 40
0.0
 40
0.0
 40
0.2794682490498125
 40
0.5596491680138894
 40
0.9999999999999999
 40
0.9999999999999999
 40
0.9999999999999999
 40
0.9999999999999999
 10
952.4455118449645
 20
1695.756111852654
 30
0.0
 10
952.3596318047828
 20
1695.621278296633
 30
0.0
 10
952.1876527223646
 20
1695.351267346537
 30
0.0
 10
952.0052559493867
 20
1694.807459170576
 30
0.0
 10
951.9092398654197
 20
1694.408554871947
 30
0.0
 10
951.8505599218876
 20
1694.164765698808
 30
0.0
  0
SPLINE
  5
172
330
1F
100
AcDbEntity
  8
0
  6
Continuous
 62
     7
370
    25
100
AcDbSpline
210
0.0
220
0.0
230
1.0
 70
     8
 71
     3
 72
    13
 73
     9
 74
     0
 42
0.000000001
 43
0.00000001
 40
0.0
 40
0.0
 40
0.0
 40
0.0
 40
0.250274927743213
 40
0.4999476838743733
 40
0.6248441978644329
 40
0.7498558645277282
 40
0.8750020365827388
 40
1.0
 40
1.0
 40
1.0
 40
1.0
 10
953.5681079988107
 20
1695.185198391116
 30
0.0
 10
953.5653687294471
 20
1695.281879520388
 30
0.0
 10
953.5598967815133
 20
1695.475009160219
 30
0.0
 10
953.5081673254379
 20
1695.715901380318
 30
0.0
 10
953.4062229155277
 20
1695.88295472331
 30
0.0
 10
953.2978512128187
 20
1695.981734781393
 30
0.0
 10
953.1648575039314
 20
1696.048092225072
 30
0.0
 10
953.0674860391126
 20
1696.054561716041
 30
0.0
 10
953.0188291526567
 20
1696.057794544962
 30
0.0
  0
SPLINE
  5
173
330
1F
100
AcDbEntity
  8
0
  6
Continuous
 62
     7
370
    25
100
AcDbSpline
210
0.0
220
0.0
230
1.0
 70
     8
 71
     3
 72
     9
 73
     5
 74
     0
 42
0.000000001
 43
0.00000001
 40
0.0
 40
0.0
 40
0.0
 40
0.0
 40
0.5601061919666781
 40
1.0
 40
1.0
 40
1.0
 40
1.0
 10
953.3493579988105
 20
1693.646736852654
 30
0.0
 10
953.4132054628508
 20
1693.930856239793
 30
0.0
 10
953.527197175415
 20
1694.438116097323
 30
0.0
 10
953.5556095646949
 20
1694.956961507745
 30
0.0
 10
953.5681079988107
 20
1695.185198391116
 30
0.0
  0
SPLINE
  5
174
330
1F
100
AcDbEntity
  8
0
  6
Continuous
 62
     7
370
    25
100
AcDbSpline
210
0.0
220
0.0
230
1.0
 70
     8
 71
     3
 72
     9
 73
     5
 74
     0
 42
0.000000001
 43
0.00000001
 40
0.0
 40
0.0
 40
0.0
 40
0.0
 40
0.5599874057668567
 40
1.0
 40
1.0
 40
1.0
 40
1.0
 10
953.2101019731597
 20
1693.123900314195
 30
0.0
 10
953.2384951433218
 20
1693.220860484589
 30
0.0
 10
953.2891983731976
 20
1693.394007540031
 30
0.0
 10
953.3309755256016
 20
1693.569512472165
 30
0.0
 10
953.3493579988105
 20
1693.646736852654
 30
0.0
  0
LINE
  5
175
330
1F
100
AcDbEntity
  8
0
  6
Continuous
 62
     7
370
    25
100
AcDbLine
 10
954.4166656911
 20
1693.1239003142
 30
0.0
 11
953.2101019732
 21
1693.1239003142
 31
0.0
  0
SPLINE
  5
176
330
1F
100
AcDbEntity
  8
0
  6
Continuous
 62
     7
370
    25
100
AcDbSpline
210
0.0
220
0.0
230
1.0
 70
     8
 71
     3
 72
    12
 73
     8
 74
     0
 42
0.000000001
 43
0.00000001
 40
0.0
 40
0.0
 40
0.0
 40
0.0
 40
0.1866049261755691
 40
0.3729935193316293
 40
0.559499947479756
 40
0.7794904581271972
 40
1.0
 40
1.0
 40
1.0
 40
1.0
 10
952.1498387680414
 20
1690.903948391116
 30
0.0
 10
951.9642794497756
 20
1690.918882892159
 30
0.0
 10
951.5933759340797
 20
1690.948734580525
 30
0.0
 10
951.1034902892376
 20
1691.24060956276
 30
0.0
 10
950.7218645234723
 20
1691.696574572452
 30
0.0
 10
950.5196193717074
 20
1692.29681047551
 30
0.0
 10
950.5006705141639
 20
1692.731846939329
 30
0.0
 10
950.4911849218875
 20
1692.949621468039
 30
0.0
  0
SPLINE
  5
177
330
1F
100
AcDbEntity
  8
0
  6
Continuous
 62
     7
370
    25
100
AcDbSpline
210
0.0
220
0.0
230
1.0
 70
     8
 71
     3
 72
    11
 73
     7
 74
     0
 42
0.000000001
 43
0.00000001
 40
0.0
 40
0.0
 40
0.0
 40
0.0
 40
0.2801641348606697
 40
0.5601069123332603
 40
0.7800418316583972
 40
1.0
 40
1.0
 40
1.0
 40
1.0
 10
953.8380026855486
 20
1691.903948399716
 30
0.0
 10
953.7217194125059
 20
1691.75216157261
 30
0.0
 10
953.4892447417118
 20
1691.44870784501
 30
0.0
 10
953.057684633947
 20
1691.128640046225
 30
0.0
 10
952.5999861362577
 20
1690.936204800773
 30
0.0
 10
952.2998931775695
 20
1690.914700906506
 30
0.0
 10
952.1498387680414
 20
1690.903948391116
 30
0.0
  0
LINE
  5
178
330
1F
100
AcDbEntity
  8
0
  6
Continuous
 62
     7
370
    25
100
AcDbLine
 10
952.4931080945
 20
1691.9039483846
 30
0.0
 11
953.8380026855
 21
1691.9039483997
 31
0.0
  0
SPLINE
  5
179
330
1F
100
AcDbEntity
  8
0
  6
Continuous
 62
     7
370
    25
100
AcDbSpline
210
0.0
220
0.0
230
1.0
 70
     8
 71
     3
 72
     9
 73
     5
 74
     0
 42
0.000000001
 43
0.00000001
 40
0.0
 40
0.0
 40
0.0
 40
0.0
 40
0.5601165665487157
 40
0.9999999999999999
 40
0.9999999999999999
 40
0.9999999999999999
 40
0.9999999999999999
 10
956.4659445372722
 20
1694.164765698808
 30
0.0
 10
956.4073980787485
 20
1693.888707271208
 30
0.0
 10
956.3028725888412
 20
1693.395848384171
 30
0.0
 10
956.2733862451994
 20
1692.893119392306
 30
0.0
 10
956.2604156911184
 20
1692.671977237269
 30
0.0
  0
LINE
  5
17A
330
1F
100
AcDbEntity
  8
0
  6
Continuous
 62
     7
370
    25
100
AcDbLine
 10
1031.4911849219
 20
1696.9039483911
 30
0.0
 11
1031.1265911902
 21
1695.1090254043
 31
0.0
  0
LINE
  5
17B
330
1F
100
AcDbEntity
  8
0
  6
Continuous
 62
     7
370
    25
100
AcDbLine
 10
1002.2604156911
 20
1690.9039483911
 30
0.0
 11
1005.0368579988
 21
1694.0686118527
 31
0.0
  0
SPLINE
  5
17C
330
1F
100
AcDbEntity
  8
0
  6
Continuous
 62
     7
370
    25
100
AcDbSpline
210
0.0
220
0.0
230
1.0
 70
     8
 71
     3
 72
    11
 73
     7
 74
     0
 42
0.000000001
 43
0.00000001
 40
0.0
 40
0.0
 40
0.0
 40
0.0
 40
0.279828781294274
 40
0.5596954028312819
 40
0.779799284705579
 40
1.0
 40
1.0
 40
1.0
 40
1.0
 10
982.8140271506876
 20
1692.014051936275
 30
0.0
 10
982.6354705788312
 20
1691.815108244603
 30
0.0
 10
982.2783332895535
 20
1691.417193958818
 30
0.0
 10
981.6207366606022
 20
1691.049018976622
 30
0.0
 10
980.9589924619005
 20
1690.855058027036
 30
0.0
 10
980.5397797052948
 20
1690.836370921719
 30
0.0
 10
980.3301272295797
 20
1690.827025314193
 30
0.0
  0
LINE
  5
17D
330
1F
100
AcDbEntity
  8
0
  6
Continuous
 62
     7
370
    25
100
AcDbLine
 10
969.0899429347
 20
1691.9039483911
 30
0.0
 11
968.8866176142
 21
1690.9039483911
 31
0.0
  0
LINE
  5
17E
330
1F
100
AcDbEntity
  8
0
  6
Continuous
 62
     7
370
    25
100
AcDbLine
 10
962.5554878065
 20
1692.8354387757
 30
0.0
 11
960.9791656911
 21
1690.980871468
 31
0.0
  0
SPLINE
  5
17F
330
1F
100
AcDbEntity
  8
0
  6
Continuous
 62
     7
370
    25
100
AcDbSpline
210
0.0
220
0.0
230
1.0
 70
     8
 71
     3
 72
     9
 73
     5
 74
     0
 42
0.000000001
 43
0.00000001
 40
0.0
 40
0.0
 40
0.0
 40
0.0
 40
0.5599037144490014
 40
1.0
 40
1.0
 40
1.0
 40
1.0
 10
1005.651040691118
 20
1692.8787080065
 30
0.0
 10
1005.639835967393
 20
1692.899135456911
 30
0.0
 10
1005.619824091358
 20
1692.935619319909
 30
0.0
 10
1005.603108638357
 20
1692.973719225655
 30
0.0
 10
1005.59575222958
 20
1692.990486852654
 30
0.0
  0
LINE
  5
180
330
1F
100
AcDbEntity
  8
0
  6
Continuous
 62
     7
370
    25
100
AcDbLine
 10
962.9527233834
 20
1694.6731791603
 30
0.0
 11
961.804886845
 21
1694.6731791603
 31
0.0
  0
LINE
  5
181
330
1F
100
AcDbEntity
  8
0
  6
Continuous
 62
     7
370
    25
100
AcDbLine
 10
963.4636863552
 20
1693.9039483911
 30
0.0
 11
962.3177073578
 21
1693.9039483911
 31
0.0
  0
LINE
  5
182
330
1F
100
AcDbEntity
  8
0
  6
Continuous
 62
     7
370
    25
100
AcDbLine
 10
961.4303993838
 20
1693.9039483911
 30
0.0
 11
961.4303993838
 21
1692.8354387757
 31
0.0
  0
LINE
  5
183
330
1F
100
AcDbEntity
  8
0
  6
Continuous
 62
     7
370
    25
100
AcDbLine
 10
1006.3770022296
 20
1693.8799099296
 30
0.0
 11
1007.8758003065
 21
1690.9039483911
 31
0.0
  0
LINE
  5
184
330
1F
100
AcDbEntity
  8
0
  6
Continuous
 62
     7
370
    25
100
AcDbLine
 10
964.1318099219
 20
1694.6900060834
 30
0.0
 11
963.4636863552
 21
1693.9039483911
 31
0.0
  0
LINE
  5
185
330
1F
100
AcDbEntity
  8
0
  6
Continuous
 62
     7
370
    25
100
AcDbLine
 10
1007.524838768
 20
1696.9039483911
 30
0.0
 11
1009.0296464603
 21
1696.9039483911
 31
0.0
  0
LINE
  5
186
330
1F
100
AcDbEntity
  8
0
  6
Continuous
 62
     7
370
    25
100
AcDbLine
 10
1006.6738772296
 20
1695.9700541603
 30
0.0
 11
1007.524838768
 21
1696.9039483911
 31
0.0
  0
SPLINE
  5
187
330
1F
100
AcDbEntity
  8
0
  6
Continuous
 62
     7
370
    25
100
AcDbSpline
210
0.0
220
0.0
230
1.0
 70
     8
 71
     3
 72
    14
 73
    10
 74
     0
 42
0.000000001
 43
0.00000001
 40
0.0
 40
0.0
 40
0.0
 40
0.0
 40
0.140073820909975
 40
0.2801720641404137
 40
0.4202596735000421
 40
0.5602425208238558
 40
0.7068198815585762
 40
0.8533632345510747
 40
1.0
 40
1.0
 40
1.0
 40
1.0
 10
1008.79887722958
 20
1693.329429160347
 30
0.0
 10
1008.813168312573
 20
1693.587186270973
 30
0.0
 10
1008.841752970254
 20
1694.102745433007
 30
0.0
 10
1009.077595488871
 20
1694.845078157368
 30
0.0
 10
1009.427648924456
 20
1695.536226909838
 30
0.0
 10
1009.925181648583
 20
1696.151827424029
 30
0.0
 10
1010.572743855229
 20
1696.627371847807
 30
0.0
 10
1011.336002249389
 20
1696.930301843995
 30
0.0
 10
1011.876098720855
 20
1696.96401134654
 30
0.0
 10
1012.146232998811
 20
1696.980871468039
 30
0.0
  0
SPLINE
  5
188
330
1F
100
AcDbEntity
  8
0
  6
Continuous
 62
     7
370
    25
100
AcDbSpline
210
0.0
220
0.0
230
1.0
 70
     8
 71
     3
 72
    14
 73
    10
 74
     0
 42
0.000000001
 43
0.00000001
 40
0.0
 40
0.0
 40
0.0
 40
0.0
 40
0.1400991116549205
 40
0.2800880462513469
 40
0.4200353205464722
 40
0.5599870493824957
 40
0.7065573725114547
 40
0.8532193947962393
 40
1.0
 40
1.0
 40
1.0
 40
1.0
 10
1011.253204152657
 20
1690.827025314193
 30
0.0
 10
1011.06879046695
 20
1690.835414743156
 30
0.0
 10
1010.700108122561
 20
1690.852187003448
 30
0.0
 10
1010.165690437158
 20
1691.013458784695
 30
0.0
 10
1009.68457498037
 20
1691.294132350917
 30
0.0
 10
1009.283906821344
 20
1691.694729953719
 30
0.0
 10
1008.990917896419
 20
1692.18924813574
 30
0.0
 10
1008.824028077939
 20
1692.75000462218
 30
0.0
 10
1008.807263103994
 20
1693.136235621101
 30
0.0
 10
1008.79887722958
 20
1693.329429160347
 30
0.0
  0
SPLINE
  5
189
330
1F
100
AcDbEntity
  8
0
  6
Continuous
 62
     7
370
    25
100
AcDbSpline
210
0.0
220
0.0
230
1.0
 70
     8
 71
     3
 72
     9
 73
     5
 74
     0
 42
0.000000001
 43
0.00000001
 40
0.0
 40
0.0
 40
0.0
 40
0.0
 40
0.5599838120502636
 40
0.9999999999999999
 40
0.9999999999999999
 40
0.9999999999999999
 40
0.9999999999999999
 10
1014.410656075734
 20
1693.431592621885
 30
0.0
 10
1014.388477396631
 20
1693.351928991232
 30
0.0
 10
1014.348871467627
 20
1693.209668395589
 30
0.0
 10
1014.299850452594
 20
1693.070385419529
 30
0.0
 10
1014.27828041243
 20
1693.009098655357
 30
0.0
  0
SPLINE
  5
18A
330
1F
100
AcDbEntity
  8
0
  6
Continuous
 62
     7
370
    25
100
AcDbSpline
210
0.0
220
0.0
230
1.0
 70
     8
 71
     3
 72
     9
 73
     5
 74
     0
 42
0.000000001
 43
0.00000001
 40
0.0
 40
0.0
 40
0.0
 40
0.0
 40
0.5598642503590406
 40
1.0
 40
1.0
 40
1.0
 40
1.0
 10
1014.568107998811
 20
1694.543371468039
 30
0.0
 10
1014.558039809319
 20
1694.333001361288
 30
0.0
 10
1014.540056540188
 20
1693.957249370309
 30
0.0
 10
1014.45020357703
 20
1693.592244370916
 30
0.0
 10
1014.410656075734
 20
1693.431592621885
 30
0.0
  0
SPLINE
  5
18B
330
1F
100
AcDbEntity
  8
0
  6
Continuous
 62
     7
370
    25
100
AcDbSpline
210
0.0
220
0.0
230
1.0
 70
     8
 71
     3
 72
    13
 73
     9
 74
     0
 42
0.000000001
 43
0.00000001
 40
0.0
 40
0.0
 40
0.0
 40
0.0
 40
0.1867754589288829
 40
0.3731335127427597
 40
0.5595943382241775
 40
0.706211029593844
 40
0.8531314467721582
 40
1.0
 40
1.0
 40
1.0
 40
1.0
 10
1012.146232998811
 20
1696.980871468039
 30
0.0
 10
1012.38753670032
 20
1696.968177861218
 30
0.0
 10
1012.869604838706
 20
1696.942819015203
 30
0.0
 10
1013.540892002478
 20
1696.644897308993
 30
0.0
 10
1014.052457763432
 20
1696.196762969662
 30
0.0
 10
1014.361505821269
 20
1695.655185885306
 30
0.0
 10
1014.532012160518
 20
1695.110024693374
 30
0.0
 10
1014.556077468834
 20
1694.732233645406
 30
0.0
 10
1014.568107998811
 20
1694.543371468039
 30
0.0
  0
LINE
  5
18C
330
1F
100
AcDbEntity
  8
0
  6
Continuous
 62
     7
370
    25
100
AcDbLine
 10
1014.6450310757
 20
1691.9039483911
 30
0.0
 11
1016.4947906911
 21
1691.9039483911
 31
0.0
  0
LINE
  5
18D
330
1F
100
AcDbEntity
  8
0
  6
Continuous
 62
     7
370
    25
100
AcDbLine
 10
1029.4485166527
 20
1692.6347176219
 30
0.0
 11
1030.6239974219
 21
1692.6347176219
 31
0.0
  0
ELLIPSE
  5
18E
330
1F
100
AcDbEntity
  8
0
  6
Continuous
 62
     7
370
    25
100
AcDbEllipse
 10
975.3758003065
 20
1674.4039483911
 30
0.0
 11
17.5
 21
0.0
 31
0.0
210
0.0
220
0.0
230
1.0
 40
0.8571428571
 41
0.0
 42
6.283185307179586
  0
LINE
  5
18F
330
1F
100
AcDbEntity
  8
0
  6
Continuous
 62
     7
370
    25
100
AcDbLine
 10
1019.337338768
 20
1691.9039483911
 30
0.0
 11
1019.1065695373
 21
1690.9039483911
 31
0.0
  0
LINE
  5
190
330
1F
100
AcDbEntity
  8
0
  6
Continuous
 62
     7
370
    25
100
AcDbLine
 10
1017.6702714603
 20
1691.9039483911
 30
0.0
 11
1019.337338768
 21
1691.9039483911
 31
0.0
  0
LINE
  5
191
330
1F
100
AcDbEntity
  8
0
  6
Continuous
 62
     7
370
    25
100
AcDbLine
 10
1018.6870983834
 20
1696.9039483911
 30
0.0
 11
1017.6702714603
 21
1691.9039483911
 31
0.0
  0
LINE
  5
192
330
1F
100
AcDbEntity
  8
0
  6
Continuous
 62
     7
370
    25
100
AcDbLine
 10
1017.5116176142
 20
1696.9039483911
 30
0.0
 11
1018.6870983834
 21
1696.9039483911
 31
0.0
  0
LINE
  5
193
330
1F
100
AcDbEntity
  8
0
  6
Continuous
 62
     7
370
    25
100
AcDbLine
 10
1016.4947906911
 20
1691.9039483911
 30
0.0
 11
1017.5116176142
 21
1696.9039483911
 31
0.0
  0
LINE
  5
194
330
1F
100
AcDbEntity
  8
0
  6
Continuous
 62
     7
370
    25
100
AcDbLine
 10
983.3552034894
 20
1693.0090986554
 30
0.0
 11
982.1164891271
 21
1693.0090986553
 31
0.0
  0
LINE
  5
195
330
1F
100
AcDbEntity
  8
0
  6
Continuous
 62
     7
370
    25
100
AcDbLine
 10
981.2019838746
 20
1692.0140519272
 30
0.0
 11
982.8140271507
 21
1692.0140519363
 31
0.0
  0
LINE
  5
196
330
1F
100
AcDbEntity
  8
0
  6
Continuous
 62
     7
370
    25
100
AcDbLine
 10
1023.7832522296
 20
1694.2885637757
 30
0.0
 11
1024.1125791527
 21
1695.9039483911
 31
0.0
  0
LINE
  5
197
330
1F
100
AcDbEntity
  8
0
  6
Continuous
 62
     7
370
    25
100
AcDbLine
 10
1020.6450310757
 20
1694.2885637757
 30
0.0
 11
1023.7832522296
 21
1694.2885637757
 31
0.0
  0
LINE
  5
198
330
1F
100
AcDbEntity
  8
0
  6
Continuous
 62
     7
370
    25
100
AcDbLine
 10
1020.414261845
 20
1693.2885637757
 30
0.0
 11
1020.6450310757
 21
1694.2885637757
 31
0.0
  0
LINE
  5
199
330
1F
100
AcDbEntity
  8
0
  6
Continuous
 62
     7
370
    25
100
AcDbLine
 10
1023.5801272296
 20
1693.2885637757
 30
0.0
 11
1020.414261845
 21
1693.2885637757
 31
0.0
  0
LINE
  5
19A
330
1F
100
AcDbEntity
  8
0
  6
Continuous
 62
     7
370
    25
100
AcDbLine
 10
1023.2988772296
 20
1691.9039483911
 30
0.0
 11
1023.5801272296
 21
1693.2885637757
 31
0.0
  0
LINE
  5
19B
330
1F
100
AcDbEntity
  8
0
  6
Continuous
 62
     7
370
    25
100
AcDbLine
 10
1020.1065695373
 20
1691.9039483911
 30
0.0
 11
1023.2988772296
 21
1691.9039483911
 31
0.0
  0
LINE
  5
19C
330
1F
100
AcDbEntity
  8
0
  6
Continuous
 62
     7
370
    25
100
AcDbLine
 10
1019.8758003065
 20
1690.9039483911
 30
0.0
 11
1020.1065695373
 21
1691.9039483911
 31
0.0
  0
LINE
  5
19D
330
1F
100
AcDbEntity
  8
0
  6
Continuous
 62
     7
370
    25
100
AcDbLine
 10
1024.2712329988
 20
1690.9039483911
 30
0.0
 11
1019.8758003065
 21
1690.9039483911
 31
0.0
  0
LINE
  5
19E
330
1F
100
AcDbEntity
  8
0
  6
Continuous
 62
     7
370
    25
100
AcDbLine
 10
1025.4911849219
 20
1696.9039483911
 30
0.0
 11
1024.2712329988
 21
1690.9039483911
 31
0.0
  0
LINE
  5
19F
330
1F
100
AcDbEntity
  8
0
  6
Continuous
 62
     7
370
    25
100
AcDbLine
 10
1020.8758003065
 20
1696.9039483911
 30
0.0
 11
1025.4911849219
 21
1696.9039483911
 31
0.0
  0
SPLINE
  5
1A0
330
1F
100
AcDbEntity
  8
0
  6
Continuous
 62
     7
370
    25
100
AcDbSpline
210
0.0
220
0.0
230
1.0
 70
     8
 71
     3
 72
    14
 73
    10
 74
     0
 42
0.000000001
 43
0.00000001
 40
0.0
 40
0.0
 40
0.0
 40
0.0
 40
0.1398772344490057
 40
0.2798147309954833
 40
0.4196786087047915
 40
0.5594838242530117
 40
0.7061455407804644
 40
0.8530458495839195
 40
0.9999999999999999
 40
0.9999999999999999
 40
0.9999999999999999
 40
0.9999999999999999
 10
1026.106569537272
 20
1694.979669544962
 30
0.0
 10
1026.120218760806
 20
1695.150700784377
 30
0.0
 10
1026.147523088249
 20
1695.492836947117
 30
0.0
 10
1026.365791309586
 20
1695.964805855383
 30
0.0
 10
1026.681909079862
 20
1696.373234582769
 30
0.0
 10
1027.122092258609
 20
1696.66656151714
 30
0.0
 10
1027.63118580239
 20
1696.822216544628
 30
0.0
 10
1028.164420753179
 20
1696.893513224167
 30
0.0
 10
1028.522466023625
 20
1696.900469577273
 30
0.0
 10
1028.701521460349
 20
1696.903948391116
 30
0.0
  0
SPLINE
  5
1A1
330
1F
100
AcDbEntity
  8
0
  6
Continuous
 62
     7
370
    25
100
AcDbSpline
210
0.0
220
0.0
230
1.0
 70
     8
 71
     3
 72
    11
 73
     7
 74
     0
 42
0.000000001
 43
0.00000001
 40
0.0
 40
0.0
 40
0.0
 40
0.0
 40
0.2800173986340545
 40
0.5595864593177345
 40
0.7797981366622813
 40
0.9999999999999999
 40
0.9999999999999999
 40
0.9999999999999999
 40
0.9999999999999999
 10
1027.026040691118
 20
1693.8005830065
 30
0.0
 10
1026.88449413595
 20
1693.853990223261
 30
0.0
 10
1026.60162765686
 20
1693.960719146087
 30
0.0
 10
1026.307330099016
 20
1694.273509646797
 30
0.0
 10
1026.134441305564
 20
1694.624879866263
 30
0.0
 10
1026.115859988683
 20
1694.86140807563
 30
0.0
 10
1026.106569537272
 20
1694.979669544962
 30
0.0
  0
LINE
  5
1A2
330
1F
100
AcDbEntity
  8
0
  6
Continuous
 62
     7
370
    25
100
AcDbLine
 10
994.1125791527
 20
1695.9039483911
 30
0.0
 11
990.6450310757
 21
1695.9039483911
 31
0.0
  0
SPLINE
  5
1A3
330
1F
100
AcDbEntity
  8
0
  6
Continuous
 62
     7
370
    25
100
AcDbSpline
210
0.0
220
0.0
230
1.0
 70
     8
 71
     3
 72
    12
 73
     8
 74
     0
 42
0.000000001
 43
0.00000001
 40
0.0
 40
0.0
 40
0.0
 40
0.0
 40
0.1870729400219383
 40
0.3739540244807902
 40
0.5604826039571248
 40
0.7800681590352332
 40
1.0
 40
1.0
 40
1.0
 40
1.0
 10
1027.315704152657
 20
1690.944813775731
 30
0.0
 10
1027.182193173064
 20
1690.96987185095
 30
0.0
 10
1026.915308138141
 20
1691.019962302689
 30
0.0
 10
1026.539899197008
 20
1691.189093231823
 30
0.0
 10
1026.211683057579
 20
1691.476438260064
 30
0.0
 10
1025.991817599854
 20
1691.890430116338
 30
0.0
 10
1025.965761631873
 20
1692.210255740945
 30
0.0
 10
1025.952723383426
 20
1692.370294544962
 30
0.0
  0
LINE
  5
1A4
330
1F
100
AcDbEntity
  8
0
  6
Continuous
 62
     7
370
    25
100
AcDbLine
 10
1029.3000791527
 20
1691.9039483911
 30
0.0
 11
1029.4485166527
 21
1692.6347176219
 31
0.0
  0
LINE
  5
1A5
330
1F
100
AcDbEntity
  8
0
  6
Continuous
 62
     7
370
    25
100
AcDbLine
 10
1030.2724349219
 20
1690.9039483911
 30
0.0
 11
1028.2399829988
 21
1690.9039483911
 31
0.0
  0
LINE
  5
1A6
330
1F
100
AcDbEntity
  8
0
  6
Continuous
 62
     7
370
    25
100
AcDbLine
 10
1030.6239974219
 20
1692.6347176219
 30
0.0
 11
1030.2724349219
 21
1690.9039483911
 31
0.0
  0
LINE
  5
1A7
330
1F
100
AcDbEntity
  8
0
  6
Continuous
 62
     7
370
    25
100
AcDbLine
 10
1028.7015214603
 20
1696.9039483911
 30
0.0
 11
1031.4911849219
 21
1696.9039483911
 31
0.0
  0
LINE
  5
1A8
330
1F
100
AcDbEntity
  8
0
  6
Continuous
 62
     7
370
    25
100
AcDbLine
 10
989.8758003065
 20
1690.9039483911
 30
0.0
 11
990.1065695373
 21
1691.9039483911
 31
0.0
  0
LINE
  5
1A9
330
1F
100
AcDbEntity
  8
0
  6
Continuous
 62
     7
370
    25
100
AcDbLine
 10
1029.5968735683
 20
1693.3650901298
 30
0.0
 11
1029.5969541527
 21
1693.3654868527
 31
0.0
  0
LINE
  5
1AA
330
1F
100
AcDbEntity
  8
0
  6
Continuous
 62
     7
370
    25
100
AcDbLine
 10
961.6481360437
 20
1693.9039483911
 30
0.0
 11
961.4303993838
 21
1693.9039483911
 31
0.0
  0
CIRCLE
  5
1AB
330
1F
100
AcDbEntity
  8
0
  6
Continuous
 62
     7
370
    25
100
AcDbCircle
 10
1011.3758003065
 20
1667.4039483911
 30
0.0
 40
17.50000000000023
  0
SPLINE
  5
1AC
330
1F
100
AcDbEntity
  8
0
  6
Continuous
 62
     7
370
    25
100
AcDbSpline
210
0.0
220
0.0
230
1.0
 70
     8
 71
     3
 72
     9
 73
     5
 74
     0
 42
0.000000001
 43
0.00000001
 40
0.0
 40
0.0
 40
0.0
 40
0.0
 40
0.5598244753865393
 40
1.0
 40
1.0
 40
1.0
 40
1.0
 10
954.7219541526566
 20
1694.943611852654
 30
0.0
 10
954.7044208362731
 20
1694.597030243916
 30
0.0
 10
954.6731015261066
 20
1693.977940468501
 30
0.0
 10
954.4950427890946
 20
1693.38492931138
 30
0.0
 10
954.4166656911182
 20
1693.123900314193
 30
0.0
  0
SPLINE
  5
1AD
330
1F
100
AcDbEntity
  8
0
  6
Continuous
 62
     7
370
    25
100
AcDbSpline
210
0.0
220
0.0
230
1.0
 70
     8
 71
     3
 72
    13
 73
     9
 74
     0
 42
0.000000001
 43
0.00000001
 40
0.0
 40
0.0
 40
0.0
 40
0.0
 40
0.1864677046419559
 40
0.3726930570506487
 40
0.5591267290598313
 40
0.7059655330015628
 40
0.8529477528137468
 40
1.0
 40
1.0
 40
1.0
 40
1.0
 10
953.0548868449646
 20
1696.980871468039
 30
0.0
 10
953.2403210918797
 20
1696.966128224936
 30
0.0
 10
953.6109485766627
 20
1696.936660900536
 30
0.0
 10
954.1001933140394
 20
1696.645892616698
 30
0.0
 10
954.4390086525221
 20
1696.249604493293
 30
0.0
 10
954.6215559015749
 20
1695.807420961239
 30
0.0
 10
954.7100557666873
 20
1695.379199245775
 30
0.0
 10
954.7179873943337
 20
1695.088830701793
 30
0.0
 10
954.7219541526566
 20
1694.943611852654
 30
0.0
  0
SPLINE
  5
1AE
330
1F
100
AcDbEntity
  8
0
  6
Continuous
 62
     7
370
    25
100
AcDbSpline
210
0.0
220
0.0
230
1.0
 70
     8
 71
     3
 72
    14
 73
    10
 74
     0
 42
0.000000001
 43
0.00000001
 40
0.0
 40
0.0
 40
0.0
 40
0.0
 40
0.1400738209099756
 40
0.2801720641404121
 40
0.4202596735000412
 40
0.5602425208238621
 40
0.706819881558583
 40
0.8533632345510745
 40
1.0
 40
1.0
 40
1.0
 40
1.0
 10
977.875800306503
 20
1693.329429160347
 30
0.0
 10
977.8900913894955
 20
1693.587186270973
 30
0.0
 10
977.918676047177
 20
1694.102745433007
 30
0.0
 10
978.1545185657936
 20
1694.845078157368
 30
0.0
 10
978.5045720013791
 20
1695.536226909838
 30
0.0
 10
979.0021047255066
 20
1696.151827424029
 30
0.0
 10
979.6496669321524
 20
1696.627371847807
 30
0.0
 10
980.412925326312
 20
1696.930301843995
 30
0.0
 10
980.953021797778
 20
1696.96401134654
 30
0.0
 10
981.2231560757336
 20
1696.980871468039
 30
0.0
  0
SPLINE
  5
1AF
330
1F
100
AcDbEntity
  8
0
  6
Continuous
 62
     7
370
    25
100
AcDbSpline
210
0.0
220
0.0
230
1.0
 70
     8
 71
     3
 72
    14
 73
    10
 74
     0
 42
0.000000001
 43
0.00000001
 40
0.0
 40
0.0
 40
0.0
 40
0.0
 40
0.1400991116549207
 40
0.2800880462513454
 40
0.4200353205464624
 40
0.5599870493824961
 40
0.7065573725114552
 40
0.8532193947962402
 40
1.0
 40
1.0
 40
1.0
 40
1.0
 10
980.3301272295797
 20
1690.827025314193
 30
0.0
 10
980.1457135438726
 20
1690.835414743156
 30
0.0
 10
979.7770311994839
 20
1690.852187003448
 30
0.0
 10
979.2426135140805
 20
1691.013458784695
 30
0.0
 10
978.7614980572931
 20
1691.294132350917
 30
0.0
 10
978.3608298982673
 20
1691.694729953719
 30
0.0
 10
978.0678409733418
 20
1692.18924813574
 30
0.0
 10
977.9009511548626
 20
1692.75000462218
 30
0.0
 10
977.8841861809174
 20
1693.136235621101
 30
0.0
 10
977.875800306503
 20
1693.329429160347
 30
0.0
  0
SPLINE
  5
1B0
330
1F
100
AcDbEntity
  8
0
  6
Continuous
 62
     7
370
    25
100
AcDbSpline
210
0.0
220
0.0
230
1.0
 70
     8
 71
     3
 72
    11
 73
     7
 74
     0
 42
0.000000001
 43
0.00000001
 40
0.0
 40
0.0
 40
0.0
 40
0.0
 40
0.2801641348609104
 40
0.5601069123336122
 40
0.7800418316585536
 40
1.0
 40
1.0
 40
1.0
 40
1.0
 10
958.4533873012998
 20
1691.903948400246
 30
0.0
 10
958.3371040282509
 20
1691.752161573068
 30
0.0
 10
958.1046293574447
 20
1691.448707845326
 30
0.0
 10
957.6730692495955
 20
1691.12864004637
 30
0.0
 10
957.215370751785
 20
1690.936204800792
 30
0.0
 10
956.9152777930015
 20
1690.914700906512
 30
0.0
 10
956.7652233834259
 20
1690.903948391116
 30
0.0
  0
SPLINE
  5
1B1
330
1F
100
AcDbEntity
  8
0
  6
Continuous
 62
     7
370
    25
100
AcDbSpline
210
0.0
220
0.0
230
1.0
 70
     8
 71
     3
 72
     9
 73
     5
 74
     0
 42
0.000000001
 43
0.00000001
 40
0.0
 40
0.0
 40
0.0
 40
0.0
 40
0.5596786756543085
 40
1.0
 40
1.0
 40
1.0
 40
1.0
 10
956.8145022295798
 20
1691.827025314192
 30
0.0
 10
956.8720901775815
 20
1691.831505461942
 30
0.0
 10
956.9749848392986
 20
1691.839510318915
 30
0.0
 10
957.0676779552582
 20
1691.884248992969
 30
0.0
 10
957.1084927108353
 20
1691.903948385178
 30
0.0
  0
LINE
  5
1B2
330
1F
100
AcDbEntity
  8
0
  6
Continuous
 62
     7
370
    25
100
AcDbLine
 10
1030.9755599219
 20
1694.3654868527
 30
0.0
 11
1030.7723543376
 21
1693.3650901298
 31
0.0
  0
SPLINE
  5
1B3
330
1F
100
AcDbEntity
  8
0
  6
Continuous
 62
     7
370
    25
100
AcDbSpline
210
0.0
220
0.0
230
1.0
 70
     8
 71
     3
 72
    12
 73
     8
 74
     0
 42
0.000000001
 43
0.00000001
 40
0.0
 40
0.0
 40
0.0
 40
0.0
 40
0.1872789360656677
 40
0.3742623136942176
 40
0.5609001338141182
 40
0.780373522324337
 40
1.0
 40
1.0
 40
1.0
 40
1.0
 10
988.4911849218875
 20
1694.458034929577
 30
0.0
 10
988.485524873009
 20
1694.597424958605
 30
0.0
 10
988.4742137077848
 20
1694.875985035173
 30
0.0
 10
988.3517091032184
 20
1695.281845689964
 30
0.0
 10
988.097367070539
 20
1695.64837105194
 30
0.0
 10
987.7031657350416
 20
1695.93142387586
 30
0.0
 10
987.3735822132346
 20
1695.964385106743
 30
0.0
 10
987.2087329988105
 20
1695.980871468039
 30
0.0
  0
SPLINE
  5
1B4
330
1F
100
AcDbEntity
  8
0
  6
Continuous
 62
     7
370
    25
100
AcDbSpline
210
0.0
220
0.0
230
1.0
 70
     8
 71
     3
 72
    11
 73
     7
 74
     0
 42
0.000000001
 43
0.00000001
 40
0.0
 40
0.0
 40
0.0
 40
0.0
 40
0.2798287812942946
 40
0.5596954028310233
 40
0.7797992847050165
 40
1.0
 40
1.0
 40
1.0
 40
1.0
 10
1013.737104076037
 20
1692.014051939229
 30
0.0
 10
1013.558547504171
 20
1691.815108247094
 30
0.0
 10
1013.201410214873
 20
1691.417193960381
 30
0.0
 10
1012.543813585286
 20
1691.049018977257
 30
0.0
 10
1011.882069385801
 20
1690.855058027107
 30
0.0
 10
1011.462856628647
 20
1690.836370921743
 30
0.0
 10
1011.253204152657
 20
1690.827025314193
 30
0.0
  0
SPLINE
  5
1B5
330
1F
100
AcDbEntity
  8
0
  6
Continuous
 62
     7
370
    25
100
AcDbSpline
210
0.0
220
0.0
230
1.0
 70
     8
 71
     3
 72
    13
 73
     9
 74
     0
 42
0.000000001
 43
0.00000001
 40
0.0
 40
0.0
 40
0.0
 40
0.0
 40
0.1864677046419571
 40
0.372693057050645
 40
0.5591267290598273
 40
0.7059655330015661
 40
0.8529477528137459
 40
1.0
 40
1.0
 40
1.0
 40
1.0
 10
957.6702714603491
 20
1696.980871468039
 30
0.0
 10
957.8557057072644
 20
1696.966128224936
 30
0.0
 10
958.2263331920476
 20
1696.936660900536
 30
0.0
 10
958.7155779294237
 20
1696.645892616698
 30
0.0
 10
959.0543932679069
 20
1696.249604493293
 30
0.0
 10
959.2369405169595
 20
1695.807420961239
 30
0.0
 10
959.325440382072
 20
1695.379199245775
 30
0.0
 10
959.3333720097183
 20
1695.088830701793
 30
0.0
 10
959.3373387680414
 20
1694.943611852654
 30
0.0
  0
LINE
  5
1B6
330
1F
100
AcDbEntity
  8
0
  6
Continuous
 62
     7
370
    25
100
AcDbLine
 10
984.1834926142
 20
1692.7116406988
 30
0.0
 11
985.337338768
 21
1692.8270253142
 31
0.0
  0
LINE
  5
1B7
330
1F
100
AcDbEntity
  8
0
  6
Continuous
 62
     7
370
    25
100
AcDbLine
 10
960.8349349219
 20
1695.6731791603
 30
0.0
 11
961.086136845
 21
1696.9039483911
 31
0.0
  0
SPLINE
  5
1B8
330
1F
100
AcDbEntity
  8
0
  6
Continuous
 62
     7
370
    25
100
AcDbSpline
210
0.0
220
0.0
230
1.0
 70
     8
 71
     3
 72
    13
 73
     9
 74
     0
 42
0.000000001
 43
0.00000001
 40
0.0
 40
0.0
 40
0.0
 40
0.0
 40
0.1868357464090764
 40
0.3733951609464999
 40
0.5598119536141907
 40
0.7064782111394249
 40
0.8531872909262174
 40
1.0
 40
1.0
 40
1.0
 40
1.0
 10
986.4695503065029
 20
1690.827025314193
 30
0.0
 10
986.2652656044816
 20
1690.836283163461
 30
0.0
 10
985.8569983394838
 20
1690.854785169549
 30
0.0
 10
985.2687964505358
 20
1691.050826168606
 30
0.0
 10
984.7974985941199
 20
1691.381892681684
 30
0.0
 10
984.4681553649201
 20
1691.794957599048
 30
0.0
 10
984.2647369833876
 20
1692.236654738437
 30
0.0
 10
984.210580444002
 20
1692.553274783938
 30
0.0
 10
984.1834926141952
 20
1692.711640698808
 30
0.0
  0
LINE
  5
1B9
330
1F
100
AcDbEntity
  8
0
  6
Continuous
 62
     7
370
    25
100
AcDbLine
 10
959.7988772296
 20
1694.6731791603
 30
0.0
 11
960.0272426142
 21
1695.6731791603
 31
0.0
  0
LINE
  5
1BA
330
1F
100
AcDbEntity
  8
0
  6
Continuous
 62
     7
370
    25
100
AcDbLine
 10
960.6306079988
 20
1694.6731791603
 30
0.0
 11
959.7988772296
 21
1694.6731791603
 31
0.0
  0
LINE
  5
1BB
330
1F
100
AcDbEntity
  8
0
  6
Continuous
 62
     7
370
    25
100
AcDbLine
 10
962.3177073578
 20
1693.9039483911
 30
0.0
 11
962.9527233834
 21
1694.6731791603
 31
0.0
  0
LINE
  5
1BC
330
1F
100
AcDbEntity
  8
0
  6
Continuous
 62
     7
370
    25
100
AcDbLine
 10
964.337338768
 20
1695.6731791603
 30
0.0
 11
964.1318099219
 21
1694.6900060834
 31
0.0
  0
LINE
  5
1BD
330
1F
100
AcDbEntity
  8
0
  6
Continuous
 62
     7
370
    25
100
AcDbLine
 10
1030.1125791527
 20
1695.9039483911
 30
0.0
 11
1028.8806079988
 21
1695.9039483911
 31
0.0
  0
LINE
  5
1BE
330
1F
100
AcDbEntity
  8
0
  6
Continuous
 62
     7
370
    25
100
AcDbLine
 10
962.2604156911
 20
1696.9039483911
 30
0.0
 11
962.009213768
 21
1695.6731791603
 31
0.0
  0
SPLINE
  5
1BF
330
1F
100
AcDbEntity
  8
0
  6
Continuous
 62
     7
370
    25
100
AcDbSpline
210
0.0
220
0.0
230
1.0
 70
     8
 71
     3
 72
     9
 73
     5
 74
     0
 42
0.000000001
 43
0.00000001
 40
0.0
 40
0.0
 40
0.0
 40
0.0
 40
0.5596954944396905
 40
1.0
 40
1.0
 40
1.0
 40
1.0
 10
966.8625791526566
 20
1696.813804160347
 30
0.0
 10
967.0785680259686
 20
1696.845571875904
 30
0.0
 10
967.4644722818678
 20
1696.902330802629
 30
0.0
 10
967.854367895665
 20
1696.903453890476
 30
0.0
 10
968.0260406911182
 20
1696.903948391116
 30
0.0
  0
SPLINE
  5
1C0
330
1F
100
AcDbEntity
  8
0
  6
Continuous
 62
     7
370
    25
100
AcDbSpline
210
0.0
220
0.0
230
1.0
 70
     8
 71
     3
 72
     9
 73
     5
 74
     0
 42
0.000000001
 43
0.00000001
 40
0.0
 40
0.0
 40
0.0
 40
0.0
 40
0.5594277030782645
 40
1.0
 40
1.0
 40
1.0
 40
1.0
 10
965.7712329988105
 20
1696.306592621885
 30
0.0
 10
965.9602859337551
 20
1696.433367838739
 30
0.0
 10
966.2982258210798
 20
1696.659983746669
 30
0.0
 10
966.6899821617944
 20
1696.766761042058
 30
0.0
 10
966.8625791526566
 20
1696.813804160347
 30
0.0
  0
SPLINE
  5
1C1
330
1F
100
AcDbEntity
  8
0
  6
Continuous
 62
     7
370
    25
100
AcDbSpline
210
0.0
220
0.0
230
1.0
 70
     8
 71
     3
 72
    11
 73
     7
 74
     0
 42
0.000000001
 43
0.00000001
 40
0.0
 40
0.0
 40
0.0
 40
0.0
 40
0.2801051672715321
 40
0.5598924323246133
 40
0.7800396473004897
 40
1.0
 40
1.0
 40
1.0
 40
1.0
 10
964.4911849218877
 20
1693.391929160346
 30
0.0
 10
964.506300799477
 20
1693.699787184418
 30
0.0
 10
964.5365153990604
 20
1694.315153832548
 30
0.0
 10
964.8341341176637
 20
1695.127053911224
 30
0.0
 10
965.2412646549333
 20
1695.81030440519
 30
0.0
 10
965.5946268947407
 20
1696.141210048645
 30
0.0
 10
965.7712329988105
 20
1696.306592621885
 30
0.0
  0
SPLINE
  5
1C2
330
1F
100
AcDbEntity
  8
0
  6
Continuous
 62
     7
370
    25
100
AcDbSpline
210
0.0
220
0.0
230
1.0
 70
     8
 71
     3
 72
    14
 73
    10
 74
     0
 42
0.000000001
 43
0.00000001
 40
0.0
 40
0.0
 40
0.0
 40
0.0
 40
0.1400606676129931
 40
0.2799193439093811
 40
0.4197909277748084
 40
0.5597539471420898
 40
0.7064180245400979
 40
0.8531711145884209
 40
0.9999999999999999
 40
0.9999999999999999
 40
0.9999999999999999
 40
0.9999999999999999
 10
966.4383003065029
 20
1690.924381083423
 30
0.0
 10
966.2765148404201
 20
1690.947922823261
 30
0.0
 10
965.9531772304275
 20
1690.994972351742
 30
0.0
 10
965.498058425388
 20
1691.191565319715
 30
0.0
 10
965.1152344779534
 20
1691.503801857709
 30
0.0
 10
964.8176272397108
 20
1691.907441883342
 30
0.0
 10
964.6208595382035
 20
1692.375691385984
 30
0.0
 10
964.5076932840119
 20
1692.878700654939
 30
0.0
 10
964.4966886563002
 20
1693.220823549415
 30
0.0
 10
964.4911849218877
 20
1693.391929160346
 30
0.0
  0
SPLINE
  5
1C3
330
1F
100
AcDbEntity
  8
0
  6
Continuous
 62
     7
370
    25
100
AcDbSpline
210
0.0
220
0.0
230
1.0
 70
     8
 71
     3
 72
     9
 73
     5
 74
     0
 42
0.000000001
 43
0.00000001
 40
0.0
 40
0.0
 40
0.0
 40
0.0
 40
0.5600440703263434
 40
1.0
 40
1.0
 40
1.0
 40
1.0
 10
967.2904637680413
 20
1690.903948391116
 30
0.0
 10
967.1312615939454
 20
1690.903241153497
 30
0.0
 10
966.8469943683261
 20
1690.90197832856
 30
0.0
 10
966.563170361354
 20
1690.917536273357
 30
0.0
 10
966.4383003065027
 20
1690.924381083423
 30
0.0
  0
LINE
  5
1C4
330
1F
100
AcDbEntity
  8
0
  6
Continuous
 62
     7
370
    25
100
AcDbLine
 10
968.8866176142
 20
1690.9039483911
 30
0.0
 11
967.290463768
 21
1690.9039483911
 31
0.0
  0
SPLINE
  5
1C5
330
1F
100
AcDbEntity
  8
0
  6
Continuous
 62
     7
370
    25
100
AcDbSpline
210
0.0
220
0.0
230
1.0
 70
     8
 71
     3
 72
    11
 73
     7
 74
     0
 42
0.000000001
 43
0.00000001
 40
0.0
 40
0.0
 40
0.0
 40
0.0
 40
0.2803278447393619
 40
0.5604598579171302
 40
0.7801615660358523
 40
1.0
 40
1.0
 40
1.0
 40
1.0
 10
968.0909445372721
 20
1695.903948391116
 30
0.0
 10
967.9361998100688
 20
1695.901664008362
 30
0.0
 10
967.6268184573087
 20
1695.897096838679
 30
0.0
 10
967.1961669928971
 20
1695.861903884164
 30
0.0
 10
966.8122594272251
 20
1695.735018764102
 30
0.0
 10
966.6190631225788
 20
1695.585634774085
 30
0.0
 10
966.5224349218876
 20
1695.510919544962
 30
0.0
  0
LINE
  5
1C6
330
1F
100
AcDbEntity
  8
0
  6
Continuous
 62
     7
370
    25
100
AcDbLine
 10
1029.5969541527
 20
1693.3654868527
 30
0.0
 11
1028.6245983834
 21
1693.3654868527
 31
0.0
  0
SPLINE
  5
1C7
330
1F
100
AcDbEntity
  8
0
  6
Continuous
 62
     7
370
    25
100
AcDbSpline
210
0.0
220
0.0
230
1.0
 70
     8
 71
     3
 72
    14
 73
    10
 74
     0
 42
0.000000001
 43
0.00000001
 40
0.0
 40
0.0
 40
0.0
 40
0.0
 40
0.1401368765437365
 40
0.2802199944915681
 40
0.4202818847866395
 40
0.5602508729338743
 40
0.7068150200782831
 40
0.8534011790517954
 40
1.0
 40
1.0
 40
1.0
 40
1.0
 10
989.6450310757338
 20
1694.417169544962
 30
0.0
 10
989.6339591562136
 20
1694.166962083435
 30
0.0
 10
989.6118195645267
 20
1693.666643143695
 30
0.0
 10
989.4146195181594
 20
1692.937382880742
 30
0.0
 10
989.0917154211985
 20
1692.257429166395
 30
0.0
 10
988.6205454301097
 20
1691.649266624302
 30
0.0
 10
987.9916055906826
 20
1691.18789555726
 30
0.0
 10
987.2562866071506
 20
1690.880975071793
 30
0.0
 10
986.7318032904554
 20
1690.845009084489
 30
0.0
 10
986.4695503065029
 20
1690.827025314193
 30
0.0
  0
SPLINE
  5
1C8
330
1F
100
AcDbEntity
  8
0
  6
Continuous
 62
     7
370
    25
100
AcDbSpline
210
0.0
220
0.0
230
1.0
 70
     8
 71
     3
 72
    10
 73
     6
 74
     0
 42
0.000000001
 43
0.00000001
 40
0.0
 40
0.0
 40
0.0
 40
0.0
 40
0.2801808178754513
 40
0.5602579929712971
 40
1.0
 40
1.0
 40
1.0
 40
1.0
 10
953.0188291526567
 20
1696.057794544962
 30
0.0
 10
952.9562671672526
 20
1696.05263677966
 30
0.0
 10
952.8311663389928
 20
1696.042323156986
 30
0.0
 10
952.625112595136
 20
1695.944296353484
 30
0.0
 10
952.5136220879451
 20
1695.827477323369
 30
0.0
 10
952.4455118449645
 20
1695.756111852654
 30
0.0
  0
SPLINE
  5
1C9
330
1F
100
AcDbEntity
  8
0
  6
Continuous
 62
     7
370
    25
100
AcDbSpline
210
0.0
220
0.0
230
1.0
 70
     8
 71
     3
 72
    10
 73
     6
 74
     0
 42
0.000000001
 43
0.00000001
 40
0.0
 40
0.0
 40
0.0
 40
0.0
 40
0.2801423371323099
 40
0.5602618406432398
 40
1.0
 40
1.0
 40
1.0
 40
1.0
 10
982.1164891271396
 20
1693.0090986553
 30
0.0
 10
982.1806810313252
 20
1693.141688267613
 30
0.0
 10
982.3090596075931
 20
1693.406856685228
 30
0.0
 10
982.4550045772227
 20
1693.915366132457
 30
0.0
 10
982.4774647291591
 20
1694.294029319809
 30
0.0
 10
982.4911849218875
 20
1694.525342621885
 30
0.0
  0
LINE
  5
1CA
330
1F
100
AcDbEntity
  8
0
  6
Continuous
 62
     7
370
    25
100
AcDbLine
 10
959.8782041527
 20
1690.980871468
 30
0.0
 11
960.6306079988
 21
1694.6731791603
 31
0.0
  0
SPLINE
  5
1CB
330
1F
100
AcDbEntity
  8
0
  6
Continuous
 62
     7
370
    25
100
AcDbSpline
210
0.0
220
0.0
230
1.0
 70
     8
 71
     3
 72
    12
 73
     8
 74
     0
 42
0.000000001
 43
0.00000001
 40
0.0
 40
0.0
 40
0.0
 40
0.0
 40
0.1866342799326735
 40
0.3733008586765302
 40
0.5599581535532644
 40
0.779851905694637
 40
1.0
 40
1.0
 40
1.0
 40
1.0
 10
987.2087329988105
 20
1695.980871468039
 30
0.0
 10
987.075846529304
 20
1695.971707007121
 30
0.0
 10
986.8100505930422
 20
1695.95337649929
 30
0.0
 10
986.4397923887868
 20
1695.79225481834
 30
0.0
 10
986.0970808705767
 20
1695.543489318934
 30
0.0
 10
985.8195683288623
 20
1695.185985450708
 30
0.0
 10
985.7032325739538
 20
1694.895452617296
 30
0.0
 10
985.6450310757336
 20
1694.75010223727
 30
0.0
  0
LINE
  5
1CC
330
1F
100
AcDbEntity
  8
0
  6
Continuous
 62
     7
370
    25
100
AcDbLine
 10
960.9791656911
 20
1690.980871468
 30
0.0
 11
959.8782041527
 21
1690.980871468
 31
0.0
  0
SPLINE
  5
1CD
330
1F
100
AcDbEntity
  8
0
  6
Continuous
 62
     7
370
    25
100
AcDbSpline
210
0.0
220
0.0
230
1.0
 70
     8
 71
     3
 72
     9
 73
     5
 74
     0
 42
0.000000001
 43
0.00000001
 40
0.0
 40
0.0
 40
0.0
 40
0.0
 40
0.5599838120502497
 40
1.0
 40
1.0
 40
1.0
 40
1.0
 10
983.4875791526567
 20
1693.431592621885
 30
0.0
 10
983.4654004735535
 20
1693.351928991232
 30
0.0
 10
983.4257945445502
 20
1693.209668395588
 30
0.0
 10
983.3767735295171
 20
1693.070385419528
 30
0.0
 10
983.3552034893528
 20
1693.009098655356
 30
0.0
  0
LINE
  5
1CE
330
1F
100
AcDbEntity
  8
0
  6
Continuous
 62
     7
370
    25
100
AcDbLine
 10
1031.1265911902
 20
1695.1090254043
 30
0.0
 11
1029.951110421
 21
1695.1090254043
 31
0.0
  0
LINE
  5
1CF
330
1F
100
AcDbEntity
  8
0
  6
Continuous
 62
     7
370
    25
100
AcDbLine
 10
961.4356304097
 20
1692.8354387757
 30
0.0
 11
962.5554878065
 21
1692.8354387757
 31
0.0
  0
SPLINE
  5
1D0
330
1F
100
AcDbEntity
  8
0
  6
Continuous
 62
     7
370
    25
100
AcDbSpline
210
0.0
220
0.0
230
1.0
 70
     8
 71
     3
 72
    10
 73
     6
 74
     0
 42
0.000000001
 43
0.00000001
 40
0.0
 40
0.0
 40
0.0
 40
0.0
 40
0.2801423371322939
 40
0.5602618406432391
 40
1.0
 40
1.0
 40
1.0
 40
1.0
 10
1013.039566050217
 20
1693.009098655301
 30
0.0
 10
1013.103757954402
 20
1693.141688267614
 30
0.0
 10
1013.23213653067
 20
1693.406856685229
 30
0.0
 10
1013.3780815003
 20
1693.915366132457
 30
0.0
 10
1013.400541652236
 20
1694.294029319809
 30
0.0
 10
1013.414261844964
 20
1694.525342621885
 30
0.0
  0
SPLINE
  5
1D1
330
1F
100
AcDbEntity
  8
0
  6
Continuous
 62
     7
370
    25
100
AcDbSpline
210
0.0
220
0.0
230
1.0
 70
     8
 71
     3
 72
    12
 73
     8
 74
     0
 42
0.000000001
 43
0.00000001
 40
0.0
 40
0.0
 40
0.0
 40
0.0
 40
0.1871657177721601
 40
0.3740017811877355
 40
0.5606253363063123
 40
0.7801383859830977
 40
1.0
 40
1.0
 40
1.0
 40
1.0
 10
1009.952723383426
 20
1693.34385223727
 30
0.0
 10
1009.959193722396
 20
1693.199956750389
 30
0.0
 10
1009.972123004149
 20
1692.912419219271
 30
0.0
 10
1010.117537820063
 20
1692.498758863251
 30
0.0
 10
1010.400615197416
 20
1692.13507455218
 30
0.0
 10
1010.822556117045
 20
1691.868896218758
 30
0.0
 10
1011.162449541515
 20
1691.840989661983
 30
0.0
 10
1011.332531075734
 20
1691.827025314192
 30
0.0
  0
SPLINE
  5
1D2
330
1F
100
AcDbEntity
  8
0
  6
Continuous
 62
     7
370
    25
100
AcDbSpline
210
0.0
220
0.0
230
1.0
 70
     8
 71
     3
 72
    13
 73
     9
 74
     0
 42
0.000000001
 43
0.00000001
 40
0.0
 40
0.0
 40
0.0
 40
0.0
 40
0.1397740308473644
 40
0.2797538684574322
 40
0.4197544314653465
 40
0.5599383419986695
 40
0.7800957794440112
 40
1.0
 40
1.0
 40
1.0
 40
1.0
 10
1012.01762722958
 20
1695.980871468039
 30
0.0
 10
1011.845733562273
 20
1695.96354073496
 30
0.0
 10
1011.501693127145
 20
1695.928853750599
 30
0.0
 10
1011.040095564361
 20
1695.677608681989
 30
0.0
 10
1010.65545656412
 20
1695.329165159927
 30
0.0
 10
1010.31655793077
 20
1694.814479487733
 30
0.0
 10
1010.028268079003
 20
1694.153340163046
 30
0.0
 10
1009.97789528691
 20
1693.613578017269
 30
0.0
 10
1009.952723383426
 20
1693.34385223727
 30
0.0
  0
SPLINE
  5
1D3
330
1F
100
AcDbEntity
  8
0
  6
Continuous
 62
     7
370
    25
100
AcDbSpline
210
0.0
220
0.0
230
1.0
 70
     8
 71
     3
 72
    12
 73
     8
 74
     0
 42
0.000000001
 43
0.00000001
 40
0.0
 40
0.0
 40
0.0
 40
0.0
 40
0.1869652297216976
 40
0.3737318610981513
 40
0.560564963066112
 40
0.7800653905987686
 40
1.0
 40
1.0
 40
1.0
 40
1.0
 10
1013.414261844964
 20
1694.525342621885
 30
0.0
 10
1013.405723421948
 20
1694.666324672312
 30
0.0
 10
1013.388655645607
 20
1694.948139019107
 30
0.0
 10
1013.220227051096
 20
1695.343451704689
 30
0.0
 10
1012.935485261746
 20
1695.691839325923
 30
0.0
 10
1012.516831152372
 20
1695.943192611795
 30
0.0
 10
1012.184138109146
 20
1695.96830357903
 30
0.0
 10
1012.01762722958
 20
1695.980871468039
 30
0.0
  0
SPLINE
  5
1D4
330
1F
100
AcDbEntity
  8
0
  6
Continuous
 62
     7
370
    25
100
AcDbSpline
210
0.0
220
0.0
230
1.0
 70
     8
 71
     3
 72
    13
 73
     9
 74
     0
 42
0.000000001
 43
0.00000001
 40
0.0
 40
0.0
 40
0.0
 40
0.0
 40
0.2505188821104793
 40
0.500440044239867
 40
0.6254877623269891
 40
0.7502471192937972
 40
0.8751867800643942
 40
1.0
 40
1.0
 40
1.0
 40
1.0
 10
1028.624598383426
 20
1693.365486852654
 30
0.0
 10
1028.461041686613
 20
1693.362800131246
 30
0.0
 10
1028.134318527466
 20
1693.357433098753
 30
0.0
 10
1027.722391216336
 20
1693.307635124839
 30
0.0
 10
1027.423852058569
 20
1693.162699733209
 30
0.0
 10
1027.247029336362
 20
1692.987392201304
 30
0.0
 10
1027.130456393102
 20
1692.765103732312
 30
0.0
 10
1027.114529134751
 20
1692.601228927145
 30
0.0
 10
1027.106569537272
 20
1692.5193330065
 30
0.0
  0
SPLINE
  5
1D5
330
1F
100
AcDbEntity
  8
0
  6
Continuous
 62
     7
370
    25
100
AcDbSpline
210
0.0
220
0.0
230
1.0
 70
     8
 71
     3
 72
     9
 73
     5
 74
     0
 42
0.000000001
 43
0.00000001
 40
0.0
 40
0.0
 40
0.0
 40
0.0
 40
0.559809019266981
 40
1.0
 40
1.0
 40
1.0
 40
1.0
 10
1011.332531075734
 20
1691.827025314192
 30
0.0
 10
1011.487005240566
 20
1691.835751410719
 30
0.0
 10
1011.762946069519
 20
1691.851339041903
 30
0.0
 10
1012.014381287941
 20
1691.96431911916
 30
0.0
 10
1012.125060803329
 20
1692.014051930171
 30
0.0
  0
SPLINE
  5
1D6
330
1F
100
AcDbEntity
  8
0
  6
Continuous
 62
     7
370
    25
100
AcDbSpline
210
0.0
220
0.0
230
1.0
 70
     8
 71
     3
 72
    14
 73
    10
 74
     0
 42
0.000000001
 43
0.00000001
 40
0.0
 40
0.0
 40
0.0
 40
0.0
 40
0.1401212984930778
 40
0.2801034988996902
 40
0.4199696601549832
 40
0.5598132898974093
 40
0.7063961198432894
 40
0.8531558666494139
 40
1.0
 40
1.0
 40
1.0
 40
1.0
 10
987.2976753065029
 20
1696.980871468039
 30
0.0
 10
987.4823621349209
 20
1696.973062540351
 30
0.0
 10
987.8515524535725
 20
1696.957452436879
 30
0.0
 10
988.3881341246562
 20
1696.798970274603
 30
0.0
 10
988.8650184241274
 20
1696.507596181595
 30
0.0
 10
989.2481156556423
 20
1696.08656874544
 30
0.0
 10
989.4965482423767
 20
1695.566296064915
 30
0.0
 10
989.6264768415641
 20
1694.997375392158
 30
0.0
 10
989.6388451460597
 20
1694.610608548394
 30
0.0
 10
989.6450310757338
 20
1694.417169544962
 30
0.0
  0
SPLINE
  5
1D7
330
1F
100
AcDbEntity
  8
0
  6
Continuous
 62
     7
370
    25
100
AcDbSpline
210
0.0
220
0.0
230
1.0
 70
     8
 71
     3
 72
    13
 73
     9
 74
     0
 42
0.000000001
 43
0.00000001
 40
0.0
 40
0.0
 40
0.0
 40
0.0
 40
0.1867303519675073
 40
0.3733385578492561
 40
0.5598492454110082
 40
0.706537848829755
 40
0.8532320163575893
 40
0.9999999999999999
 40
0.9999999999999999
 40
0.9999999999999999
 40
0.9999999999999999
 10
984.4911849218877
 20
1694.937602237269
 30
0.0
 10
984.5811632097759
 20
1695.151226422983
 30
0.0
 10
984.761060927978
 20
1695.578335056239
 30
0.0
 10
985.1799407354974
 20
1696.140734826684
 30
0.0
 10
985.6845558612081
 20
1696.5513773993
 30
0.0
 10
986.2211754865905
 20
1696.814143338732
 30
0.0
 10
986.751743436023
 20
1696.958096122161
 30
0.0
 10
987.1156675030832
 20
1696.973278413118
 30
0.0
 10
987.2976753065029
 20
1696.980871468039
 30
0.0
  0
SPLINE
  5
1D8
330
1F
100
AcDbEntity
  8
0
  6
Continuous
 62
     7
370
    25
100
AcDbSpline
210
0.0
220
0.0
230
1.0
 70
     8
 71
     3
 72
    15
 73
    11
 74
     0
 42
0.000000001
 43
0.00000001
 40
0.0
 40
0.0
 40
0.0
 40
0.0
 40
0.1667092212105681
 40
0.333480491841116
 40
0.5002099277517996
 40
0.6252308097584323
 40
0.7501256411042996
 40
0.8334484926706812
 40
0.9167170500056263
 40
1.0
 40
1.0
 40
1.0
 40
1.0
 10
950.4911849218875
 20
1692.949621468039
 30
0.0
 10
950.5062410579465
 20
1693.240957406208
 30
0.0
 10
950.5363589339806
 20
1693.823737718216
 30
0.0
 10
950.7509081989132
 20
1694.674277345291
 30
0.0
 10
951.0232998763396
 20
1695.429742823967
 30
0.0
 10
951.389677987935
 20
1696.062284120544
 30
0.0
 10
951.7827833054066
 20
1696.50048448217
 30
0.0
 10
952.2061664342391
 20
1696.787664111614
 30
0.0
 10
952.6172659450433
 20
1696.95266897635
 30
0.0
 10
952.9090048080546
 20
1696.971470095905
 30
0.0
 10
953.0548868449646
 20
1696.980871468039
 30
0.0
  0
SPLINE
  5
1D9
330
1F
100
AcDbEntity
  8
0
  6
Continuous
 62
     7
370
    25
100
AcDbSpline
210
0.0
220
0.0
230
1.0
 70
     8
 71
     3
 72
    10
 73
     6
 74
     0
 42
0.000000001
 43
0.00000001
 40
0.0
 40
0.0
 40
0.0
 40
0.0
 40
0.2809202604367405
 40
0.5610729361703005
 40
0.9999999999999999
 40
0.9999999999999999
 40
0.9999999999999999
 40
0.9999999999999999
 10
1027.106569537272
 20
1692.5193330065
 30
0.0
 10
1027.113379879099
 20
1692.438355387185
 30
0.0
 10
1027.126981954218
 20
1692.276621411278
 30
0.0
 10
1027.304513116122
 20
1692.029716258245
 30
0.0
 10
1027.506259724259
 20
1691.96729237979
 30
0.0
 10
1027.629406075734
 20
1691.929188775731
 30
0.0
  0
SPLINE
  5
1DA
330
1F
100
AcDbEntity
  8
0
  6
Continuous
 62
     7
370
    25
100
AcDbSpline
210
0.0
220
0.0
230
1.0
 70
     8
 71
     3
 72
     9
 73
     5
 74
     0
 42
0.000000001
 43
0.00000001
 40
0.0
 40
0.0
 40
0.0
 40
0.0
 40
0.5596786756548091
 40
0.9999999999999999
 40
0.9999999999999999
 40
0.9999999999999999
 40
0.9999999999999999
 10
952.1991176141953
 20
1691.827025314192
 30
0.0
 10
952.2567055619918
 20
1691.831505461912
 30
0.0
 10
952.3596002233422
 20
1691.83951031883
 30
0.0
 10
952.4522933390433
 20
1691.884248992575
 30
0.0
 10
952.4931080945065
 20
1691.903948384648
 30
0.0
  0
LINE
  5
1DB
330
1F
100
AcDbEntity
  8
0
  6
Continuous
 62
     7
370
    25
100
AcDbLine
 10
1028.2604156911
 20
1694.3654868527
 30
0.0
 11
1030.9755599219
 21
1694.3654868527
 31
0.0
  0
SPLINE
  5
1DC
330
1F
100
AcDbEntity
  8
0
  6
Continuous
 62
     7
370
    25
100
AcDbSpline
210
0.0
220
0.0
230
1.0
 70
     8
 71
     3
 72
     9
 73
     5
 74
     0
 42
0.000000001
 43
0.00000001
 40
0.0
 40
0.0
 40
0.0
 40
0.0
 40
0.559809019269344
 40
0.9999999999999999
 40
0.9999999999999999
 40
0.9999999999999999
 40
0.9999999999999999
 10
980.4094541526567
 20
1691.827025314192
 30
0.0
 10
980.5639283162745
 20
1691.835751410569
 30
0.0
 10
980.8398691430575
 20
1691.851339041485
 30
0.0
 10
981.0913043598977
 20
1691.964319116981
 30
0.0
 10
981.2019838745887
 20
1692.014051927217
 30
0.0
  0
LINE
  5
1DD
330
1F
100
AcDbEntity
  8
0
  6
Continuous
 62
     7
370
    25
100
AcDbLine
 10
960.0272426142
 20
1695.6731791603
 30
0.0
 11
960.8349349219
 21
1695.6731791603
 31
0.0
  0
LINE
  5
1DE
330
1F
100
AcDbEntity
  8
0
  6
Continuous
 62
     7
370
    25
100
AcDbLine
 10
1028.304886845
 20
1691.9039483911
 30
0.0
 11
1029.3000791527
 21
1691.9039483911
 31
0.0
  0
SPLINE
  5
1DF
330
1F
100
AcDbEntity
  8
0
  6
Continuous
 62
     7
370
    25
100
AcDbSpline
210
0.0
220
0.0
230
1.0
 70
     8
 71
     3
 72
     9
 73
     5
 74
     0
 42
0.000000001
 43
0.00000001
 40
0.0
 40
0.0
 40
0.0
 40
0.0
 40
0.5598337077257761
 40
0.9999999999999999
 40
0.9999999999999999
 40
0.9999999999999999
 40
0.9999999999999999
 10
1027.629406075734
 20
1691.929188775731
 30
0.0
 10
1027.755295822042
 20
1691.919730107993
 30
0.0
 10
1027.980165715674
 20
1691.902834612763
 30
0.0
 10
1028.205640461912
 20
1691.903607980643
 30
0.0
 10
1028.304886844964
 20
1691.903948391116
 30
0.0
  0
LINE
  5
1E0
330
1F
100
AcDbEntity
  8
0
  6
Continuous
 62
     7
370
    25
100
AcDbLine
 10
1029.951110421
 20
1695.1090254043
 30
0.0
 11
1030.1125791527
 21
1695.9039483911
 31
0.0
  0
SPLINE
  5
1E1
330
1F
100
AcDbEntity
  8
0
  6
Continuous
 62
     7
370
    25
100
AcDbSpline
210
0.0
220
0.0
230
1.0
 70
     8
 71
     3
 72
    14
 73
    10
 74
     0
 42
0.000000001
 43
0.00000001
 40
0.0
 40
0.0
 40
0.0
 40
0.0
 40
0.1669867857989663
 40
0.3339531720258807
 40
0.5006155423128237
 40
0.6255430823886055
 40
0.7504464958043161
 40
0.8752989874377602
 40
1.0
 40
1.0
 40
1.0
 40
1.0
 10
1028.880607998811
 20
1695.903948391116
 30
0.0
 10
1028.765435989072
 20
1695.903126800573
 30
0.0
 10
1028.53510603933
 20
1695.901483719854
 30
0.0
 10
1028.19121136163
 20
1695.879805211958
 30
0.0
 10
1027.874966689384
 20
1695.837154483006
 30
0.0
 10
1027.613021284249
 20
1695.707107791861
 30
0.0
 10
1027.426355422353
 20
1695.525264729382
 30
0.0
 10
1027.288339562445
 20
1695.299130143945
 30
0.0
 10
1027.269719880843
 20
1695.12618552137
 30
0.0
 10
1027.260415691118
 20
1695.039765698808
 30
0.0
  0
LINE
  5
1E2
330
1F
100
AcDbEntity
  8
0
  6
Continuous
 62
     7
370
    25
100
AcDbLine
 10
1014.2782804124
 20
1693.0090986554
 30
0.0
 11
1013.0395660502
 21
1693.0090986553
 31
0.0
  0
LINE
  5
1E3
330
1F
100
AcDbEntity
  8
0
  6
Continuous
 62
     7
370
    25
100
AcDbLine
 10
1030.7723543376
 20
1693.3650901298
 30
0.0
 11
1029.5968735683
 21
1693.3650901298
 31
0.0
  0
LINE
  5
1E4
330
1F
100
AcDbEntity
  8
0
  6
Continuous
 62
     7
370
    25
100
AcDbLine
 10
948.8758003065
 20
1644.9039483911
 30
0.0
 11
948.8758003065
 21
1681.8423955783
 31
0.0
  0
LINE
  5
1E5
330
1F
100
AcDbEntity
  8
0
  6
Continuous
 62
     7
370
    25
100
AcDbLine
 10
948.8758003065
 20
1685.9655012039
 30
0.0
 11
948.8758003065
 21
1698.9039483911
 31
0.0
  0
CIRCLE
  5
1E6
330
1F
100
AcDbEntity
  8
0
  6
Continuous
 62
     7
370
    25
100
AcDbCircle
 10
989.3758003065
 20
1652.9039483911
 30
0.0
 40
3.0
  0
LINE
  5
1E7
330
1F
100
AcDbEntity
  8
0
  6
Continuous
 62
     7
370
    25
100
AcDbLine
 10
951.9250588806
 20
1265.6923976567
 30
0.0
 11
951.9250588806
 21
1270.0997055611
 31
0.0
  0
LINE
  5
1E8
330
1F
100
AcDbEntity
  8
0
  6
Continuous
 62
     7
370
    25
100
AcDbLine
 10
951.9250588806
 20
1306.8960516089
 30
0.0
 11
951.9250588806
 21
1306.9
 31
0.0
  0
LINE
  5
1E9
330
1F
100
AcDbEntity
  8
0
  6
Continuous
 62
     7
370
    25
100
AcDbLine
 10
951.9250588806
 20
1681.7002944389
 30
0.0
 11
951.9250588806
 21
1686.1076023433
 31
0.0
  0
LINE
  5
1EA
330
1F
100
AcDbEntity
  8
0
  6
Continuous
 62
     7
370
    25
100
AcDbLine
 10
1724.3759210181
 20
1244.9754495208
 30
0.0
 11
1724.8759210181
 21
1244.9754495208
 31
0.0
  0
LINE
  5
1EB
330
1F
100
AcDbEntity
  8
0
  6
Continuous
 62
     7
370
    25
100
AcDbLine
 10
1724.8759210181
 20
1706.8245504792
 30
0.0
 11
1724.3759210181
 21
1706.8245504792
 31
0.0
  0
CIRCLE
  5
1EC
330
1F
100
AcDbEntity
  8
0
  6
Continuous
 62
     7
370
    25
100
AcDbCircle
 10
1012.2759210181
 20
1284.4
 30
0.0
 40
15.00000000000007
  0
LINE
  5
1ED
330
1F
100
AcDbEntity
  8
0
  6
Continuous
 62
     7
370
    25
100
AcDbLine
 10
1016.4948675128
 20
1275.5380688443
 30
0.0
 11
1022.0600517728
 21
1283.6227492638
 31
0.0
  0
LINE
  5
1EE
330
1F
100
AcDbEntity
  8
0
  6
Continuous
 62
     7
370
    25
100
AcDbLine
 10
1022.0600517728
 20
1283.6227492638
 30
0.0
 11
1017.8411052781
 21
1292.4846804195
 31
0.0
  0
LINE
  5
1EF
330
1F
100
AcDbEntity
  8
0
  6
Continuous
 62
     7
370
    25
100
AcDbLine
 10
1008.0569745233
 20
1293.2619311557
 30
0.0
 11
1002.4917902633
 21
1285.1772507362
 31
0.0
  0
LINE
  5
1F0
330
1F
100
AcDbEntity
  8
0
  6
Continuous
 62
     7
370
    25
100
AcDbLine
 10
1002.4917902633
 20
1285.1772507362
 30
0.0
 11
1006.710736758
 21
1276.3153195805
 31
0.0
  0
LINE
  5
1F1
330
1F
100
AcDbEntity
  8
0
  6
Continuous
 62
     7
370
    25
100
AcDbLine
 10
1006.710736758
 20
1276.3153195805
 30
0.0
 11
1016.4948675128
 21
1275.5380688443
 31
0.0
  0
LINE
  5
1F2
330
1F
100
AcDbEntity
  8
0
  6
Continuous
 62
     7
370
    25
100
AcDbLine
 10
1017.8411052781
 20
1292.4846804195
 30
0.0
 11
1008.0569745233
 21
1293.2619311557
 31
0.0
  0
CIRCLE
  5
1F3
330
1F
100
AcDbEntity
  8
0
  6
Continuous
 62
     7
370
    25
100
AcDbCircle
 10
1012.2759210181
 20
1667.4
 30
0.0
 40
15.00000000000007
  0
LINE
  5
1F4
330
1F
100
AcDbEntity
  8
0
  6
Continuous
 62
     7
370
    25
100
AcDbLine
 10
1017.8411052781
 20
1659.3153195805
 30
0.0
 11
1022.0600517728
 21
1668.1772507362
 31
0.0
  0
LINE
  5
1F5
330
1F
100
AcDbEntity
  8
0
  6
Continuous
 62
     7
370
    25
100
AcDbLine
 10
1022.0600517728
 20
1668.1772507362
 30
0.0
 11
1016.4948675128
 21
1676.2619311557
 31
0.0
  0
LINE
  5
1F6
330
1F
100
AcDbEntity
  8
0
  6
Continuous
 62
     7
370
    25
100
AcDbLine
 10
1016.4948675128
 20
1676.2619311557
 30
0.0
 11
1006.710736758
 21
1675.4846804195
 31
0.0
  0
LINE
  5
1F7
330
1F
100
AcDbEntity
  8
0
  6
Continuous
 62
     7
370
    25
100
AcDbLine
 10
1006.710736758
 20
1675.4846804195
 30
0.0
 11
1002.4917902633
 21
1666.6227492638
 31
0.0
  0
LINE
  5
1F8
330
1F
100
AcDbEntity
  8
0
  6
Continuous
 62
     7
370
    25
100
AcDbLine
 10
1002.4917902633
 20
1666.6227492638
 30
0.0
 11
1008.0569745233
 21
1658.5380688443
 31
0.0
  0
LINE
  5
1F9
330
1F
100
AcDbEntity
  8
0
  6
Continuous
 62
     7
370
    25
100
AcDbLine
 10
1008.0569745233
 20
1658.5380688443
 30
0.0
 11
1017.8411052781
 21
1659.3153195805
 31
0.0
  0
CIRCLE
  5
1FA
330
1F
100
AcDbEntity
  8
0
  6
Continuous
 62
     7
370
    25
100
AcDbCircle
 10
1661.4759210181
 20
1284.4
 30
0.0
 40
15.00000000000002
  0
LINE
  5
1FB
330
1F
100
AcDbEntity
  8
0
  6
Continuous
 62
     7
370
    25
100
AcDbLine
 10
1661.5184695189
 20
1294.2148623505
 30
0.0
 11
1652.9972751383
 21
1289.3442792579
 31
0.0
  0
LINE
  5
1FC
330
1F
100
AcDbEntity
  8
0
  6
Continuous
 62
     7
370
    25
100
AcDbLine
 10
1652.9972751383
 20
1289.3442792579
 30
0.0
 11
1652.9547266375
 21
1279.5294169074
 31
0.0
  0
LINE
  5
1FD
330
1F
100
AcDbEntity
  8
0
  6
Continuous
 62
     7
370
    25
100
AcDbLine
 10
1652.9547266375
 20
1279.5294169074
 30
0.0
 11
1661.4333725172
 21
1274.5851376495
 31
0.0
  0
LINE
  5
1FE
330
1F
100
AcDbEntity
  8
0
  6
Continuous
 62
     7
370
    25
100
AcDbLine
 10
1661.4333725172
 20
1274.5851376495
 30
0.0
 11
1669.9545668978
 21
1279.4557207421
 31
0.0
  0
LINE
  5
1FF
330
1F
100
AcDbEntity
  8
0
  6
Continuous
 62
     7
370
    25
100
AcDbLine
 10
1669.9545668978
 20
1279.4557207421
 30
0.0
 11
1669.9971153986
 21
1289.2705830926
 31
0.0
  0
LINE
  5
200
330
1F
100
AcDbEntity
  8
0
  6
Continuous
 62
     7
370
    25
100
AcDbLine
 10
1669.9971153986
 20
1289.2705830926
 30
0.0
 11
1661.5184695189
 21
1294.2148623505
 31
0.0
  0
LINE
  5
201
330
1F
100
AcDbEntity
  8
0
  6
Continuous
 62
     7
370
    25
100
AcDbLine
 10
1669.9971153986
 20
1662.5294169074
 30
0.0
 11
1669.9545668978
 21
1672.3442792579
 31
0.0
  0
LINE
  5
202
330
1F
100
AcDbEntity
  8
0
  6
Continuous
 62
     7
370
    25
100
AcDbLine
 10
1669.9545668978
 20
1672.3442792579
 30
0.0
 11
1661.4333725172
 21
1677.2148623505
 31
0.0
  0
LINE
  5
203
330
1F
100
AcDbEntity
  8
0
  6
Continuous
 62
     7
370
    25
100
AcDbLine
 10
1661.4333725172
 20
1677.2148623505
 30
0.0
 11
1652.9547266375
 21
1672.2705830926
 31
0.0
  0
LINE
  5
204
330
1F
100
AcDbEntity
  8
0
  6
Continuous
 62
     7
370
    25
100
AcDbLine
 10
1652.9547266375
 20
1672.2705830926
 30
0.0
 11
1652.9972751383
 21
1662.4557207421
 31
0.0
  0
LINE
  5
205
330
1F
100
AcDbEntity
  8
0
  6
Continuous
 62
     7
370
    25
100
AcDbLine
 10
1652.9972751383
 20
1662.4557207421
 30
0.0
 11
1661.5184695189
 21
1657.5851376495
 31
0.0
  0
LINE
  5
206
330
1F
100
AcDbEntity
  8
0
  6
Continuous
 62
     7
370
    25
100
AcDbLine
 10
1661.5184695189
 20
1657.5851376495
 30
0.0
 11
1669.9971153986
 21
1662.5294169074
 31
0.0
  0
CIRCLE
  5
207
330
1F
100
AcDbEntity
  8
0
  6
Continuous
 62
     7
370
    25
100
AcDbCircle
 10
1661.4759210181
 20
1667.4
 30
0.0
 40
15.00000000000005
  0
CIRCLE
  5
208
330
1F
100
AcDbEntity
  8
0
  6
Continuous
 62
     7
370
    25
100
AcDbCircle
 10
1012.2759210181
 20
1284.4
 30
0.0
 40
17.00000000000001
  0
CIRCLE
  5
209
330
1F
100
AcDbEntity
  8
0
  6
Continuous
 62
     7
370
    25
100
AcDbCircle
 10
1012.2759210181
 20
1284.4
 30
0.0
 40
15.50000000000016
  0
CIRCLE
  5
20A
330
1F
100
AcDbEntity
  8
0
  6
Continuous
 62
     7
370
    25
100
AcDbCircle
 10
1661.4759210181
 20
1284.4
 30
0.0
 40
15.49999999999993
  0
CIRCLE
  5
20B
330
1F
100
AcDbEntity
  8
0
  6
Continuous
 62
     7
370
    25
100
AcDbCircle
 10
1661.4759210181
 20
1667.4
 30
0.0
 40
15.49999999999973
  0
CIRCLE
  5
20C
330
1F
100
AcDbEntity
  8
0
  6
Continuous
 62
     7
370
    25
100
AcDbCircle
 10
1012.2759210181
 20
1667.4
 30
0.0
 40
17.00000000000025
  0
CIRCLE
  5
20D
330
1F
100
AcDbEntity
  8
0
  6
Continuous
 62
     7
370
    25
100
AcDbCircle
 10
1012.2759210181
 20
1667.4
 30
0.0
 40
15.49999999999995
  0
ARC
  5
20E
330
1F
100
AcDbEntity
  8
0
  6
Continuous
 62
     7
370
    25
100
AcDbCircle
 10
975.3758003065
 20
1674.4039483911
 30
0.0
 40
13.50000000000016
100
AcDbArc
 50
138.1896851042
 51
221.8103148958
  0
LINE
  5
20F
330
1F
100
AcDbEntity
  8
0
  6
Continuous
 62
     7
370
    25
100
AcDbLine
 10
965.3134944078
 20
1665.4039483911
 30
0.0
 11
985.4381062053
 21
1665.4039483911
 31
0.0
  0
ARC
  5
210
330
1F
100
AcDbEntity
  8
0
  6
Continuous
 62
     7
370
    25
100
AcDbCircle
 10
975.3758003065
 20
1674.4039483911
 30
0.0
 40
13.50000000000024
100
AcDbArc
 50
318.1896851042
 51
41.8103148958
  0
CIRCLE
  5
211
330
1F
100
AcDbEntity
  8
0
  6
Continuous
 62
     7
370
    25
100
AcDbCircle
 10
989.3758003065
 20
1652.9039483911
 30
0.0
 40
2.399999999999864
  0
LINE
  5
212
330
1F
100
AcDbEntity
  8
0
  6
Continuous
 62
     7
370
    25
100
AcDbLine
 10
985.4381062053
 20
1683.4039483911
 30
0.0
 11
965.3134944078
 21
1683.4039483911
 31
0.0
  0
CIRCLE
  5
213
330
1F
100
AcDbEntity
  8
0
  6
Continuous
 62
     7
370
    25
100
AcDbCircle
 10
952.8758003065
 20
1683.9039483911
 30
0.0
 40
2.399999999999864
  0
CIRCLE
  5
214
330
1F
100
AcDbEntity
  8
0
  6
Continuous
 62
     7
370
    25
100
AcDbCircle
 10
1028.8758003065
 20
1683.9039483911
 30
0.0
 40
2.399999999999864
  0
LINE
  5
215
330
1F
100
AcDbEntity
  8
0
  6
Continuous
 62
     7
370
    25
100
AcDbLine
 10
949.3759210181
 20
1704.8840691027
 30
0.0
 11
948.8759210181
 21
1704.3840691027
 31
0.0
  0
CIRCLE
  5
216
330
1F
100
AcDbEntity
  8
0
  6
Continuous
 62
     7
370
    25
100
AcDbCircle
 10
952.8758003065
 20
1267.8960516089
 30
0.0
 40
2.399999999999864
  0
CIRCLE
  5
217
330
1F
100
AcDbEntity
  8
0
  6
Continuous
 62
     7
370
    25
100
AcDbCircle
 10
1028.8758003065
 20
1267.8960516089
 30
0.0
 40
2.399999999999864
  0
LINE
  5
218
330
1F
100
AcDbEntity
  8
0
  6
Continuous
 62
     7
370
    25
100
AcDbLine
 10
965.3134944078
 20
1286.3960516089
 30
0.0
 11
985.4381062053
 21
1286.3960516089
 31
0.0
  0
ARC
  5
219
330
1F
100
AcDbEntity
  8
0
  6
Continuous
 62
     7
370
    25
100
AcDbCircle
 10
975.3758003065
 20
1277.3960516089
 30
0.0
 40
13.49999999999992
100
AcDbArc
 50
138.1896851042
 51
221.8103148958
  0
LINE
  5
21A
330
1F
100
AcDbEntity
  8
0
  6
Continuous
 62
     7
370
    25
100
AcDbLine
 10
985.4381062053
 20
1268.3960516089
 30
0.0
 11
965.3134944078
 21
1268.3960516089
 31
0.0
  0
ARC
  5
21B
330
1F
100
AcDbEntity
  8
0
  6
Continuous
 62
     7
370
    25
100
AcDbCircle
 10
975.3758003065
 20
1277.3960516089
 30
0.0
 40
13.50000000000017
100
AcDbArc
 50
318.1896851042
 51
41.8103148958
  0
LINE
  5
21C
330
1F
100
AcDbEntity
  8
0
  6
Continuous
 62
     7
370
    25
100
AcDbLine
 10
948.8759210181
 20
1247.4159308973
 30
0.0
 11
949.3759210181
 21
1246.9159308973
 31
0.0
  0
CIRCLE
  5
21D
330
1F
100
AcDbEntity
  8
0
  6
Continuous
 62
     7
370
    25
100
AcDbCircle
 10
989.3758003065
 20
1298.8960516089
 30
0.0
 40
2.399999999999864
  0
SPLINE
  5
21E
330
1F
100
AcDbEntity
  8
0
  6
Continuous
 62
     7
370
    25
100
AcDbSpline
210
0.0
220
0.0
230
1.0
 70
     8
 71
     3
 72
    15
 73
    11
 74
     0
 42
0.000000001
 43
0.00000001
 40
0.0
 40
0.0
 40
0.0
 40
0.0
 40
0.0471879135036086
 40
0.1833039258602528
 40
0.3194199382168738
 40
0.4555359505735115
 40
0.5916519629301445
 40
0.7277679752867731
 40
0.863883987643403
 40
1.0
 40
1.0
 40
1.0
 40
1.0
 10
938.2647678728492
 20
1708.253807808767
 30
0.0
 10
938.2612627197257
 20
1708.254473234605
 30
0.0
 10
938.2476467685086
 20
1708.257058116186
 30
0.0
 10
938.3413048499356
 20
1708.26156245351
 30
0.0
 10
938.541964900848
 20
1708.267320820739
 30
0.0
 10
938.850986427674
 20
1708.273079187969
 30
0.0
 10
939.2444979017283
 20
1708.278837555198
 30
0.0
 10
939.7072051734671
 20
1708.284595922427
 30
0.0
 10
940.2173349811746
 20
1708.290354289656
 30
0.0
 10
940.5736730177932
 20
1708.294193201142
 30
0.0
 10
940.7518420361024
 20
1708.296112656885
 30
0.0
  0
SPLINE
  5
21F
330
1F
100
AcDbEntity
  8
0
  6
Continuous
 62
     7
370
    25
100
AcDbSpline
210
0.0
220
0.0
230
1.0
 70
     8
 71
     3
 72
    15
 73
    11
 74
     0
 42
0.000000001
 43
0.00000001
 40
0.0
 40
0.0
 40
0.0
 40
0.0
 40
0.1361160123566277
 40
0.2722320247132571
 40
0.4083480370698875
 40
0.5444640494265203
 40
0.6805800617831341
 40
0.8166960741397754
 40
0.9528120864963912
 40
1.0
 40
1.0
 40
1.0
 40
1.0
 10
940.7518420361024
 20
1243.503887343117
 30
0.0
 10
940.5736730177931
 20
1243.50580679886
 30
0.0
 10
940.2173349811746
 20
1243.509645710346
 30
0.0
 10
939.7072051734671
 20
1243.515404077575
 30
0.0
 10
939.2444979017283
 20
1243.521162444805
 30
0.0
 10
938.8509864276742
 20
1243.526920812034
 30
0.0
 10
938.5419649008478
 20
1243.532679179263
 30
0.0
 10
938.3413048499358
 20
1243.538437546493
 30
0.0
 10
938.2476467685084
 20
1243.542941883816
 30
0.0
 10
938.2612627197257
 20
1243.545526765397
 30
0.0
 10
938.2647678728492
 20
1243.546192191236
 30
0.0
  0
LINE
  5
220
330
1F
100
AcDbEntity
  8
0
  6
Continuous
 62
     7
370
    25
100
AcDbLine
 10
948.8759210181
 20
1708.2961126569
 30
0.0
 11
940.7518420361
 21
1708.2961126569
 31
0.0
  0
LINE
  5
221
330
1F
100
AcDbEntity
  8
0
  6
Continuous
 62
     7
370
    25
100
AcDbLine
 10
940.7518420361
 20
1243.5038873431
 30
0.0
 11
948.8759210181
 21
1243.5038873431
 31
0.0
  0
LINE
  5
222
330
1F
100
AcDbEntity
  8
0
  6
Continuous
 62
     7
370
    25
100
AcDbLine
 10
948.8759210181
 20
1243.5038873431
 30
0.0
 11
948.8759210181
 21
1708.2961126569
 31
0.0
  0
LINE
  5
223
330
1F
100
AcDbEntity
  8
0
  6
Continuous
 62
     7
370
    25
100
AcDbLine
 10
938.3598192823
 20
1708.3401286604
 30
0.0
 11
938.8960046623
 21
1708.2735348434
 31
0.0
  0
LWPOLYLINE
  5
224
330
1F
100
AcDbEntity
  8
0
  6
Continuous
 62
     7
370
    25
100
AcDbPolyline
 90
       12
 70
   128
 43
0.0
 10
941.3306322519
 20
1708.3997715079
 10
940.8660364866
 20
1708.3991398496
 10
940.4126508583
 20
1708.3972601157
 10
939.9814150166
 20
1708.3941776619
 10
939.5827341636
 20
1708.3899668642
 10
939.2262279886
 20
1708.3847293241
 10
938.9204985568
 20
1708.378591417
 10
938.6729227515
 20
1708.3717012434
 10
938.4894742791
 20
1708.3642250547
 10
938.3745795304
 20
1708.3563432425
 10
938.3310107777
 20
1708.3482459853
 10
938.3598192823
 20
1708.3401286604
  0
LINE
  5
225
330
1F
100
AcDbEntity
  8
0
  6
Continuous
 62
     7
370
    25
100
AcDbLine
 10
949.375921018
 20
1708.3997715079
 30
0.0
 11
941.3306322519
 21
1708.3997715079
 31
0.0
  0
LINE
  5
226
330
1F
100
AcDbEntity
  8
0
  6
Continuous
 62
     7
370
    25
100
AcDbLine
 10
949.375921018
 20
1708.3997715079
 30
0.0
 11
949.3759210181
 21
1708.3958176995
 31
0.0
  0
LINE
  5
227
330
1F
100
AcDbEntity
  8
0
  6
Continuous
 62
     7
370
    25
100
AcDbLine
 10
1724.3759210181
 20
1708.3958176995
 30
0.0
 11
1724.3759210181
 21
1708.3997715079
 31
0.0
  0
LINE
  5
228
330
1F
100
AcDbEntity
  8
0
  6
Continuous
 62
     7
370
    25
100
AcDbLine
 10
1732.4212097842
 20
1708.3997715079
 30
0.0
 11
1724.3759210181
 21
1708.3997715079
 31
0.0
  0
LWPOLYLINE
  5
229
330
1F
100
AcDbEntity
  8
0
  6
Continuous
 62
     7
370
    25
100
AcDbPolyline
 90
       12
 70
   128
 43
0.0
 10
1735.3920227538
 20
1708.3401286604
 10
1735.4208312584
 20
1708.3482459853
 10
1735.3772625057
 20
1708.3563432425
 10
1735.262367757
 20
1708.3642250547
 10
1735.0789192846
 20
1708.3717012434
 10
1734.8313434793
 20
1708.378591417
 10
1734.5256140475
 20
1708.3847293241
 10
1734.1691078725
 20
1708.3899668642
 10
1733.7704270195
 20
1708.3941776619
 10
1733.3391911778
 20
1708.3972601157
 10
1732.8858055495
 20
1708.3991398496
 10
1732.4212097842
 20
1708.3997715079
  0
LINE
  5
22A
330
1F
100
AcDbEntity
  8
0
  6
Continuous
 62
     7
370
    25
100
AcDbLine
 10
1734.8558373738
 20
1708.2735348434
 30
0.0
 11
1735.3920227538
 21
1708.3401286604
 31
0.0
  0
ARC
  5
22B
330
1F
100
AcDbEntity
  8
0
  6
Continuous
 62
     7
370
    25
100
AcDbCircle
 10
1723.669621431
 20
1755.9832639309
 30
0.0
 40
48.92437132403992
100
AcDbArc
 50
270.8271826521
 51
271.412851678
  0
ARC
  5
22C
330
1F
100
AcDbEntity
  8
0
  6
Continuous
 62
     7
370
    25
100
AcDbCircle
 10
940.5886828358
 20
1666.4380601639
 30
0.0
 40
43.46781549207424
100
AcDbArc
 50
89.0219744385
 51
92.9777210137
  0
LINE
  5
22D
330
1F
100
AcDbEntity
  8
0
  6
Continuous
 62
     7
370
    25
100
AcDbLine
 10
949.375921018
 20
1708.3997715079
 30
0.0
 11
949.375921018
 21
1709.8995430507
 31
0.0
  0
LINE
  5
22E
330
1F
100
AcDbEntity
  8
0
  6
Continuous
 62
     7
370
    25
100
AcDbLine
 10
941.3306322519
 20
1709.8995430507
 30
0.0
 11
949.375921018
 21
1709.8995430507
 31
0.0
  0
LINE
  5
22F
330
1F
100
AcDbEntity
  8
0
  6
Continuous
 62
     7
370
    25
100
AcDbLine
 10
1724.3759210181
 20
1708.3958176995
 30
0.0
 11
1724.3759210181
 21
1707.3559815176
 31
0.0
  0
LINE
  5
230
330
1F
100
AcDbEntity
  8
0
  6
Continuous
 62
     7
370
    25
100
AcDbLine
 10
949.3759210181
 20
1707.3559815176
 30
0.0
 11
949.3759210181
 21
1708.3958176995
 31
0.0
  0
LINE
  5
231
330
1F
100
AcDbEntity
  8
0
  6
Continuous
 62
     7
370
    25
100
AcDbLine
 10
1724.3759210181
 20
1698.9
 30
0.0
 11
949.3759210181
 21
1698.9
 31
0.0
  0
LINE
  5
232
330
1F
100
AcDbEntity
  8
0
  6
Continuous
 62
     7
370
    25
100
AcDbLine
 10
949.3759210181
 20
1698.9
 30
0.0
 11
949.3759210181
 21
1707.3559815176
 31
0.0
  0
LINE
  5
233
330
1F
100
AcDbEntity
  8
0
  6
Continuous
 62
     7
370
    25
100
AcDbLine
 10
1724.3759210181
 20
1707.3559815176
 30
0.0
 11
1724.3759210181
 21
1698.9
 31
0.0
  0
LINE
  5
234
330
1F
100
AcDbEntity
  8
0
  6
Continuous
 62
     7
370
    25
100
AcDbLine
 10
949.3759210181
 20
1243.4002284921
 30
0.0
 11
949.375921018
 21
1241.9004569493
 31
0.0
  0
LINE
  5
235
330
1F
100
AcDbEntity
  8
0
  6
Continuous
 62
     7
370
    25
100
AcDbLine
 10
941.3306322519
 20
1241.9004569493
 30
0.0
 11
949.375921018
 21
1241.9004569493
 31
0.0
  0
LINE
  5
236
330
1F
100
AcDbEntity
  8
0
  6
Continuous
 62
     7
370
    25
100
AcDbLine
 10
949.3759210181
 20
1243.4002284921
 30
0.0
 11
941.3306322519
 21
1243.4002284921
 31
0.0
  0
ARC
  5
237
330
1F
100
AcDbEntity
  8
0
  6
Continuous
 62
     7
370
    25
100
AcDbCircle
 10
940.4360799885
 20
1276.6179968216
 30
0.0
 40
34.72906273615248
100
AcDbArc
 50
266.5243148567
 51
271.4759896911
  0
LWPOLYLINE
  5
238
330
1F
100
AcDbEntity
  8
0
  6
Continuous
 62
     7
370
    25
100
AcDbPolyline
 90
       12
 70
   128
 43
0.0
 10
938.3598192823
 20
1243.4598713396
 10
938.3310107777
 20
1243.4517540147
 10
938.3745795304
 20
1243.4436567575
 10
938.4894742791
 20
1243.4357749453
 10
938.6729227515
 20
1243.4282987566
 10
938.9204985568
 20
1243.421408583
 10
939.2262279886
 20
1243.4152706759
 10
939.5827341636
 20
1243.4100331358
 10
939.9814150166
 20
1243.4058223381
 10
940.4126508583
 20
1243.4027398843
 10
940.8660364866
 20
1243.4008601504
 10
941.3306322519
 20
1243.4002284921
  0
ARC
  5
239
330
1F
100
AcDbEntity
  8
0
  6
Continuous
 62
     7
370
    25
100
AcDbCircle
 10
1723.6696214308
 20
1195.8167360588
 30
0.0
 40
48.92437133438634
100
AcDbArc
 50
88.5871483221
 51
89.1728173478
  0
LINE
  5
23A
330
1F
100
AcDbEntity
  8
0
  6
Continuous
 62
     7
370
    25
100
AcDbLine
 10
1735.3920227538
 20
1243.4598713396
 30
0.0
 11
1734.8558373738
 21
1243.5264651566
 31
0.0
  0
LWPOLYLINE
  5
23B
330
1F
100
AcDbEntity
  8
0
  6
Continuous
 62
     7
370
    25
100
AcDbPolyline
 90
       12
 70
   128
 43
0.0
 10
1732.4212097842
 20
1243.4002284921
 10
1732.8858055495
 20
1243.4008601504
 10
1733.3391911778
 20
1243.4027398843
 10
1733.7704270195
 20
1243.4058223381
 10
1734.1691078725
 20
1243.4100331358
 10
1734.5256140475
 20
1243.4152706759
 10
1734.8313434793
 20
1243.421408583
 10
1735.0789192846
 20
1243.4282987566
 10
1735.262367757
 20
1243.4357749453
 10
1735.3772625057
 20
1243.4436567575
 10
1735.4208312584
 20
1243.4517540147
 10
1735.3920227538
 20
1243.4598713396
  0
LINE
  5
23C
330
1F
100
AcDbEntity
  8
0
  6
Continuous
 62
     7
370
    25
100
AcDbLine
 10
1732.4212097842
 20
1243.4002284921
 30
0.0
 11
1724.3759210181
 21
1243.4002284921
 31
0.0
  0
LINE
  5
23D
330
1F
100
AcDbEntity
  8
0
  6
Continuous
 62
     7
370
    25
100
AcDbLine
 10
1724.3759210181
 20
1243.4002284921
 30
0.0
 11
1724.3759210181
 21
1243.4041823005
 31
0.0
  0
LINE
  5
23E
330
1F
100
AcDbEntity
  8
0
  6
Continuous
 62
     7
370
    25
100
AcDbLine
 10
949.3759210181
 20
1243.4041823005
 30
0.0
 11
949.3759210181
 21
1243.4002284921
 31
0.0
  0
LINE
  5
23F
330
1F
100
AcDbEntity
  8
0
  6
Continuous
 62
     7
370
    25
100
AcDbLine
 10
938.8960046623
 20
1243.5264651566
 30
0.0
 11
938.3598192823
 21
1243.4598713396
 31
0.0
  0
LINE
  5
240
330
1F
100
AcDbEntity
  8
0
  6
Continuous
 62
     7
370
    25
100
AcDbLine
 10
1724.3759210181
 20
1252.9
 30
0.0
 11
949.3759210181
 21
1252.9
 31
0.0
  0
LINE
  5
241
330
1F
100
AcDbEntity
  8
0
  6
Continuous
 62
     7
370
    25
100
AcDbLine
 10
1724.3759210181
 20
1244.4440184824
 30
0.0
 11
1724.3759210181
 21
1252.9
 31
0.0
  0
LINE
  5
242
330
1F
100
AcDbEntity
  8
0
  6
Continuous
 62
     7
370
    25
100
AcDbLine
 10
949.3759210181
 20
1252.9
 30
0.0
 11
949.3759210181
 21
1244.4440184824
 31
0.0
  0
LINE
  5
243
330
1F
100
AcDbEntity
  8
0
  6
Continuous
 62
     7
370
    25
100
AcDbLine
 10
949.3759210181
 20
1243.4041823005
 30
0.0
 11
949.3759210181
 21
1244.4440184824
 31
0.0
  0
LINE
  5
244
330
1F
100
AcDbEntity
  8
0
  6
Continuous
 62
     7
370
    25
100
AcDbLine
 10
1724.3759210181
 20
1244.4440184824
 30
0.0
 11
1724.3759210181
 21
1243.4041823005
 31
0.0
  0
LINE
  5
245
330
1F
100
AcDbEntity
  8
0
  6
Continuous
 62
     7
370
    25
100
AcDbLine
 10
1724.3759210181
 20
1709.8995430507
 30
0.0
 11
1732.4212097842
 21
1709.8995430507
 31
0.0
  0
LINE
  5
246
330
1F
100
AcDbEntity
  8
0
  6
Continuous
 62
     7
370
    25
100
AcDbLine
 10
1724.3759210181
 20
1708.3997715079
 30
0.0
 11
1724.3759210181
 21
1709.8995430507
 31
0.0
  0
ARC
  5
247
330
1F
100
AcDbEntity
  8
0
  6
Continuous
 62
     7
370
    25
100
AcDbCircle
 10
1733.3157620476
 20
1675.1820031782
 30
0.0
 40
34.72906273635917
100
AcDbArc
 50
86.5243148567
 51
91.4759896911
  0
LINE
  5
248
330
1F
100
AcDbEntity
  8
0
  6
Continuous
 62
     7
370
    25
100
AcDbLine
 10
1724.8759210181
 20
1243.5038873431
 30
0.0
 11
1733.0
 21
1243.5038873431
 31
0.0
  0
LINE
  5
249
330
1F
100
AcDbEntity
  8
0
  6
Continuous
 62
     7
370
    25
100
AcDbLine
 10
1724.8759210181
 20
1708.2961126569
 30
0.0
 11
1724.8759210181
 21
1243.5038873431
 31
0.0
  0
LINE
  5
24A
330
1F
100
AcDbEntity
  8
0
  6
Continuous
 62
     7
370
    25
100
AcDbLine
 10
1733.0
 20
1708.2961126569
 30
0.0
 11
1724.8759210181
 21
1708.2961126569
 31
0.0
  0
SPLINE
  5
24B
330
1F
100
AcDbEntity
  8
0
  6
Continuous
 62
     7
370
    25
100
AcDbSpline
210
0.0
220
0.0
230
1.0
 70
     8
 71
     3
 72
    15
 73
    11
 74
     0
 42
0.000000001
 43
0.00000001
 40
0.0
 40
0.0
 40
0.0
 40
0.0
 40
0.1361160123565957
 40
0.272232024713226
 40
0.4083480370698647
 40
0.5444640494265041
 40
0.6805800617831376
 40
0.8166960741397804
 40
0.9528120864963925
 40
1.0
 40
1.0
 40
1.0
 40
1.0
 10
1733.0
 20
1708.296112656885
 30
0.0
 10
1733.17816901831
 20
1708.294193201142
 30
0.0
 10
1733.534507054928
 20
1708.290354289656
 30
0.0
 10
1734.044636862636
 20
1708.284595922427
 30
0.0
 10
1734.507344134374
 20
1708.278837555197
 30
0.0
 10
1734.900855608428
 20
1708.273079187968
 30
0.0
 10
1735.209877135255
 20
1708.267320820739
 30
0.0
 10
1735.410537186167
 20
1708.261562453509
 30
0.0
 10
1735.504195267594
 20
1708.257058116185
 30
0.0
 10
1735.490579316377
 20
1708.254473234604
 30
0.0
 10
1735.487074163253
 20
1708.253807808767
 30
0.0
  0
SPLINE
  5
24C
330
1F
100
AcDbEntity
  8
0
  6
Continuous
 62
     7
370
    25
100
AcDbSpline
210
0.0
220
0.0
230
1.0
 70
     8
 71
     3
 72
    15
 73
    11
 74
     0
 42
0.000000001
 43
0.00000001
 40
0.0
 40
0.0
 40
0.0
 40
0.0
 40
0.0471879135035814
 40
0.183303925860228
 40
0.3194199382168456
 40
0.4555359505734543
 40
0.5916519629300897
 40
0.7277679752867227
 40
0.8638839876433414
 40
1.0
 40
1.0
 40
1.0
 40
1.0
 10
1735.487074163253
 20
1243.546192191236
 30
0.0
 10
1735.490579316377
 20
1243.545526765398
 30
0.0
 10
1735.504195267594
 20
1243.542941883817
 30
0.0
 10
1735.410537186167
 20
1243.538437546493
 30
0.0
 10
1735.209877135255
 20
1243.532679179264
 30
0.0
 10
1734.900855608429
 20
1243.526920812035
 30
0.0
 10
1734.507344134375
 20
1243.521162444805
 30
0.0
 10
1734.044636862636
 20
1243.515404077576
 30
0.0
 10
1733.534507054928
 20
1243.509645710347
 30
0.0
 10
1733.17816901831
 20
1243.505806798861
 30
0.0
 10
1733.0
 20
1243.503887343118
 30
0.0
  0
LINE
  5
24D
330
1F
100
AcDbEntity
  8
0
  6
Continuous
 62
     7
370
    25
100
AcDbLine
 10
1724.3759210181
 20
1241.9004569493
 30
0.0
 11
1732.4212097842
 21
1241.9004569493
 31
0.0
  0
LINE
  5
24E
330
1F
100
AcDbEntity
  8
0
  6
Continuous
 62
     7
370
    25
100
AcDbLine
 10
1724.3759210181
 20
1243.4002284921
 30
0.0
 11
1724.3759210181
 21
1241.9004569493
 31
0.0
  0
ARC
  5
24F
330
1F
100
AcDbEntity
  8
0
  6
Continuous
 62
     7
370
    25
100
AcDbCircle
 10
1733.1631592003
 20
1285.3619398366
 30
0.0
 40
43.46781549254919
100
AcDbArc
 50
269.0219744385
 51
272.9777210136
  0
LINE
  5
250
330
1F
100
AcDbEntity
  8
0
  6
Continuous
 62
     7
370
    25
100
AcDbLine
 10
949.3759210181
 20
1244.7440488825
 30
0.0
 11
948.8759210181
 21
1244.6819492622
 31
0.0
  0
LINE
  5
251
330
1F
100
AcDbEntity
  8
0
  6
Continuous
 62
     7
370
    25
100
AcDbLine
 10
948.8759210181
 20
1707.1180507378
 30
0.0
 11
949.3759210181
 21
1707.0559511175
 31
0.0
  0
LINE
  5
252
330
1F
100
AcDbEntity
  8
0
  6
Continuous
 62
     7
370
    25
100
AcDbLine
 10
1736.5
 20
1240.9
 30
0.0
 11
936.5
 21
1240.9
 31
0.0
  0
LINE
  5
253
330
1F
100
AcDbEntity
  8
0
  6
Continuous
 62
     7
370
    25
100
AcDbLine
 10
1736.5
 20
1234.9
 30
0.0
 11
936.5
 21
1234.9
 31
0.0
  0
LINE
  5
254
330
1F
100
AcDbEntity
  8
0
  6
Continuous
 62
     7
370
    25
100
AcDbLine
 10
936.5
 20
1234.9
 30
0.0
 11
936.5
 21
1240.9
 31
0.0
  0
LINE
  5
255
330
1F
100
AcDbEntity
  8
0
  6
Continuous
 62
     7
370
    25
100
AcDbLine
 10
1736.5
 20
1234.9
 30
0.0
 11
1736.5
 21
1240.9
 31
0.0
  0
LINE
  5
256
330
1F
100
AcDbEntity
  8
0
  6
Continuous
 62
     7
370
    25
100
AcDbLine
 10
936.5
 20
1710.9
 30
0.0
 11
1736.5
 21
1710.9
 31
0.0
  0
LINE
  5
257
330
1F
100
AcDbEntity
  8
0
  6
Continuous
 62
     7
370
    25
100
AcDbLine
 10
936.5
 20
1716.9
 30
0.0
 11
936.5
 21
1710.9
 31
0.0
  0
LINE
  5
258
330
1F
100
AcDbEntity
  8
0
  6
Continuous
 62
     7
370
    25
100
AcDbLine
 10
936.5
 20
1716.9
 30
0.0
 11
1736.5
 21
1716.9
 31
0.0
  0
LINE
  5
259
330
1F
100
AcDbEntity
  8
0
  6
Continuous
 62
     7
370
    25
100
AcDbLine
 10
1736.5
 20
1716.9
 30
0.0
 11
1736.5
 21
1710.9
 31
0.0
  0
LINE
  5
25A
330
1F
100
AcDbEntity
  8
0
  6
Continuous
 62
     7
370
    25
100
AcDbLine
 10
936.5
 20
1240.9
 30
0.0
 11
936.5
 21
1710.9
 31
0.0
  0
LINE
  5
25B
330
1F
100
AcDbEntity
  8
0
  6
Continuous
 62
     7
370
    25
100
AcDbLine
 10
936.5
 20
1234.9
 30
0.0
 11
930.5
 21
1234.9
 31
0.0
  0
LINE
  5
25C
330
1F
100
AcDbEntity
  8
0
  6
Continuous
 62
     7
370
    25
100
AcDbLine
 10
930.5
 20
1234.9
 30
0.0
 11
930.5
 21
1716.9
 31
0.0
  0
LINE
  5
25D
330
1F
100
AcDbEntity
  8
0
  6
Continuous
 62
     7
370
    25
100
AcDbLine
 10
936.5
 20
1716.9
 30
0.0
 11
930.5
 21
1716.9
 31
0.0
  0
LINE
  5
25E
330
1F
100
AcDbEntity
  8
0
  6
Continuous
 62
     7
370
    25
100
AcDbLine
 10
936.5
 20
1265.9
 30
0.0
 11
938.2518420361
 21
1265.9
 31
0.0
  0
LINE
  5
25F
330
1F
100
AcDbEntity
  8
0
  6
Continuous
 62
     7
370
    25
100
AcDbLine
 10
936.5
 20
1685.9
 30
0.0
 11
938.2518420361
 21
1685.9
 31
0.0
  0
LINE
  5
260
330
1F
100
AcDbEntity
  8
0
  6
Continuous
 62
     7
370
    25
100
AcDbLine
 10
1736.5
 20
1710.9
 30
0.0
 11
1736.5
 21
1240.9
 31
0.0
  0
LINE
  5
261
330
1F
100
AcDbEntity
  8
0
  6
Continuous
 62
     7
370
    25
100
AcDbLine
 10
1736.5
 20
1716.9
 30
0.0
 11
1742.5
 21
1716.9
 31
0.0
  0
LINE
  5
262
330
1F
100
AcDbEntity
  8
0
  6
Continuous
 62
     7
370
    25
100
AcDbLine
 10
1742.5
 20
1716.9
 30
0.0
 11
1742.5
 21
1234.9
 31
0.0
  0
LINE
  5
263
330
1F
100
AcDbEntity
  8
0
  6
Continuous
 62
     7
370
    25
100
AcDbLine
 10
1736.5
 20
1234.9
 30
0.0
 11
1742.5
 21
1234.9
 31
0.0
  0
LINE
  5
264
330
1F
100
AcDbEntity
  8
0
  6
Continuous
 62
     7
370
    25
100
AcDbLine
 10
1736.5
 20
1265.9
 30
0.0
 11
1735.5
 21
1265.9
 31
0.0
  0
LINE
  5
265
330
1F
100
AcDbEntity
  8
0
  6
Continuous
 62
     7
370
    25
100
AcDbLine
 10
1736.5
 20
1685.9
 30
0.0
 11
1735.5
 21
1685.9
 31
0.0
  0
LINE
  5
266
330
1F
100
AcDbEntity
  8
0
  6
PHANTOM
 62
     1
370
    18
100
AcDbLine
 10
958.4681752921
 20
1306.9
 30
0.0
 11
958.4681752921
 21
1306.8960516089
 31
0.0
  0
LINE
  5
267
330
1F
100
AcDbEntity
  8
0
  6
PHANTOM
 62
     1
370
    18
100
AcDbLine
 10
962.429247567
 20
1678.2297518576
 30
0.0
 11
962.429247567
 21
1670.5781449246
 31
0.0
  0
LINE
  5
268
330
1F
100
AcDbEntity
  8
0
  6
PHANTOM
 62
     1
370
    18
100
AcDbLine
 10
962.429247567
 20
1306.9
 30
0.0
 11
962.429247567
 21
1306.8960516089
 31
0.0
  0
LINE
  5
269
330
1F
100
AcDbEntity
  8
0
  6
PHANTOM
 62
     1
370
    18
100
AcDbLine
 10
962.429247567
 20
1281.2218550753
 30
0.0
 11
962.429247567
 21
1273.5702481424
 31
0.0
  0
CIRCLE
  5
26A
330
1F
100
AcDbEntity
  8
0
  6
PHANTOM
 62
     1
370
    18
100
AcDbCircle
 10
1012.2759210181
 20
1284.4
 30
0.0
 40
14.00000000000008
  0
CIRCLE
  5
26B
330
1F
100
AcDbEntity
  8
0
  6
PHANTOM
 62
     1
370
    18
100
AcDbCircle
 10
1012.2759210181
 20
1667.4
 30
0.0
 40
14.00000000000008
  0
CIRCLE
  5
26C
330
1F
100
AcDbEntity
  8
0
  6
PHANTOM
 62
     1
370
    18
100
AcDbCircle
 10
1661.4759210181
 20
1284.4
 30
0.0
 40
14.00000000000002
  0
CIRCLE
  5
26D
330
1F
100
AcDbEntity
  8
0
  6
PHANTOM
 62
     1
370
    18
100
AcDbCircle
 10
1661.4759210181
 20
1667.4
 30
0.0
 40
13.99999999999985
  0
LINE
  5
26E
330
1F
100
AcDbEntity
  8
0
  6
PHANTOM
 62
     1
370
    18
100
AcDbLine
 10
940.7518420361
 20
1243.5038873431
 30
0.0
 11
940.7518420361
 21
1708.2961126569
 31
0.0
  0
LINE
  5
26F
330
1F
100
AcDbEntity
  8
0
  6
PHANTOM
 62
     1
370
    18
100
AcDbLine
 10
941.3306322519
 20
1709.8995430507
 30
0.0
 11
941.3306322519
 21
1708.3997715079
 31
0.0
  0
LINE
  5
270
330
1F
100
AcDbEntity
  8
0
  6
PHANTOM
 62
     1
370
    18
100
AcDbLine
 10
1724.3759210181
 20
1707.3559815176
 30
0.0
 11
949.3759210181
 21
1707.3559815176
 31
0.0
  0
LINE
  5
271
330
1F
100
AcDbEntity
  8
0
  6
PHANTOM
 62
     1
370
    18
100
AcDbLine
 10
941.3306322519
 20
1243.4002284921
 30
0.0
 11
941.3306322519
 21
1241.9004569493
 31
0.0
  0
LINE
  5
272
330
1F
100
AcDbEntity
  8
0
  6
PHANTOM
 62
     1
370
    18
100
AcDbLine
 10
949.3759210181
 20
1244.4440184824
 30
0.0
 11
1724.3759210181
 21
1244.4440184824
 31
0.0
  0
LINE
  5
273
330
1F
100
AcDbEntity
  8
0
  6
PHANTOM
 62
     1
370
    18
100
AcDbLine
 10
1732.4212097842
 20
1708.3997715079
 30
0.0
 11
1732.4212097842
 21
1709.8995430507
 31
0.0
  0
LINE
  5
274
330
1F
100
AcDbEntity
  8
0
  6
PHANTOM
 62
     1
370
    18
100
AcDbLine
 10
1733.0
 20
1708.2961126569
 30
0.0
 11
1733.0
 21
1243.5038873431
 31
0.0
  0
LINE
  5
275
330
1F
100
AcDbEntity
  8
0
  6
PHANTOM
 62
     1
370
    18
100
AcDbLine
 10
1732.4212097842
 20
1241.9004569493
 30
0.0
 11
1732.4212097842
 21
1243.4002284921
 31
0.0
  0
LINE
  5
276
330
1F
100
AcDbEntity
  8
0
  6
PHANTOM
 62
     1
370
    18
100
AcDbLine
 10
1736.5
 20
1242.9
 30
0.0
 11
1735.4212097842
 21
1242.9
 31
0.0
  0
LINE
  5
277
330
1F
100
AcDbEntity
  8
0
  6
PHANTOM
 62
     1
370
    18
100
AcDbLine
 10
938.3306322519
 20
1242.9
 30
0.0
 11
936.5
 21
1242.9
 31
0.0
  0
LINE
  5
278
330
1F
100
AcDbEntity
  8
0
  6
PHANTOM
 62
     1
370
    18
100
AcDbLine
 10
1736.5
 20
1261.9
 30
0.0
 11
1735.5
 21
1261.9
 31
0.0
  0
LINE
  5
279
330
1F
100
AcDbEntity
  8
0
  6
PHANTOM
 62
     1
370
    18
100
AcDbLine
 10
938.2518420361
 20
1261.9
 30
0.0
 11
936.5
 21
1261.9
 31
0.0
  0
LINE
  5
27A
330
1F
100
AcDbEntity
  8
0
  6
PHANTOM
 62
     1
370
    18
100
AcDbLine
 10
936.5
 20
1708.9
 30
0.0
 11
938.3306322519
 21
1708.9
 31
0.0
  0
LINE
  5
27B
330
1F
100
AcDbEntity
  8
0
  6
PHANTOM
 62
     1
370
    18
100
AcDbLine
 10
1735.4212097842
 20
1708.9
 30
0.0
 11
1736.5
 21
1708.9
 31
0.0
  0
LINE
  5
27C
330
1F
100
AcDbEntity
  8
0
  6
PHANTOM
 62
     1
370
    18
100
AcDbLine
 10
936.5
 20
1689.9
 30
0.0
 11
938.2518420361
 21
1689.9
 31
0.0
  0
LINE
  5
27D
330
1F
100
AcDbEntity
  8
0
  6
PHANTOM
 62
     1
370
    18
100
AcDbLine
 10
1735.5
 20
1689.9
 30
0.0
 11
1736.5
 21
1689.9
 31
0.0
  0
LINE
  5
27E
330
1F
100
AcDbEntity
  8
0
  6
Continuous
 62
     7
370
    25
100
AcDbLine
 10
3656.5
 20
3557.4
 30
0.0
 11
3174.5
 21
3557.4
 31
0.0
  0
LINE
  5
27F
330
1F
100
AcDbEntity
  8
0
  6
Continuous
 62
     7
370
    25
100
AcDbLine
 10
3145.5
 20
2844.4
 30
0.0
 11
3145.5
 21
2754.4
 31
0.0
  0
LINE
  5
280
330
1F
100
AcDbEntity
  8
0
  6
Continuous
 62
     7
370
    25
100
AcDbLine
 10
3685.5
 20
2844.4
 30
0.0
 11
3685.5
 21
2754.4
 31
0.0
  0
LINE
  5
281
330
1F
100
AcDbEntity
  8
0
  6
Continuous
 62
     7
370
    25
100
AcDbLine
 10
3145.5
 20
2754.4
 30
0.0
 11
3685.5
 21
2754.4
 31
0.0
  0
LINE
  5
282
330
1F
100
AcDbEntity
  8
0
  6
Continuous
 62
     7
370
    25
100
AcDbLine
 10
3145.5
 20
2844.4
 30
0.0
 11
3685.5
 21
2844.4
 31
0.0
  0
LINE
  5
283
330
1F
100
AcDbEntity
  8
0
  6
Continuous
 62
     7
370
    25
100
AcDbLine
 10
3190.5
 20
3164.4
 30
0.0
 11
3640.5
 21
3164.4
 31
0.0
  0
LINE
  5
284
330
1F
100
AcDbEntity
  8
0
  6
Continuous
 62
     7
370
    25
100
AcDbLine
 10
3185.5
 20
2844.4
 30
0.0
 11
3190.5
 21
3164.4
 31
0.0
  0
LINE
  5
285
330
1F
100
AcDbEntity
  8
0
  6
Continuous
 62
     7
370
    25
100
AcDbLine
 10
3145.5
 20
3264.4
 30
0.0
 11
3145.5
 21
2844.4
 31
0.0
  0
LINE
  5
286
330
1F
100
AcDbEntity
  8
0
  6
Continuous
 62
     7
370
    25
100
AcDbLine
 10
3145.5
 20
3264.4
 30
0.0
 11
3685.5
 21
3264.4
 31
0.0
  0
LINE
  5
287
330
1F
100
AcDbEntity
  8
0
  6
Continuous
 62
     7
370
    25
100
AcDbLine
 10
3685.5
 20
3264.4
 30
0.0
 11
3685.5
 21
2844.4
 31
0.0
  0
LINE
  5
288
330
1F
100
AcDbEntity
  8
0
  6
Continuous
 62
     7
370
    25
100
AcDbLine
 10
3645.5
 20
2844.4
 30
0.0
 11
3685.5
 21
2844.4
 31
0.0
  0
LINE
  5
289
330
1F
100
AcDbEntity
  8
0
  6
Continuous
 62
     7
370
    25
100
AcDbLine
 10
3640.5
 20
3164.4
 30
0.0
 11
3645.5
 21
2844.4
 31
0.0
  0
LINE
  5
28A
330
1F
100
AcDbEntity
  8
0
  6
Continuous
 62
     7
370
    25
100
AcDbLine
 10
3145.5
 20
2844.4
 30
0.0
 11
3185.5
 21
2844.4
 31
0.0
  0
LINE
  5
28B
330
1F
100
AcDbEntity
  8
0
  6
Continuous
 62
     7
370
    25
100
AcDbLine
 10
3213.693496892
 20
3114.4
 30
0.0
 11
3617.306503108
 21
3114.4
 31
0.0
  0
LINE
  5
28C
330
1F
100
AcDbEntity
  8
0
  6
Continuous
 62
     7
370
    25
100
AcDbLine
 10
3210.4417912975
 20
2844.4
 30
0.0
 11
3213.693496892
 21
3114.4
 31
0.0
  0
LINE
  5
28D
330
1F
100
AcDbEntity
  8
0
  6
Continuous
 62
     7
370
    25
100
AcDbLine
 10
3617.306503108
 20
3114.4
 30
0.0
 11
3620.5582087025
 21
2844.4
 31
0.0
  0
LINE
  5
28E
330
1F
100
AcDbEntity
  8
0
  6
Continuous
 62
     7
370
    25
100
AcDbLine
 10
3731.4220089385
 20
3414.4
 30
0.0
 11
3099.5779910615
 21
3414.4
 31
0.0
  0
LINE
  5
28F
330
1F
100
AcDbEntity
  8
0
  6
Continuous
 62
     7
370
    25
100
AcDbLine
 10
3736.5
 20
3511.2938415433
 30
0.0
 11
3094.5
 21
3511.2938415433
 31
0.0
  0
LINE
  5
290
330
1F
100
AcDbEntity
  8
0
  6
Continuous
 62
     7
370
    25
100
AcDbLine
 10
3736.5
 20
3511.2938415433
 30
0.0
 11
3731.4220089385
 21
3414.4
 31
0.0
  0
LINE
  5
291
330
1F
100
AcDbEntity
  8
0
  6
Continuous
 62
     7
370
    25
100
AcDbLine
 10
3099.5779910615
 20
3414.4
 30
0.0
 11
3094.5
 21
3511.2938415433
 31
0.0
  0
LINE
  5
292
330
1F
100
AcDbEntity
  8
0
  6
Continuous
 62
     7
370
    25
100
AcDbLine
 10
3656.5
 20
3525.4
 30
0.0
 11
3174.5
 21
3525.4
 31
0.0
  0
LINE
  5
293
330
1F
100
AcDbEntity
  8
0
  6
Continuous
 62
     7
370
    25
100
AcDbLine
 10
3656.5
 20
3525.4
 30
0.0
 11
3736.5
 21
3511.2938415433
 31
0.0
  0
LINE
  5
294
330
1F
100
AcDbEntity
  8
0
  6
Continuous
 62
     7
370
    25
100
AcDbLine
 10
3094.5
 20
3511.2938415433
 30
0.0
 11
3174.5
 21
3525.4
 31
0.0
  0
LINE
  5
295
330
1F
100
AcDbEntity
  8
0
  6
Continuous
 62
     7
370
    25
100
AcDbLine
 10
3656.5
 20
3554.4
 30
0.0
 11
3656.5
 21
3525.4
 31
0.0
  0
CIRCLE
  5
296
330
1F
100
AcDbEntity
  8
0
  6
Continuous
 62
     7
370
    25
100
AcDbCircle
 10
3622.5
 20
3532.4
 30
0.0
 40
4.999999999999545
  0
CIRCLE
  5
297
330
1F
100
AcDbEntity
  8
0
  6
Continuous
 62
     7
370
    25
100
AcDbCircle
 10
3208.5
 20
3532.4
 30
0.0
 40
4.999999999999545
  0
LINE
  5
298
330
1F
100
AcDbEntity
  8
0
  6
Continuous
 62
     7
370
    25
100
AcDbLine
 10
3174.5
 20
3554.4
 30
0.0
 11
3174.5
 21
3525.4
 31
0.0
  0
LINE
  5
299
330
1F
100
AcDbEntity
  8
0
  6
Continuous
 62
     7
370
    25
100
AcDbLine
 10
3656.5
 20
3557.4
 30
0.0
 11
3656.5
 21
3554.4
 31
0.0
  0
LINE
  5
29A
330
1F
100
AcDbEntity
  8
0
  6
Continuous
 62
     7
370
    25
100
AcDbLine
 10
3174.5
 20
3557.4
 30
0.0
 11
3174.5
 21
3554.4
 31
0.0
  0
LINE
  5
29B
330
1F
100
AcDbEntity
  8
0
  6
Continuous
 62
     7
370
    25
100
AcDbLine
 10
3685.5
 20
3414.4
 30
0.0
 11
3685.5
 21
3264.4
 31
0.0
  0
LINE
  5
29C
330
1F
100
AcDbEntity
  8
0
  6
Continuous
 62
     7
370
    25
100
AcDbLine
 10
3145.5
 20
3414.4
 30
0.0
 11
3145.5
 21
3264.4
 31
0.0
  0
LINE
  5
29D
330
1F
100
AcDbEntity
  8
0
  6
PHANTOM
 62
     1
370
    18
100
AcDbLine
 10
3656.5
 20
3554.4
 30
0.0
 11
3174.5
 21
3554.4
 31
0.0
  0
OLE2FRAME
  5
29E
330
1F
100
AcDbEntity
  8
0
100
AcDbOle2Frame
 70
     2
  3
Paintbrush-Bild
 10
3955.2844245254
 20
242.0136908718
 30
0.0
 11
4607.9619938761
 21
116.498773689
 31
0.0
 71
     2
 72
     0
 73
     1
 90
    25728
310
80553F6517A091E6AE40EFD5D62770406E400000000000000000A20C3B45F6FF
310
B140EFD5D62770406E400000000000000000A20C3B45F6FFB14015937AE8EB1F
310
5D4000000000000000003F6517A091E6AE4015937AE8EB1F5D40000000000000
310
0000000000000100000000010000010000000100000000000100000000640000
310
D0CF11E0A1B11AE1000000000000000000000000000000003E000300FEFF0900
310
0600000000000000000000000100000001000000000000000010000002000000
310
01000000FEFFFFFF0000000000000000FFFFFFFFFFFFFFFFFFFFFFFFFFFFFFFF
310
FFFFFFFFFFFFFFFFFFFFFFFFFFFFFFFFFFFFFFFFFFFFFFFFFFFFFFFFFFFFFFFF
310
FFFFFFFFFFFFFFFFFFFFFFFFFFFFFFFFFFFFFFFFFFFFFFFFFFFFFFFFFFFFFFFF
310
FFFFFFFFFFFFFFFFFFFFFFFFFFFFFFFFFFFFFFFFFFFFFFFFFFFFFFFFFFFFFFFF
310
FFFFFFFFFFFFFFFFFFFFFFFFFFFFFFFFFFFFFFFFFFFFFFFFFFFFFFFFFFFFFFFF
310
FFFFFFFFFFFFFFFFFFFFFFFFFFFFFFFFFFFFFFFFFFFFFFFFFFFFFFFFFFFFFFFF
310
FFFFFFFFFFFFFFFFFFFFFFFFFFFFFFFFFFFFFFFFFFFFFFFFFFFFFFFFFFFFFFFF
310
FFFFFFFFFFFFFFFFFFFFFFFFFFFFFFFFFFFFFFFFFFFFFFFFFFFFFFFFFFFFFFFF
310
FFFFFFFFFFFFFFFFFFFFFFFFFFFFFFFFFFFFFFFFFFFFFFFFFFFFFFFFFFFFFFFF
310
FFFFFFFFFFFFFFFFFFFFFFFFFFFFFFFFFFFFFFFFFFFFFFFFFFFFFFFFFFFFFFFF
310
FFFFFFFFFFFFFFFFFFFFFFFFFFFFFFFFFFFFFFFFFFFFFFFFFFFFFFFFFFFFFFFF
310
FFFFFFFFFFFFFFFFFFFFFFFFFFFFFFFFFFFFFFFFFFFFFFFFFFFFFFFFFFFFFFFF
310
FFFFFFFFFFFFFFFFFFFFFFFFFFFFFFFFFFFFFFFFFFFFFFFFFFFFFFFFFFFFFFFF
310
FFFFFFFFFFFFFFFFFFFFFFFFFFFFFFFFFFFFFFFFFFFFFFFFFFFFFFFFFFFFFFFF
310
FDFFFFFF30000000FEFFFFFFFEFFFFFF05000000060000000700000008000000
310
090000000A0000000B0000000C0000000D0000000E0000000F00000010000000
310
1100000012000000130000001400000015000000160000001700000018000000
310
190000001A0000001B0000001C0000001D0000001E0000001F00000020000000
310
2100000022000000230000002400000025000000260000002700000028000000
310
290000002A0000002B0000002C0000002D0000002E0000002F000000FEFFFFFF
310
FEFFFFFFFFFFFFFFFFFFFFFFFFFFFFFFFFFFFFFFFFFFFFFFFFFFFFFFFFFFFFFF
310
FFFFFFFFFFFFFFFFFFFFFFFFFFFFFFFFFFFFFFFFFFFFFFFFFFFFFFFFFFFFFFFF
310
FFFFFFFFFFFFFFFFFFFFFFFFFFFFFFFFFFFFFFFFFFFFFFFFFFFFFFFFFFFFFFFF
310
FFFFFFFFFFFFFFFFFFFFFFFFFFFFFFFFFFFFFFFFFFFFFFFFFFFFFFFFFFFFFFFF
310
FFFFFFFFFFFFFFFFFFFFFFFFFFFFFFFFFFFFFFFFFFFFFFFFFFFFFFFFFFFFFFFF
310
FFFFFFFFFFFFFFFFFFFFFFFFFFFFFFFFFFFFFFFFFFFFFFFFFFFFFFFFFFFFFFFF
310
FFFFFFFFFFFFFFFFFFFFFFFFFFFFFFFFFFFFFFFFFFFFFFFFFFFFFFFFFFFFFFFF
310
FFFFFFFFFFFFFFFFFFFFFFFFFFFFFFFFFFFFFFFFFFFFFFFFFFFFFFFFFFFFFFFF
310
FFFFFFFFFFFFFFFFFFFFFFFFFFFFFFFFFFFFFFFFFFFFFFFFFFFFFFFFFFFFFFFF
310
FFFFFFFFFFFFFFFFFFFFFFFFFFFFFFFFFFFFFFFFFFFFFFFFFFFFFFFFFFFFFFFF
310
52006F006F007400200045006E00740072007900000000000000000000000000
310
0000000000000000000000000000000000000000000000000000000000000000
310
16000500FFFFFFFFFFFFFFFF020000000A00030000000000C000000000000046
310
00000000000000000000000040180B13B996D801030000000001000000000000
310
01004F006C006500000000000000000000000000000000000000000000000000
310
0000000000000000000000000000000000000000000000000000000000000000
310
0A000201FFFFFFFFFFFFFFFFFFFFFFFF00000000000000000000000000000000
310
0000000000000000000000000000000000000000000000001400000000000000
310
010043006F006D0070004F0062006A0000000000000000000000000000000000
310
0000000000000000000000000000000000000000000000000000000000000000
310
120002010100000003000000FFFFFFFF00000000000000000000000000000000
310
0000000000000000000000000000000000000000010000004D00000000000000
310
01004F006C006500310030004E00610074006900760065000000000000000000
310
0000000000000000000000000000000000000000000000000000000000000000
310
1A000201FFFFFFFF04000000FFFFFFFF00000000000000000000000000000000
310
0000000000000000000000000000000000000000040000006456000000000000
310
FEFFFFFF02000000FEFFFFFFFEFFFFFFFFFFFFFFFFFFFFFFFFFFFFFFFFFFFFFF
310
FFFFFFFFFFFFFFFFFFFFFFFFFFFFFFFFFFFFFFFFFFFFFFFFFFFFFFFFFFFFFFFF
310
FFFFFFFFFFFFFFFFFFFFFFFFFFFFFFFFFFFFFFFFFFFFFFFFFFFFFFFFFFFFFFFF
310
FFFFFFFFFFFFFFFFFFFFFFFFFFFFFFFFFFFFFFFFFFFFFFFFFFFFFFFFFFFFFFFF
310
FFFFFFFFFFFFFFFFFFFFFFFFFFFFFFFFFFFFFFFFFFFFFFFFFFFFFFFFFFFFFFFF
310
FFFFFFFFFFFFFFFFFFFFFFFFFFFFFFFFFFFFFFFFFFFFFFFFFFFFFFFFFFFFFFFF
310
FFFFFFFFFFFFFFFFFFFFFFFFFFFFFFFFFFFFFFFFFFFFFFFFFFFFFFFFFFFFFFFF
310
FFFFFFFFFFFFFFFFFFFFFFFFFFFFFFFFFFFFFFFFFFFFFFFFFFFFFFFFFFFFFFFF
310
FFFFFFFFFFFFFFFFFFFFFFFFFFFFFFFFFFFFFFFFFFFFFFFFFFFFFFFFFFFFFFFF
310
FFFFFFFFFFFFFFFFFFFFFFFFFFFFFFFFFFFFFFFFFFFFFFFFFFFFFFFFFFFFFFFF
310
FFFFFFFFFFFFFFFFFFFFFFFFFFFFFFFFFFFFFFFFFFFFFFFFFFFFFFFFFFFFFFFF
310
FFFFFFFFFFFFFFFFFFFFFFFFFFFFFFFFFFFFFFFFFFFFFFFFFFFFFFFFFFFFFFFF
310
FFFFFFFFFFFFFFFFFFFFFFFFFFFFFFFFFFFFFFFFFFFFFFFFFFFFFFFFFFFFFFFF
310
FFFFFFFFFFFFFFFFFFFFFFFFFFFFFFFFFFFFFFFFFFFFFFFFFFFFFFFFFFFFFFFF
310
FFFFFFFFFFFFFFFFFFFFFFFFFFFFFFFFFFFFFFFFFFFFFFFFFFFFFFFFFFFFFFFF
310
FFFFFFFFFFFFFFFFFFFFFFFFFFFFFFFFFFFFFFFFFFFFFFFFFFFFFFFFFFFFFFFF
310
0100000200000000000000000000000000000000000000000000000000000000
310
0000000000000000000000000000000000000000000000000000000000000000
310
0100FEFF030A0000FFFFFFFF0A00030000000000C00000000000004607000000
310
5042727573680007000000504272757368000700000050427275736800F439B2
310
7100000000000000000000000000000000000000000000000000000000000000
310
0000000000000000000000000000000000000000000000000000000000000000
310
0100000034000000000000000000000000000000000000000000000000000000
310
0000000000000000000000000000000000000000000000000000000000000000
310
0000000000000000000000000000000000000000000000000000000000000000
310
0000000000000000000000000000000000000000000000000000000000000000
310
0000000000000000000000000000000000000000000000000000000000000000
310
0000000000000000000000000000000000000000000000000000000000000000
310
0000000000000000000000000000000000000000000000000000000000000000
310
0000000000000000000000000000000000000000000000000000000000000000
310
0000000000000000000000000000000000000000000000000000000000000000
310
0000000000000000000000000000000000000000000000000000000000000000
310
60560000424D4E560000000000003600000028000000C1000000260000000100
310
1800000000001856000000000000000000000000000000000000FEFEFEFEFEFE
310
FEFEFEFEFEFEFEFEFEFEFEFEFEFEFEFEFEFEFEFEFEFEFEFEFEFEFEFEFEFEFEFE
310
FEFEFEFEFEFEFEFEFEFEFEFEFEFEFEFEFEFEFEFEFEFEFEFEFEFEFEFEFEFEFEFE
310
FEFEFEFEFEFEFEFEFEFEFEFEFEFEFEFEFEFEFEFEFEFEFEFCFCFCFFFFFFF6F6F6
310
FFFFFFFAFAFAFFFFFFF3F3F3FFFFFFFDFDFDFFFFFFFFFFFFF9F9F9FFFFFFFFFF
310
FFFFFFFFFFFFFFFFFFFFFFFFFFFFFFFFFFFFFFF1F1F1FFFFFFFDFDFDF9F9F9F7
310
F7F7FFFFFFF2F2F2FDFDFDF0F0F0FFFFFFFFFFFFFFFFFFECECECFFFFFFFCFCFC
310
FFFFFFFFFFFFFFFFFFFAFAFAFFFFFFFFFFFFF3F3F3FFFFFFFFFFFFFFFFFFEDED
310
EDF4F4F4FFFFFFFFFFFFFFFFFFEDEDEDF4F4F4FFFFFFFFFFFFF4F4F4FCFCFCFF
310
FFFFEAEAEAFFFFFFE8E8E8FBFBFBFCFCFCFBFBFBFFFFFFF9F9F9FDFDFDFFFFFF
310
FFFFFFF2F2F2FFFFFFFFFFFFFEFEFEFCFCFCFFFFFFF4F4F4FFFFFFFFFFFFF7F7
310
F7FFFFFFF9F9F9FFFFFFFAFAFAFAFAFAFCFCFCFFFFFFFFFFFFFFFFFFFFFFFFFF
310
FFFFE9E9E9FFFFFFF6F6F6F7F7F7FFFFFFF8F8F8FFFFFF8B8B8B484848EEEEEE
310
FFFFFFFFFFFFFFFFFFFFFFFFF2F2F2FFFFFFFFFFFFECECECFFFFFFFAFAFAF7F7
310
F7FFFFFFE6E6E6FFFFFFF9F9F9FBFBFBFEFEFEECECECFFFFFFFFFFFFFAFAFAF7
310
F7F7FDFDFDFBFBFBFFFFFFF2F2F2F7F7F7FFFFFFFFFFFFFCFCFCFFFFFFFFFFFF
310
FFFFFFFFFFFFF6F6F6F7F7F7FFFFFFFEFEFEFEFEFEFEFEFEFEFEFEFEFEFEFEFE
310
FEFEFEFEFEFEFEFEFEFEFEFEFEFEFEFEFEFEFEFEFEFEFEFEFEFEFEFEFEFEFEFE
310
FEFEFEFEFEFEFEFEFEFEFEFEFEFEFEFEFEFEFEFEFEFEFEFEFEFEFEFEFE00FEFE
310
FEFEFEFEFEFEFEFEFEFEFEFEFEFEFEFEFEFEFEFEFEFEFEFEFEFEFEFEFEFEFEFE
310
FEFEFEFEFEFEFEFEFEFEFEFEFEFEFEFEFEFEFEFEFEFEFEFEFEFEFEFEFEFEFEFE
310
FEFEFEFEFEFEFEFEFEFEFEFEFEFEFEFEFEFEFEFEFEFEFEFEFEFEFED5D5D5E4E4
310
E4FFFFFFDADADAE9E9E9FFFFFFD6D6D6D4D4D4FFFFFFE1E1E1D9D9D9FFFFFFE6
310
E6E6D0D0D0FFFFFFF3F3F3CBCBCB969696A4A4A4EAEAEAFFFFFFFFFFFFE5E5E5
310
CACACAFFFFFFE1E1E1FFFFFFE9E9E9929292D8D8D8BCBCBCEBEBEBFFFFFFDCDC
310
DCC6C6C6E8E8E8D5D5D5DBDBDBF9F9F9F5F5F5E6E6E6D2D2D2FFFFFFFFFFFFEA
310
EAEAFFFFFFA8A8A8979797E5E5E5FCFCFCFFFFFFFFFFFFE4E4E4FFFFFFD2D2D2
310
8C8C8C7F7F7FD7D7D7FFFFFFFDFDFDFFFFFF9D9D9DC2C2C2F4F4F4F0F0F0D4D4
310
D4FFFFFFF0F0F0CACACAFFFFFFD9D9D9CFCFCF979797CECECEC4C4C4FFFFFFFF
310
FFFFC0C0C08F8F8FD4D4D4FAFAFAD8D8D8EBEBEBFFFFFFDADADAE3E3E3FEFEFE
310
DFDFDFC0C0C0DFDFDFF8F8F8BABABA8A8A8AE7E7E7F6F6F6F7F7F7FFFFFF0000
310
00C4C4C4FFFFFFE8E8E8EEEEEEB1B1B19E9E9ED7D7D7FFFFFFF7F7F7DFDFDFBB
310
BBBBF0F0F0FFFFFFBABABA989898F4F4F4F7F7F7F2F2F2E7E7E7F9F9F9F7F7F7
310
C8C8C8FFFFFFFAFAFADBDBDBDBDBDBFFFFFFFEFEFEA2A2A2A4A4A4E4E4E4FFFF
310
FFFAFAFAE7E7E7FBFBFBFFFFFFFFFFFFEDEDEDFEFEFEFEFEFEFEFEFEFEFEFEFE
310
FEFEFEFEFEFEFEFEFEFEFEFEFEFEFEFEFEFEFEFEFEFEFEFEFEFEFEFEFEFEFEFE
310
FEFEFEFEFEFEFEFEFEFEFEFEFEFEFEFEFEFEFEFEFEFEFEFEFEFEFEFEFEFEFEFE
310
FE00FEFEFEFEFEFEFEFEFEFEFEFEFEFEFEFEFEFEFEFEFEFEFEFEFEFEFEFEFEFE
310
FEFEFEFEFEFEFEFEFEFEFEFEFEFEFEFEFEFEFEFEFEFEFEFEFEFEFEFEFEFEFEFE
310
FEFEFEFEFEFEFEFEFEFEFEFEFEFEFEFEFEFEFEFEFEFEFEFEFEFEFEFEFEFEFE55
310
5555929292F3F3F35555558C8C8CF8F8F8979797535353FFFFFF909090828282
310
FFFFFFC9C9C95B5B5BFBFBFBBBBBBB2D2D2D7373734F4F4F565656F4F4F4F2F2
310
F28E8E8E0E0E0EABABABFFFFFFFFFFFF212121505050323232090909EDEDEDF6
310
F6F60000005F5F5FC2C2C25F5F5F939393FFFFFFFFFFFF7D7D7D000000BCBCBC
310
FFFFFFFAFAFA2525256868686B6B6B181818EDEDEDF6F6F6F9F9F9FFFFFFA7A7
310
A71111116565656B6B6B000000939393FCFCFC3A3A3A5151514C4C4C3E3E3ED9
310
D9D9000000EBEBEBFDFDFD151515B7B7B7BBBBBB0202027575751E1E1E3A3A3A
310
E6E6E68B8B8B1B1B1B909090000000C5C5C5717171C0C0C0F9F9F99898989999
310
99F4F4F49B9B9B3434347D7D7D7979792F2F2F979797000000C2C2C2FFFFFFDE
310
DEDE000000848484FBFBFBFFFFFF5454543636368C8C8C040404D7D7D7CFCFCF
310
0000005E5E5EFDFDFD4242425858586D6D6D272727D3D3D3D9D9D9545454FDFD
310
FDF2F2F2060606E9E9E9F1F1F15F5F5FD2D2D2F3F3F34040406666666969691E
310
1E1EBEBEBEFFFFFFFFFFFFFCFCFCEFEFEFFCFCFCFDFDFDFEFEFEFEFEFEFEFEFE
310
FEFEFEFEFEFEFEFEFEFEFEFEFEFEFEFEFEFEFEFEFEFEFEFEFEFEFEFEFEFEFEFE
310
FEFEFEFEFEFEFEFEFEFEFEFEFEFEFEFEFEFEFEFEFEFEFEFEFEFEFEFEFEFEFEFE
310
FEFEFEFEFE00FEFEFEFEFEFEFEFEFEFEFEFEFEFEFEFEFEFEFEFEFEFEFEFEFEFE
310
FEFEFEFEFEFEFEFEFEFEFEFEFEFEFEFEFEFEFEFEFEFEFEFEFEFEFEFEFEFEFEFE
310
FEFEFEFEFEFEFEFEFEFEFEFEFEFEFEFEFEFEFEFEFEFEFEFEFEFEFEFEFEFEFEFE
310
FEFEFE494949878787FFFFFF464646939393FFFFFF9494944D4D4DFFFFFF8A8A
310
8A909090FFFFFFCDCDCD363636FFFFFF565656707070FFFFFFDFDFDF000000E0
310
E0E0FDFDFD3C3C3C353535565656EDEDEDE2E2E2000000E3E3E3F9F9F9000000
310
FCFCFCFFFFFF000000ECECECFFFFFF4B4B4B929292F6F6F6F7F7F71919194747
310
47767676EEEEEED2D2D2161616F6F6F6FFFFFF979797F1F1F1FFFFFFFDFDFDE5
310
E5E5797979707070F8F8F8D7D7D7979797484848BBBBBB121212F4F4F4F1F1F1
310
939393C6C6C6000000FFFFFFFFFFFF040404C0C0C0BDBDBD2C2C2CEDEDEDBEBE
310
BE414141FFFFFF595959919191F6F6F6BCBCBCC9C9C9454545C3C3C3F8F8F88F
310
8F8F7B7B7BFFFFFF888888757575FCFCFCC1C1C1BBBBBBA6A6A6313131949494
310
F2F2F28B8B8B3E3E3E000000DFDFDFFFFFFF8A8A8AC3C3C3A4A4A4000000CBCB
310
CBC8C8C8494949F8F8F8D5D5D5000000FFFFFFFFFFFF939393ECECECBBBBBB3D
310
3D3DFFFFFFFFFFFF0B0B0BFFFFFFFFFFFF3D3D3DD1D1D1C5C5C5040404FBFBFB
310
FFFFFF8F8F8FF4F4F4FDFDFDF5F5F5FEFEFEF8F8F8FFFFFFFFFFFFFEFEFEFEFE
310
FEFEFEFEFEFEFEFEFEFEFEFEFEFEFEFEFEFEFEFEFEFEFEFEFEFEFEFEFEFEFEFE
310
FEFEFEFEFEFEFEFEFEFEFEFEFEFEFEFEFEFEFEFEFEFEFEFEFEFEFEFEFEFEFEFE
310
FEFEFEFEFEFEFEFEFE00FEFEFEFEFEFEFEFEFEFEFEFEFEFEFEFEFEFEFEFEFEFE
310
FEFEFEFEFEFEFEFEFEFEFEFEFEFEFEFEFEFEFEFEFEFEFEFEFEFEFEFEFEFEFEFE
310
FEFEFEFEFEFEFEFEFEFEFEFEFEFEFEFEFEFEFEFEFEFEFEFEFEFEFEFEFEFEFEFE
310
FEFEFEFEFEFEFE5B5B5B8A8A8AFFFFFF565656949494FBFBFB7E7E7E5F5F5FFC
310
FCFCA0A0A0929292FFFFFFBBBBBB565656FFFFFF3A3A3AA7A7A7FFFFFFEEEEEE
310
000000DADADA9A9A9A181818E9E9E9000000F2F2F2FFFFFF8282822424240000
310
00060606E9E9E9E2E2E2010101FFFFFFFFFFFF5151519A9A9AF3F3F3A1A1A124
310
2424DCDCDC050505FBFBFBBEBEBE0A0A0A4545454B4B4B151515B4B4B4FDFDFD
310
F1F1F1FFFFFFFFFFFFE9E9E9EDEDEDC7C7C7484848494949CCCCCC020202EEEE
310
EEFAFAFAFFFFFFC6C6C6090909FFFFFFF9F9F9000000CBCBCBEFEFEF6E6E6E0A
310
0A0A0000004A4A4AFDFDFD4B4B4BC7C7C7FEFEFEEEEEEEF6F6F66A6A6AC6C6C6
310
FFFFFF8888888B8B8BFFFFFF8D8D8D9A9A9AFFFFFFBBBBBB0C0C0C2F2F2F7373
310
73E2E2E2F8F8F8101010C4C4C4696969939393F1F1F17F7F7F1919193D3D3D99
310
9999F9F9F9C6C6C6636363F5F5F5CECECE020202505050575757171717CBCBCB
310
EBEBEB414141EDEDEDF7F7F7000000F1F1F1E1E1E15E5E5EC1C1C1BCBCBC0404
310
04555555404040191919BABABAF2F2F2FFFFFFFFFFFFFAFAFAFFFFFFF7F7F7FE
310
FEFEFEFEFEFEFEFEFEFEFEFEFEFEFEFEFEFEFEFEFEFEFEFEFEFEFEFEFEFEFEFE
310
FEFEFEFEFEFEFEFEFEFEFEFEFEFEFEFEFEFEFEFEFEFEFEFEFEFEFEFEFEFEFEFE
310
FEFEFEFEFEFEFEFEFEFEFEFEFE00FEFEFEFEFEFEFEFEFEFEFEFEFEFEFEFEFEFE
310
FEFEFEFEFEFEFEFEFEFEFEFEFEFEFEFEFEFEFEFEFEFEFEFEFEFEFEFEFEFEFEFE
310
FEFEFEFEFEFEFEFEFEFEFEFEFEFEFEFEFEFDFFFEFDFFFCFDFFFEFEFEFEFFFBFE
310
FFFBFEFFFDFEFDFFFEFCFF5250569B9A9CF2F3EF494C436D7067DEE1D86F6D6C
310
4C4C4CFEFDFF807F81363636ECEDE9878983565852F2F4EE797A764F504EEFEF
310
EFA7A9A90A0C0CE2E4E45A5D5B7C807BF3F7F17A7F765C6158FAFEF97B7D7DB7
310
B9BAF2F4F509080AD2D3D1FFFFFC000300EEF1E8F8FAF4555652878787FFFEFF
310
28272B919092FFFEFF4B4A4C807F81E7E7E7000100EDEEEAE9EAE60B0C08C9CA
310
C8FFFFFEFFFFFEF8F6F5EFEDED5C595B030002201D1F595757D9D7D7E7E8E604
310
0503CCCDCBC5C5C5000001C4C3C7070608C9CAC8D5D6D2050701D7D7D1F5F3F3
310
4E4C4BF2F2ECBDBEB516170EFFFFFB51524E6E716FF9FCFA343735A8ADAB353A
310
385C615FEEF0F04446478B8D8EF3F4F8919094929292EDEEEC9494942F2E30F5
310
F4F8838286ADACB0AAA9AB141513FFFFFCB4B3AF1D1D17F1F0EC565251827D7E
310
F8F6F6494949E0E0E0CDCECC434440FFFFFBDFE1DB000100D3D4D2F5F5F51817
310
19C7C6C8B7B6B8010200E4E8E3C8CAC40002009B9C9AF5F5F5131313C4C4C4F2
310
F2F2000000D7D7D7F8F8F8050505D1D1D1FFFFFFFFFFFFF7F7F7F4F4F4FFFFFF
310
FBFBFBFEFEFEFEFEFEFEFEFEFEFEFEFEFEFEFEFEFEFEFEFEFEFEFEFEFEFEFEFE
310
FEFEFEFEFEFEFEFEFEFEFEFEFEFEFEFEFEFEFEFEFEFEFEFEFEFEFEFEFEFEFEFE
310
FEFEFEFEFEFEFEFEFEFEFEFEFEFEFEFEFE00FEFEFEFEFEFEFEFEFEFEFEFEFEFE
310
FEFEFEFEFEFEFEFEFEFEFEFEFEFEFEFEFEFEFEFEFEFEFEFEFEFEFEFEFEFEFEFE
310
FEFEFEFEFEFEFEFEFEFEFEFEFEFEFEFEFEFEFEFEFEFDFFFCF9FFFAFAFFFCFFFD
310
FCFFF7FCFFF7FCFFFBFEFAFFFEF8FF524A5B8E8A90FFFFF58C92796A7156171D
310
063C3A32D9D6D8F1F1F7B9B9BF56595713190E394130A3AC98EFF5E2FCFFF24D
310
514B090C0A272B2C979B9CF4FBF8596258C3D0C0FAFFF1B4C3A8606D55F4FDF0
310
A1A6A41B1E2300000867686CFDFFFC41483917210A4E573DD6DDC87C7D73B2B0
310
B0E3DDE85E5766DFDAE3FFFDFFAAA5AE5C585EFFFFFEAAADA40B0F030C11027D
310
8176FAFDF4FFFFF9F6F7EEFFFFFBA29E9D1F171EC9C0CAFFFCFFFFFEFFFFFFFE
310
FAFAF4B1B2A924241E1817199C99A2B8B4C0110E174F4E4A0E1102949885FFFF
310
F4FCF8F7807B7806070022250B959882FFFFF4DDE4D7495147121B11444F45E7
310
F5EA3E4C4166736B040D0A33383BD0D3DBB0B0BE2E2D373435336E6D69EDECEE
310
45424B0000083C3948EEEDF77A7B7F969793FFFFF8EFEFE1717161C8C4B9A79F
310
98483E3E070000757274CCCDCB43443B101206545845FFFFF29EA09426262007
310
05057B777DFAF8FED9D8DC5E625D151E11222B16717A65464842111111494949
310
E4E4E4FFFFFFA0A0A0222222000000939393E0E0E0FFFFFFFFFFFFF7F7F7FFFF
310
FFFFFFFFFFFFFFFEFEFEFEFEFEFEFEFEFEFEFEFEFEFEFEFEFEFEFEFEFEFEFEFE
310
FEFEFEFEFEFEFEFEFEFEFEFEFEFEFEFEFEFEFEFEFEFEFEFEFEFEFEFEFEFEFEFE
310
FEFEFEFEFEFEFEFEFEFEFEFEFEFEFEFEFEFEFEFEFE00FEFEFEFEFEFEFEFEFEFE
310
FEFEFEFEFEFEFEFEFEFEFEFEFEFEFEFEFEFEFEFEFEFEFEFEFEFEFEFEFEFEFEFE
310
FEFEFEFEFEFEFEFEFEFEFEFEFEFEFEFEFEFEFEFEFEFEFEFEFCFCFFFCF9FFFAFA
310
FFFAFFFAFAFFF3FCFFF4FCFFFBFEF8FFFEF5FF514561938C9BFFFFF9DBE0CBFF
310
FFF0FFFFF4ECE7E9FFFAFFFBF5FFFDFAFFFDFCFFF8F9F7FEFFF8FFFFF7FFFFF7
310
FDFEF5FDFEFCFFFEFFF8F7FFFBFDFFFBFFFFD8DFDAFAFFF8F6FFF0FBFFEEDCE9
310
D1FBFFF8F6FAFBF6F5FFF9F7FFFDFCFFFDFFFEFFFFF5000800FCFFEAF3F9E2E5
310
E7DBF0EEEEF3ECFBFEF6FFFFFDFFFFFDFFFFFBFFF2ECF7FFFDFFFFFFFFFFFFFB
310
F4F7EEFFFFFBFFFFFBF5F6EDFFFFF9FEFBF6837D7E352B37EEE4F1F3ECF13E3A
310
39676362FFFFFCFFFFFBE9E8E4FFFFFFF5F3F9DAD6E2000006FFFFFCF8FBECFF
310
FFEEF4F6E3FEFBF6FFFFFBFEFBEDFFFFF4FFFFF7FFFFF9FBFFFAF0F5F3F3FCF9
310
F6FFFCF4FFF935453AB9C6BEF6FFFCFAFFFFFAFDFFE8E5F49795A1918F8FFFFF
310
FEFFFEFFEEEAF5F9F6FFFDFAFFF8F5FFFCFBFFFFFEFFFAFBF7FFFFF9FBF9EFFF
310
FFF9FFFDFBFFFDFFFDF1F7FFFCFFE8E7EBCECDC9616357F6FAE7E9EDDAFFFFF5
310
F2F2ECFBF8FAF7F4FDFFFBFFFDFCFFFBFDFEFBFFF9EFFAE6FBFFF2FFFFFBFDFD
310
FDFCFCFCFFFFFFFFFFFFFFFFFFFEFEFEFDFDFDE9E9E9FFFFFFFFFFFFFCFCFCFF
310
FFFFFFFFFFF9F9F9F7F7F7FEFEFEFEFEFEFEFEFEFEFEFEFEFEFEFEFEFEFEFEFE
310
FEFEFEFEFEFEFEFEFEFEFEFEFEFEFEFEFEFEFEFEFEFEFEFEFEFEFEFEFEFEFEFE
310
FEFEFEFEFEFEFEFEFEFEFEFEFEFEFEFEFEFEFEFEFEFEFEFEFE00FEFEFEFEFEFE
310
FEFEFEFEFEFEFEFEFEFEFEFEFEFEFEFEFEFEFEFEFEFEFEFEFEFEFEFEFEFEFEFE
310
FEFEFEFEFEFEFEFEFEFEFEFEFEFEFEFEFEFEFEFEFEFEFEFEFEFEFEFEFCFDFFFC
310
FAFFFAFDFFFAFFF6FAFFF1FCFFF3FCFFFBFCF8FFFCF4FF51446AA59ABAFFFBFF
310
F2F1F5FFFDFFFFFAFFFFF4FFFFF1FFF9E9FFF8ECFFFFF5FFFFF7FFFFF9FFF4ED
310
FAF8F0FBFFFBFFFCF3FFFFF9FFFFF8FFFDF5FFF8F1FFFAF6FFFFFDFFF6F5F7EB
310
EDE7FFFFFBFCFBFDF7F4FDFFF9FFFFF9FFFFFAFFF6F2F7FFFFFBFFFFF7F5F8E8
310
FFFFF54845408A8587FBF2FFFFFBFFFBF9F8F8F7F3FFFCFFFFF9FFEBE4F9F5EF
310
FFFFF9FFFDF9FFEFECF5FFFEFFFFFFFEF2F1EDFFFBFAFBF5FA645A6A04000809
310
04053C3B37D0CDCFFFFDFFE6E3E5F4F4F4FFFFFCFFFFFCC3C3C3000000F1F1F1
310
FFFFFCFFFFF8FFFFF7FFFFF7FFFFFCFFF9FFFFF6FFFEF0FFFBEEFFFFF7FFFDF9
310
FFFBFBFFF6FAFFEEF6F558625CBEC6BFFAFFFCFCFFFDF4F6F7FFFCFFF9F4FDE5
310
E1E7FFFDFFE0DDE6FEFAFFFDFBFFFDFAFFE0DFEFFBFAFFFDFAFFE6E1F0FFF6FF
310
FFFAFFF5E9F5FCEEF9FFFAFFFFF9FFFEF6FFFDFAFFF9F6FFF4F4F4FFFFF9FFFF
310
F8FCFFF6FFFFFEFFFDFFF7F3FFF9F3FFEEEAFDF1EEFDFDFCFFF9FDFEFBFFFFFD
310
FDFDFFFFFFFFFFFFF7F7F7F1F1F1F7F7F7FFFFFFFFFFFFFFFFFFFFFFFFF6F6F6
310
F8F8F8FFFFFFFDFDFDF5F5F5FFFFFFFEFEFEFEFEFEFEFEFEFEFEFEFEFEFEFEFE
310
FEFEFEFEFEFEFEFEFEFEFEFEFEFEFEFEFEFEFEFEFEFEFEFEFEFEFEFEFEFEFEFE
310
FEFEFEFEFEFEFEFEFEFEFEFEFEFEFEFEFEFEFEFEFEFEFEFEFEFEFEFEFE00FEFE
310
FEFEFEFEFEFEFEFEFEFEFEFEFEFEFEFEFEFEFEFEFEFEFEFEFEFEFEFEFEFEFEFE
310
FEFEFEFEFEFEFEFEFEFEFEFEFEFEFEFEFEFEFEFEFEFEFEFEFEFEFEFEFEFEFEFE
310
FEFDFFFCFBFFFAFDFFFAFFF6FAFFF0FCFFF1FCFFF8FCFAFFFCF5FFEBE2FFF9F1
310
FFFFFAFFFFFCFFFFFDFFF4EFFEFEF4FFFFF4FFFFF5FFFFF5FFF8EFFFFFF6FFFF
310
F9FFFFF8FFFFF9FFFFFAFFFFF8FFFEF1FFFBEEFEFFF9FFFFF3FFFFF8FFFFF3FF
310
FFF8FFFFFCFFFFFDFFEFE7F1FFF8FFFFF8FFFAF0FFFCF3FFFFFBFFF2EDEFF6F3
310
EFFFFFFBF3F0EBFFFEFFFFFDFFFFFBFFF1EDF2FDFFF1FFFFF4FFFFFCFFFCFFFF
310
F9FFFFF7FFECE5FAF9F3FFFFFCFFF1F0F2FFFFFCFFFFF9F9F9F3FBF9F9F8F3FC
310
FFFDFFF7F6F2FFFFFCFEFAFFECE5F2FFFBFFFFFEFFF2F4EEF3F7EBFFFFF8F2F4
310
EEFFFFFFFFFEFFF5F3F3FFFFFBFAFDEEEFF0E7FFF8FFFAE8FFFCECFFFFF5FFFF
310
F7FFF6F2FFF4F2FEFBFEFFFBFFFFEFF6EFFBFFF9EFF4EBFEFFFAFFFFFCFFFEFF
310
FFFEFFFFFDFFF8F7FBFCFBFFFDFFFFF1F3F3FBFFFFFBFEFFF0F2FAF3F1FDFDFA
310
FFFFF9FFFFF9FFFBF1FEFFFAFFFFF7FFFEF3FDF3ECFBFDFAFFFCFBFFFCFEFEED
310
EFE9FDFFF9F3F6EDEDF1ECFFFEFFFDFCFFFDFAFFFDFAFFFDFAFFFDFBFFF3F5FD
310
F1F1F7FFFEFFF4F4F4F3F3F3FFFFFFFFFFFFFFFFFFF7F7F7FEFEFEFDFDFDFCFC
310
FCF7F7F7FDFDFDFFFFFFF8F8F8F7F7F7FFFFFFFEFEFEFEFEFEFEFEFEFEFEFEFE
310
FEFEFEFEFEFEFEFEFEFEFEFEFEFEFEFEFEFEFEFEFEFEFEFEFEFEFEFEFEFEFEFE
310
FEFEFEFEFEFEFEFEFEFEFEFEFEFEFEFEFEFEFEFEFEFEFEFEFEFEFEFEFEFEFEFE
310
FE00FEFEFEFEFEFEFEFEFEFEFEFEFEFEFEFEFEFEFEFEFEFEFEFEFEFEFEFEFEFE
310
FEFEFEFEFEFEFEFEFEFEFEFEFEFEFEFEFEFEFEFEFEFEFEFEFEFEFEFEFEFEFEFE
310
FEFEFEFEFEFDFFFCFAFFFCFBFFFCFFF8FCFFF0FCFFEFFCFFF3FAFFFDFAFCFFFB
310
FBFFF8F9FFE7EAE8FDFFF8FDFFF7F7FDF2FDFFFFF5F8F6FCFFF1FCFFECFEFFEF
310
FFFFF5FFFFFBFFFFFCFDF8F7F5F0EFFFFFFCFFFDFDFFFDFFFFF2FAFFF2FFFFF6
310
FFFFEAFFFDE9FFFFF7FFF8EFFCF2E8F5FFFAFFFFF5FFFFFAFFF7EFFAFFFBFFFF
310
F9FFFFFCFFFFFDFFFBF8FAFFFDFFF0ECF1ECE8EDFFFFF9F9FFE2FCFFE3F6FFE5
310
FFFFF7EBEAECFFFBFFFFFBFFFFFDFFFFFFFCFDFFF5FFFFF2F4FAE7FEFFF3FFFF
310
F7FFFFF9FAFCF6FEFFF8F1F2F0EEEAF5FFF9FFFFF9FFFFFCFFFAFCF6FFFFF4E6
310
ECD9FFFFF5E9E9E9FDFAFFFFFBFFF8F7F9FFFFF5FFFFF4FFFFFCFFFEFFFFFEFF
310
F7F7F7EEEEEEF2F5F3FCFFFAFDFFF9F2F8EDFDFFF7FFFFF5FFFFF3FFFFF7FBF9
310
EEF9F7EDFCF8F3F1EFEEFFFFFEFFFFF8F3FBEAFDFFF0F8FFEDFAFFF0F4FFEFF3
310
FAF3FDFFFFE8E7EBFCF8FEFFFCFFFFFEFFEDE6E3FFFFFBFFFFFEF8FBF9F9FDF7
310
F4FCF1FDFFF5F8FFF2FDFFF5FBFFF7FDFFF9FBFFFCF5FAF9FAFEFFFDFEFFFDFF
310
FFFDFFFFF7F9F9FBFBFBFFFFFFFFFFFFF8F8F8F4F4F4FCFCFCFFFFFFFFFFFFF8
310
F8F8FFFFFFFFFFFFFFFFFFFFFFFFFDFDFDF9F9F9FFFFFFFEFEFEFEFEFEFEFEFE
310
FEFEFEFEFEFEFEFEFEFEFEFEFEFEFEFEFEFEFEFEFEFEFEFEFEFEFEFEFEFEFEFE
310
FEFEFEFEFEFEFEFEFEFEFEFEFEFEFEFEFEFEFEFEFEFEFEFEFEFEFEFEFEFEFEFE
310
FEFEFEFEFE00FEFEFEFEFEFEFEFEFEFEFEFEFEFEFEFEFEFEFEFEFEFEFEFEFEFE
310
FEFEFEFEFEFEFEFEFEFEFEFEFEFEFEFEFEFEFEFEFEFEFEFEFEFEFEFEFEFEFEFE
310
FEFEFEFEFEFEFEFEFEFDFFFCF9FFFCFBFFFCFFFAFCFFF3FCFFEFFCFFF0FAFFF8
310
FAFFFEEFF2F7F8FDFFFBFFFEFAFFF9F4FEF1F6FFF3FAFFFBFBFFF5FAFFE6FFFF
310
E6FFFFEBFBFFEEF9FAF0FFFFFAFFFFFCFFFFFBFFFFF7FBF7ECFFFFF8FFF8F4FF
310
FCFFFFF8FFFFF5FFFFF4FFFCF0FFF9F1FCFFFBFFFFFCFFF1EBF0FFFDFFFDF9FE
310
FFFDFFFFFCFFEEEAF5FFFBFFF6F5FEF6F4FAFDFFFFFDFFFFF9FFF4FDFFEDFFFF
310
E7FEFFE9FFFFF0EDF1E6FFFFFEFFFEFFFBFCFAF6FAEEF9FFEEFFFFF4FCFFF6FD
310
FFFBF5FBF6F2F9F2F9FFFAF6FAFBFDFDFFFDFBFFF5EFFFEFE9FAFFFBFFFFFFFC
310
F6FBECFFFFF0F6FCE9F9FAF8FAF6FFFFF9FFF4F3FDFDFFFBF8FFF0F5FBF0FDFF
310
F9FBFFFBFBFFFBFBFFFCFBFFFCFBFFFEF7FCFAFBFFFEE8EEE9F5F7F1FFFFF9FF
310
FFF3F9F9EBFFFFF4FFFFF5FFFFFCFDFFFCF4FAEFF4FFEBF8FFEDFAFFEEF3FFE9
310
FAFFF2FAFFF8FBFFFCF2F4F4FFFFFFFEFCFBFFFFFCFAF7EFFFFFF7F0F5E6F9FF
310
F3F0F9ECFBFFF8F7FEF7FAFFFCEEF5F2F8FFFCEEF4F3FBFFFFFAFFFDFBFFFEF7
310
FAF8F0F4EFFDFFFCFDFFFCEEEFEDFEFEFEFFFFFFFFFFFFFBFBFBFEFEFEFDFDFD
310
F5F5F5FFFFFFFFFFFFFEFEFEF4F4F4FFFFFFFFFFFFFEFEFEFAFAFAFEFEFEFEFE
310
FEFEFEFEFEFEFEFEFEFEFEFEFEFEFEFEFEFEFEFEFEFEFEFEFEFEFEFEFEFEFEFE
310
FEFEFEFEFEFEFEFEFEFEFEFEFEFEFEFEFEFEFEFEFEFEFEFEFEFEFEFEFEFEFEFE
310
FEFEFEFEFEFEFEFEFE00FEFEFEFEFEFEFEFEFEFEFEFEFEFEFEFEFEFEFEFEFEFE
310
FEFEFEFEFEFEFEFEFEFEFEFEFEFEFEFEFEFEFEFEFEFEFEFEFEFEFEFEFEFEFEFE
310
FEFEFEFEFEFEFEFEFEFEFEFEFEFDFFFEF9FFFEFAFFFCFFFDFCFFF4FAFFF0FAFF
310
F1FAFFF7FAFFFDFAFDFFF8FCFFFAFCFFE8ECF7F5FBFFF8FEFFF6FEFFEAF3F0EB
310
F9E1F7FFEAFAFFF5FAFFFEFBFEFFFBFCFFFBFDFFFCFDFFFFFFFBF5F5E7F8F8E6
310
FFFFF2FFFFF7FCF0EEFFF5FCFFFAFFFFFCFFFDFCFEFAFBF9F6F7F3F1F5EFFDFF
310
FBF9FCFAEBEFF0FBFDFFF1F3FDECEDFBF8FCFFEFF2FAF4FCFCF3FCF9F4FEF8F4
310
F9F7FDFFF9F0F9E4FAFFEBFFFFF2FFFFF5F2F6EBF6FAEFFFFFF5FFFFF7FDFFFF
310
F1F2FCFBF8FFF5F3FFF8FBFFF6F9FFF8F6FFFBF8FFF3F3FFF6F5FFFDFCFFFDFC
310
FFF6F5F7FFFFFBFAFFEDECF2DFFDFFFBF7F6FFF4EFFFEAE8FCFBFCFFFAFFFFF6
310
FFFFEEFBF9EAF3F6F1FAFEF1F7FFE8EDFCEEF1FFF6F8FFF8F8FFF8F9FFFBFAFF
310
FBFDFFF2F3EFFBFFF3FFFFF1E8ECD9FCFDF9F9FBFCF2F4F4FBFFFCF8FFFAF8FF
310
FBE9F3EDEDF7F1EAF2F1EDF5F4FAFFFFFBFFFFF3F6F4FFFFFCFFFFFBF4F8ECFA
310
FFEFFAFFF0FAFFF7E6ECEBF8F9FFF2F2FFF8F6FFF7F5FFF8F8FFFAFAFFECEEF8
310
FBFEFFFDFFFEFDFFFBFFFFF9EFF2E9FFFFFEF9F9F9F3F3F3FFFFFFFFFFFFFDFD
310
FDFBFBFBFFFFFFFAFAFAFFFFFFF7F7F7F0F0F0FDFDFDFFFFFFFEFEFEFFFFFFFE
310
FEFEFEFEFEFEFEFEFEFEFEFEFEFEFEFEFEFEFEFEFEFEFEFEFEFEFEFEFEFEFEFE
310
FEFEFEFEFEFEFEFEFEFEFEFEFEFEFEFEFEFEFEFEFEFEFEFEFEFEFEFEFEFEFEFE
310
FEFEFEFEFEFEFEFEFEFEFEFEFE00FEFEFEFEFEFEFEFEFEFEFEFEFEFEFEFEFEFE
310
FEFEFEFEFEFEFEFEFEFEFEFEFEFEFEFEFEFEFEFEFEFEFEFEFEFEFEFEFEFEFEFE
310
FEFEFEFEFEFEFEFEFEFEFEFEFEFEFEFEFEFDFFFEFAFFFEFBFFFEFFFDFCFFF7FA
310
FFF4FAFFF6FAFFFDF9FBFFF3F1FFF2EEFFF6EDFFEDE2FFF4ECFFF3EBFFF0EAFF
310
F3F0FFF4F5FFF1F3FFEAE8FFEEE8FFF4ECFFF4ECFFF2E9FFEEEAFFF9F6FFFBFC
310
FFF6F7F3FFFFF4FFFFF5FFFFF3FFFFF8FFF8FDF3EBFFFAF2FFF5EEFFF8F4FFF8
310
F5FFF0ECFFF0EDFFF6F1FFE4DFFFF4EDFFF2EAFFEAE4FFF3EFFFECE9FFF3F2FF
310
F2EFFFF8EFFFF9F0FFFBFCFFFDFFF9FBFFF1FAFFF0FFFFF9FFFFFBFDFEFAECEC
310
F2FAF5FFF8EDFFF8E9FFEDDFFFF6EDFFECE5FFF5EAFFF0E9FFF8F8FFFBFFFFF6
310
FAFBFAFBFFFFFBFFF8F7FBFFFFF7FFFFF4F3F9EEFAFDFFFBF7FFFAF4FFF7F1FF
310
EEEBFFEBEEFFE5E8FFDCDCFFCBC9FFBAB6F7B7AFF5C1B7FFD0C3FFDBCEFFF4E9
310
FFF5EBFFE6DFFFF8F9FFFAFEFFF4FEF2FBFFF7F3F7F8FBFCFFFAF8FFF2EFFFF8
310
F4FFF4F0FFEFEAFFF4F1FFF6F2FFF6F4FFF8F6FFF7F6FFF8F9FFF3F6FAF5F7F7
310
FDFFF9F9FFF1F8FFF3EFF3F8F4F2FFF8EDFFF6E8FFEAD8FFF4E5FFEFE1FFF8ED
310
FFF1ECFFFAF8FFF7F7FFEDEFF0FFFFFEFFFFFCFBFCFAFDFDFDFFFFFFFFFFFFFF
310
FFFFFCFCFCFCFCFCFEFEFEF7F7F7FFFFFFFFFFFFFFFFFFFFFFFFF6F6F6F6F6F6
310
FFFFFFFEFEFEFEFEFEFEFEFEFEFEFEFEFEFEFEFEFEFEFEFEFEFEFEFEFEFEFEFE
310
FEFEFEFEFEFEFEFEFEFEFEFEFEFEFEFEFEFEFEFEFEFEFEFEFEFEFEFEFEFEFEFE
310
FEFEFEFEFEFEFEFEFEFEFEFEFEFEFEFEFE005252525252525252525252525252
310
5252525252525252525252525252525252525252525252525252525252525252
310
5252525252525252525252525252525252525252525153524E53C9C8CAFFFFFC
310
F4F9F0F8FFF6FBFFFFF6F7FFF8F1FF9285C98A76D78163E08C6AF78B68FE7E5B
310
F28060F57D5FEE8064ED8568F38262F6805FF68060FB8264F9977EFFBEAAFFE2
310
D5FFF3EDFFF6F6FFF0F3FBF5FAF1FCFFEFFFFFEEF3EFFA8774C9856CE67960DA
310
937AF48369E57158D89479FE7B5EE98364F58164F78163F88163F88164F58165
310
F48166F28367F0916DF5A98AF7FBECFFF0EDFFFDFEFFFBFFFAFFFEFFFBF8FFFB
310
F8FFF5EAFFF4DFFF7C5FCC936FF78B6AF57E62DD8C75E17F69CFC3B5FCF8FAFF
310
F5FFF5FBFFF8FDFFFEF5EFFFFFF9FFFEFEFEF5F9EDFAFFF1FBFFFEEAE8FFF6EF
310
FFF6EAFFE5D6FF9D88FF5440D5462FC75A40DA4E33D04B2CCD5836DA5330D452
310
31CF7759E8A890FFD5C4FFEEE8FFF1F4FFF1FCFFF2FDFFF6F8FFFBF7FFB9AEDC
310
816FB68F76D88D70E57456D59678F98468E09D86EEC9BAFFEDE3FFF8F3FFEDEB
310
FFE7E7F3FAFFFFF7FDFCF8FCFFF6EFFFC4B4FF886DE27F5DEA8D67FF825CF485
310
64EB937AEA8571C49183BDFBF2FFEEE8FFFFFAFFFFFDFFFEFDFFFEFEFEFEFEFE
310
FEFEFEFEFEFEFEFEFEFEFEFEFEFEFE7878785F5F5F4D4D4D4F4F4F5353534F4F
310
4F4E4E4E54545452525252525252525252525252525252525252525252525252
310
5252525252525252525252525252525252525252525252525252525252525252
310
52525252525252525252525252525252525252525200C8C8C8C8C8C8C8C8C8C8
310
C8C8C8C8C8C8C8C8C8C8C8C8C8C8C8C8C8C8C8C8C8C8C8C8C8C8C8C8C8C8C8C8
310
C8C8C8C8C8C8C8C8C8C8C8C8C8C8C8C8C8C8C8C8C8C8C8C8C8C8C8BBB9B9FBF9
310
F9FFFFFEF8FCF7FDFFFCFBFEFFF1EFFFF8EFFF8A75D16446C75A2FD65928E856
310
23EF5928F65929F35326EB592BF05B2DF55222F04C1EED5326F85126F14923E1
310
4B2DD45942CCA595FFD1C8FFF4F2FFF5F8FFFAFFF9EDF7E0FAFAFF6A54CA5736
310
DF502BD95935E74E28E04E26E3633AF94D24E4542BEB542BEB542BEA542BEA54
310
2CE9542CE9542CE9572CE75C2AE2794FE4F4DEFFEEE7FFFCFBFFF7F9F9FFFEFF
310
FCF8FFFDF9FFF5E9FFE8CCFF653FCD6233E75929E54E27D05A39D06444D19D88
310
EBEFF3FFF0FFEFFAFFF2FBFFFBF6EFFFFFF5FFFFFDFFFDFFF8F9FFF0EEF5F2F8
310
F3FFEFE3FFB09AFF6144D04F2DEB4923F94E28FC4820F44017EB562AFF6031FF
310
4717EC4D1EF0562AED4F2AD85135C88373E3CDC7FFECEEFFE7EDFFF3F7FFFAF7
310
FFF5E8FF957EDA5E3CBF5A2FD27646FD4E1EDC5B2EE34D27C77B5DDEEEDAFFE6
310
DBFFF6F5FFF8FBFFF8FEFFF8FDFFF6F5FFEADCFF866BE05C33D45A29E95E29F5
310
5928F0572BDC6743D56046B2B8A7F1F4E8FFFFF5FFF5EDFEFFFCFFFEFDFFFEFE
310
FEFEFEFEFEFEFEFEFEFEFEFEFEFEFEFEFEFEFEDEDEDECCCCCCC1C1C1C6C6C6CA
310
CACAC5C5C5C3C3C3C8C8C8C8C8C8C8C8C8C8C8C8C8C8C8C8C8C8C8C8C8C8C8C8
310
C8C8C8C8C8C8C8C8C8C8C8C8C8C8C8C8C8C8C8C8C8C8C8C8C8C8C8C8C8C8C8C8
310
C8C8C8C8C8C8C8C8C8C8C8C8C8C8C8C8C8C8C8C8C8C8C8C8C800FEFEFEFEFEFE
310
FEFEFEFEFEFEFEFEFEFEFEFEFEFEFEFEFEFEFEFEFEFEFEFEFEFEFEFEFEFEFEFE
310
FEFEFEFEFEFEFEFEFEFEFEFEFEFEFEFEFEFEFEFEFEFEFEFEFEFEFEFEFEFEFEFF
310
FEFFFFFEFFFCFCFCF3F5F5FDFFFFFBFEFFF1EFFFF6EFFFB09DFA6140CA572BE2
310
5320F44A14F45824FF501FF74D1EF04F1CF25623FB4D1AF74918F65525FF572A
310
FF4D23FE4A23F13513CC6246E58A75F3D0C4FFF3F0FFF6FAFFEBF2EDF4F6FF7D
310
69EA4E2FE64F2AEA4E26F0461BEE5125FC5123F8461AE94F26ED4F28E84F2AE4
310
4F2CE1512BE35129E65128E85426EA5925E77245E2F1DAFFFBF4FFFDFDFFF9FD
310
F8FFFFFEF8F7F9FDFDFFFBF3FFF1D9FF7751E75A26EF531FF54F23E6552DE351
310
27D87257D6ECEDFFF3FFF2FAFFF1FBFFFBF8F0FFFFF2FFFCF8FFF9FEF5FBFFF2
310
F8FFFFF6EDFFAA94FA6142CD3F18CC471BFC4A1CFF5324FF5324FF4D1EFF4D1C
310
FF4C1BFF4C17FF5823FF4917F94D20F35933F14A2FD34D3AC5998EFFEAE7FFF4
310
F8FFFAFBFFF4EBFFEAD5FF7451DD6031E5541CF14E13F75A20FF4512DE663DE6
310
856AE9E9DCFFEBEDFFF4FFFFE5F0EDF5FBFFF6F1FFD0BEFF5938C34A1CDA551F
310
FC4D12FC531CFB5122E2512DC77159C5E5D5FFF4EBFFFFF9FFEDE9EFFFFFFFFE
310
FEFEFEFEFEFEFEFEFEFEFEFEFEFEFEFEFEFEFEFEFEFEFEFFFFFFFAFAFAF9F9F9
310
FFFFFFFFFFFFFCFCFCFAFAFAFFFFFFFEFEFEFEFEFEFEFEFEFEFEFEFEFEFEFEFE
310
FEFEFEFEFEFEFEFEFEFEFEFEFEFEFEFEFEFEFEFEFEFEFEFEFEFEFEFEFEFEFEFE
310
FEFEFEFEFEFEFEFEFEFEFEFEFEFEFEFEFEFEFEFEFEFEFEFEFEFEFEFEFE00FEFE
310
FEFEFEFEFEFEFEFEFEFEFEFEFEFEFEFEFEFEFEFEFEFEFEFEFEFEFEFEFEFEFEFE
310
FEFEFEFEFEFEFEFEFEFEFEFEFEFEFEFEFEFEFEFEFEFEFEFEFEFEFEFEFEFEFEFE
310
FEFEFEFFFEFFFFFCFFF2EEF3F3F2F4FDFFFFFAFFFFF2F5FFF6F2FFD2C3FF5A3E
310
C0562DE25C2AFE4B17F75524FF481CEB572FF2562DE75E35EB5930EA4E27E74A
310
23EB431BEC481FF75D34FF582FFF4924E65A3CE1725DDCE1D5FFF4F1FFF6FCFF
310
F2F2FF9A87FF492AE3512DF65228FF4A1CFF5322FF4112F05528FA512BE85330
310
DE5335D45536D15634D45632D8562FDF582EE15123D35D39C1CDBFFFF5F4FFFB
310
FFFFF9FEF5FFFFFBFFFFF9F3FAEDFBFBFFF5E4FF9575FC5B2AF05721FF5226F5
310
5329F25325EE5C3CD1E7E5FFF4FFFBF8FFF4FBFFFCFAF1FFFDF0FFFBF9FFF4FA
310
EFFBFFF5F8FBFFC2B4FF6849CC4921CD5F31FF4F1FFF491BFF4114F74218EF4D
310
24F14D24EB491FE85224F25222F7501EF85121FB5026F74823E54527DA5C44EA
310
7E70E6EDEBFFF1F4FFF6F2FFE9DCFFF3D9FF7F59F85222E65C26FF5016FE6831
310
FF4518D95230CA9F8FF4F1EFFFF3FDFFF3FFFFEBF0FFF4EEFF9D88EF532FC954
310
23EF6128FF551AFF5C26FF5F36F05739C8B7A5FFF1E9FFFBF8FFFFFEFFFAFAF4
310
FFFEF6FFFEFDFEFEFEFEFEFEFEFEFEFEFEFEFEFEFEFEFEFEFEFEFEFEFEFEFBFB
310
FBFDFDFDFFFFFFFFFFFFFDFDFDFEFEFEFFFFFFFEFEFEFEFEFEFEFEFEFEFEFEFE
310
FEFEFEFEFEFEFEFEFEFEFEFEFEFEFEFEFEFEFEFEFEFEFEFEFEFEFEFEFEFEFEFE
310
FEFEFEFEFEFEFEFEFEFEFEFEFEFEFEFEFEFEFEFEFEFEFEFEFEFEFEFEFEFEFEFE
310
FE00FFFFFFFFFFFFFFFFFFFFFFFFFFFFFFFFFFFFFFFFFFFFFFFFFFFFFFFFFFFF
310
FFFFFFFFFFFFFFFFFFFFFFFFFFFFFFFFFFFFFFFFFFFFFFFFFFFFFFFFFFFFFFFF
310
FFFFFFFFFFFEFFFDF9FEFFFDFFFFFDFFFCFBFDFDFFFCFAFFFBF4FCFBEDF2FFE4
310
DEFF5643B24C2ACE5B32F2481FEC4925EB482BDC745BF1A893FFA893F99A89F2
310
907DF17863E74D35CF391BCE4924EC471DF44318EB562FEF5434D3B19BFFEEE3
310
FFF6F7FFF0EDFFBBA9FF472ADD4A24EE5125FF4B18FF4E19FF4512EF7D51FF7D
310
5CFD7E65EB826BDD826ED8846CDC8468E38563ED8563ED9274F18C7BD2CFCEE8
310
F0F7F2F7FFF5F5FBF0FFFFF8FDFFEFF6FFDDFBFFF1F6F5FFB49FFF5730DF4F20
310
F24C23F0491FEE5928FF532FD7D0CAFFF3FFFFF4FFFAF7FCFDFCF4FFFCF2FFFF
310
FFFEFDFFF5FAFFFBEFEEFF715AC66139DE5525EF4C1BF3491CEF532CF34B29DB
310
4B2ECB775FE7A58FFFA48EFF8E73F96644DE5C36E2562CE95529F24D24F1441D
310
EB4521EA5236D5968BD4F8F4FFF4F2FFF4F1FFF1E8FFDFCEFF694DD6502AD656
310
25F15522F85525F3562FDF5039B9AEA5F5EFF5FFF1FBFFF0F0FFE9DFFF5E47B9
310
5834D45122ED521DFF4C17FB4E20EE502FD06856C7E6E1FFF2F4FFFBFFFFF4FA
310
E9FFFFF2FFFFF3FFFFFAFEFEFEFEFEFEFEFEFEFEFEFEFEFEFEFEFEFEFEFEFEFF
310
FFFFFFFFFFFFFFFFFFFFFFFFFFFFFDFDFDFFFFFFFFFFFFFFFFFFFFFFFFFFFFFF
310
FFFFFFFFFFFFFFFFFFFFFFFFFFFFFFFFFFFFFFFFFFFFFFFFFFFFFFFFFFFFFFFF
310
FFFFFFFFFFFFFFFFFFFFFFFFFFFFFFFFFFFFFFFFFFFFFFFFFFFFFFFFFFFFFFFF
310
FFFFFFFFFF00FDFDFDFDFDFDFDFDFDFDFDFDFDFDFDFDFDFDFDFDFDFDFDFDFDFD
310
FDFDFDFDFDFDFDFDFDFDFDFDFDFDFDFDFDFDFDFDFDFDFDFDFDFDFDFDFDFDFDFD
310
FDFDFDFDFDFDFDFDFDFCFEFDF7FCFFFDFFFFFDFFFEFDFFF6FAF4FAFFF8F8FFFB
310
F0F7FFF1EDFF6F5FCB4E2CD1572FF34D23F24A26EE5A3EEF8F7CFFF3E9FFF8F2
310
FFEEE9FFF0EAFFE1DAFFA79AFF664DE54A28E1461AF15223FF4F20F25D35E875
310
57D8F4E6FFF1EEFFF1EEFFE0D1FF5A41E54924E45327FC501DFF541DFF5C2BF9
310
A179FFF1D6FFF3E3FFF6EBFFF8EFFFFAECFFFAE8FFFBE1FFFAE0FFF3E4FFE8E4
310
FFF5FFFFFAFFF4FBFFFCF9FBFBFBF9F9F6FCEBFFFFDDFBFFE3F6FDFFD0C6FF5A
310
39DA4C21EE4F27F84E24FB5722FF4F27DDA69DEDF3FAFFF1F9FFF7FAFFFDF5FF
310
FDF6FFFFFFF7F7FFECF3F8F9F5EDFF5838BF5A2BEB561FFE4C15F8592AF5522B
310
DE6649DC9B85FBD5C8FFF3EBFFF4ECFFE9DEFFF3E1FF9A81FB502EC85029DC66
310
3BFF5E33FF4D21FD5028E56247BFBAA9F2F6F0FFEAECFFF3F8FFE8EDFFC6C0FF
310
6E5BD45430DB4919E76733FF4B1BE95430D84D38B3B0A7F7EFEDFFF3EBFFC1B1
310
FF4326AB5A33E24D1AF04814FB4F1EFC4D25E84C33C39B90EDF1F2FFF4FDFFF4
310
FCF1FEFFF0FFFFF2FFFFF4FFFFFBFEFEFEFEFEFEFEFEFEFEFEFEFEFEFEFEFEFE
310
FEFEFEFEFEFEFDFDFDFCFCFCFBFBFBF9F9F9F9F9F9FBFBFBFDFDFDFDFDFDFDFD
310
FDFDFDFDFDFDFDFDFDFDFDFDFDFDFDFDFDFDFDFDFDFDFDFDFDFDFDFDFDFDFDFD
310
FDFDFDFDFDFDFDFDFDFDFDFDFDFDFDFDFDFDFDFDFDFDFDFDFDFDFDFDFDFDFDFD
310
FDFDFDFDFDFDFDFDFD00FFFFFFFFFFFFFFFFFFFFFFFFFFFFFFFFFFFFFFFFFFFF
310
FFFFFFFFFFFFFFFFFFFFFFFFFFFFFFFFFFFFFFFFFFFFFFFFFFFFFFFFFFFFFFFF
310
FFFFFFFFFFFFFFFFFFFFFFFFFFFFFFFEFAF9FEFAF9FFFEFEFDFEFCF5FAF1F8FF
310
F6F6FFFCF3FAFFEFEAFF8C77F54F28E2491AF84716FF4517FD522FFB7059E9F3
310
EAFFFDFEFFF8FAFFF8F9FFF3F1FFDCD3FF8B74F84D2AD85F32FF5B26FF4C16F1
310
5E32EB5131B4F5E3FFF3EFFFF3F4FFE9DFFF6B58E34828D35026E94F1EF0531F
310
EE5D30E48A69F3F2E0FFF4F0FFF7FBFCFBFFF4FDFCF8FDF7FFFFEFFFFBECFFF2
310
EEFFF4F8FFEFFDF1F3FFF2FBFBFFFDF6FFFEF2FFFFFEFFFAFFDBF4FFD8EDF8F6
310
E4DEFF5E3FDC481EED4B21FC4B1EFF501AFF5429E87D6FCDF0F4FFF1F5FFF9FA
310
FFFDF7FFFBF7FFFBFFEAF6FFE7F2F4FFE8DAFF5C36D64C18EE5116FF5F24FF5E
310
29FC4719CA7D5BE5E3CDFFF8EFFFF3F4FFF6FAFFFAFCFFF8F4FFF6E9FFCBB3FF
310
6C4BDB3811C1471CE35829FF5424F25627D7805BE1D0BFFFF3F5FFE5F7F0EFFF
310
F9EDFBFFC6C5FF6248D46137FA3600E85920FF521EF8562DE76548D9D6C0FFE8
310
D1FF7F63DE552ED0582AEF5019FF5019FF5C2AFF542EEC755EE8D8D1FFF1F3FF
310
F4FEFFF9FFFAFFFFF9FCF8F7FFFAFBFFFEFEFEFEFEFEFEFEFEFEFEFEFEFEFEFE
310
FEFEFEFEFEFEFEFFFFFFFFFFFFFFFFFFFFFFFFFFFFFFFFFFFFFFFFFFFDFDFDFF
310
FFFFFFFFFFFFFFFFFFFFFFFFFFFFFFFFFFFFFFFFFFFFFFFFFFFFFFFFFFFFFFFF
310
FFFFFFFFFFFFFFFFFFFFFFFFFFFFFFFFFFFFFFFFFFFFFFFFFFFFFFFFFFFFFFFF
310
FFFFFFFFFFFFFFFFFFFFFFFFFF00FBFBFBFBFBFBFBFBFBFBFBFBFBFBFBFBFBFB
310
FBFBFBFBFBFBFBFBFBFBFBFBFBFBFBFBFBFBFBFBFBFBFBFBFBFBFBFBFBFBFBFB
310
FBFBFBFBFBFBFBFBFBFBFBFBFBFBFBFBFBFCFAFFFFFBFBF8F3FDFBFAFFFFFEFF
310
FFFEFAFFFEFAFFFFF2F6FFF3EFFFAF9CFF6238F54E19FF4F1CFF491CFF4925FB
310
4632C7E3E2FFFAFFFBF8FFFEEDF5FCF3F8FFEAE4FFA18CFF5A36E15425F74611
310
F45A22FF5C2CF04D2CB3DCC8FFF8F3FFFAF9FFF3E9FF8570EA5933DF5A2CF457
310
29F1562AE9562DDC6245CAF4E9FFF8F8FFFBFFFEFDFFF4FFFFF4FFFFFBFFF9FF
310
FBF6FFEBEEFFF3FCFFF1FFF6F1FCF2FBF9FFFFF4FFF6E8FFFFF9FFFEFFECFAFF
310
E7F8FFFFF3EDFF755BE7562FEF5026FD4B1DFF4D19FF592DF66552C6F1EEFFF4
310
F5FFFBFBFFFFFBFFFAF8F8F9FFE3FFFFF0F7F5FFAD9AF15023D7571FFF561DFF
310
490FFF541BFA5828DFA787FFF8E7FFFBF7FFF5F6F2FEFFF2FDFEF4F8F7FBFBF6
310
FFECDEFFA992FC6746DD4D26E04D22F55323FD521EED5E31DEB197FFECE7FFEC
310
FEF1ECFFE3F3FFF8EFF4FFCCBBFF724FED531EF75518FF5B20FF4714F15D37EF
310
6547E6CBAEFF4321BB6B40FB4D1AF24F15FF4F18FF5527FC4625CE9D8DFCEFEC
310
FFEFF3FFE6EEF5FBFEFFFFFEFFFFFCFFFFFEFFFEFFFDFEFFFBFEFEFEFEFDFFFE
310
FBFFFEFAFFFEFAFFFEFBFFFEFDFFFEFEFEFEFFFDFEFFFBFFFFFCFDFFFEFCFEFE
310
F6F8F8FBFBFBFBFBFBFBFBFBFBFBFBFBFBFBFBFBFBFBFBFBFBFBFBFBFBFBFBFB
310
FBFBFBFBFBFBFBFBFBFBFBFBFBFBFBFBFBFBFBFBFBFBFBFBFBFBFBFBFBFBFBFB
310
FBFBFBFBFBFBFBFBFBFBFBFBFBFBFBFBFB00FEFEFEFEFEFEFEFEFEFEFEFEFEFE
310
FEFEFEFEFEFEFEFEFEFEFEFEFEFEFEFEFEFEFEFEFEFEFEFEFEFEFEFEFEFEFEFE
310
FEFEFEFEFEFEFEFEFEFEFEFEFEFEFEFEFEFEFEFEFEFFFDFFFFF8FFFFF8FFFFFB
310
FFFDFFFFF9FFFFF7FFFEFAFFFAFBFFF7FCFFDAD1FF4B22D15C27FF481AFC4620
310
FB4424F44C3DD4C2CDFFEAFFFFE3F5FFEBFAFFEFFAFFECEAFF927BFB5733E551
310
26F14715F5531AFF5522F5603FC9D8C4FFFAF1FFF5F0FFFAEEFFBC9FFF5B26EC
310
541CFF4A20E35332E74F2AEC5337D7DCD5FFEDEFFFF3F1FFF1F1FFF0F7FFF3FA
310
FFF3F2FFEBEDFFEFF3FFE2EBFFF2FEFFF6FFFFF7F8FFFCF3FFFFF0FFFFF6FFFF
310
FDFFFBF8FAFBF9FFEAE1FFA691FF5637D83C15DC5125FF4D1CFF481DF05339CC
310
E3D6FFF2F0FFFFFFFFFFFCF8FFFFF6FFFFEAFFFFF4F9F1FFB29AFE4F22E35621
310
FF4A18FF4E1CFF5A23FF4517DBB8A0FFF3EAFFF8F6FFFFFFFCF8EDF0FFFCFFFF
310
FAFBFFFAFFF5EEFFF5E9FF634EC94A2DD74C26FA451BFC4F23F85128E76644E4
310
E4D2FFF6FEFFF5FFE6F8FFF0FDFCFFFBEEFFDCC0FF5021CB571FF46731FF4717
310
F93C18E05739F0492AD95832EA582AF95520FF571DFF531BFF5229E26149CBE2
310
DDFFF3FAFFF6FCFFF4F9FFFAF8FFFBF8FFF9F8FAFDFFF6FCFFF4FCFFF7FEFDFF
310
FEF9FFFFF4FFFFF3FFFFF3FFFFF6FFFFF9FFFEFDFFFEFFF8FCFFF6FCFFF7FAFF
310
F8FAFFFDFAFEFFFCFEFEFEFEFEFEFEFEFEFEFEFEFEFEFEFEFEFEFEFEFEFEFEFE
310
FEFEFEFEFEFEFEFEFEFEFEFEFEFEFEFEFEFEFEFEFEFEFEFEFEFEFEFEFEFEFEFE
310
FEFEFEFEFEFEFEFEFEFEFEFEFEFEFEFEFEFEFEFEFE00FEFEFEFEFEFEFEFEFEFE
310
FEFEFEFEFEFEFEFEFEFEFEFEFEFEFEFEFEFEFEFEFEFEFEFEFEFEFEFEFEFEFEFE
310
FEFEFEFEFEFEFEFEFEFEFEFEFEFEFEFEFEFEFEFEFEFEFEFEFEFFFDFFFFF8FFFF
310
F7FFFFFAFFFCFFFFF6FFFFF5FFFFF8FFFEFDFFFBFFF7E5E2FF5F37DC5B28FF46
310
1AF64724F74426F34534DB8587EBBDC6FFCCCCFFD1CEFFBEB9FFA998FF6946EA
310
4E23E84E23F05529FE5B2AFF4C21E05F45BADCD0FFFFFBFFFFFFFFFFF8FFD5BA
310
FF6128EF591CFF4B24E44F30E94822F64D2DEA9485FEA39AF5AD9CFFAB9AFBA9
310
A0E9AAA3ECA79DFAA296FAA9A0FBA7A3EAC1C3ECF6FAFFFBFEFFFFFBFFFEF2FF
310
FFF5FFFFFBFFFFF7FFFDF7FFF4EBFFBBAAFF583ECC421CDA4F24FD4F23FF451F
310
ED5031D4C7B6FFF3F0FFFFFFFCFFFCF7FFFFF8FFFFF1FFFDFAFBF3FFC2ADFF4F
310
23E25322FF451CFF481FFF5423FF481FDFB5A5FFEDEBFFFCFEFFFFFFF9FFFBFF
310
FFFAFFFFFEFCFFFBF8FDFBFFF6F2FF9587EC452DC94D2CF84520FE4922FA4823
310
EB5731E7C0A7FFF8F8FFF9FFECFCFDEDFFFFFCF6EBFBFFECFFC19FFF693EE73E
310
0DDF4E22FF502FFC3F21E65836F94B22EF4514F2511CFF541BFF4815ED6644E5
310
A795F8F0F4FFF5FFFEEDF5F5EDEFF9FBF6FFFBF9FFFBFFF9FBFFF0FCFFF1FCFF
310
F6FEFDFFFEFAFFFFF6FFFFF4FFFFF4FFFFF7FFFFFBFFFEFFFDFCFFF8FCFFF6FA
310
FFF6FAFFF8F9FFFDFAFEFFFCFEFEFEFEFEFEFEFEFEFEFEFEFEFEFEFEFEFEFEFE
310
FEFEFEFEFEFEFEFEFEFEFEFEFEFEFEFEFEFEFEFEFEFEFEFEFEFEFEFEFEFEFEFE
310
FEFEFEFEFEFEFEFEFEFEFEFEFEFEFEFEFEFEFEFEFEFEFEFEFE00FEFEFEFEFEFE
310
FEFEFEFEFEFEFEFEFEFEFEFEFEFEFEFEFEFEFEFEFEFEFEFEFEFEFEFEFEFEFEFE
310
FEFEFEFEFEFEFEFEFEFEFEFEFEFEFEFEFEFEFEFEFEFEFEFEFEFEFEFEFEFFFDFE
310
FFFAFEFFF8FFFFFAFFFCFFFFF7FFFFF6FFFFF9FFFEFEFEFBFFF4F0EFFF7D58F4
310
5A27FF4518F14B25FB4626F64226EB4024DB5133E64C24E15227E65224E25827
310
EF4B13F6561EFF5729FE411CDE3414C6513BC3A098DFF6F9FFFDFFF5EBF4DAFF
310
FFF9EFE0FF6537E45A24FF4C27E94E2BF1461AFF4B1FFE4E2DDC5536D15E36DC
310
5F37DD5E3AD45C39D75A33E35930E65028DB5E3ED37662C5EBE4FFFBFDFFFFFF
310
F8FFFBFCFFFCFCFFFFF2FFFFF8FDFBFFF8F1FFD5C6FF5A43C74923E04B23F450
310
2DF34729E04C2CD1A28DFFF5F1FFFFFFFCFFF8FDFFFCFFFFFCFDFFFCFFFDFAFF
310
D8CAFF502AD65226FD4624ED4829F04D26F84A29D7A69BF7EBECFFFBFFFEFFFF
310
F1FFFFFCFFF6F6FFFFF9FFFCF7FEFDFFF8F6FFD1C7FF4834BC5033EE4824FA4A
310
23FB4922EF4E28DE8F77F3F6F5FFFCFFF7FDFDF1FEF9F6FFF9FFFFF3FFFAEBFF
310
B098FF623BEA4E24F34D2AF64524F0522CFA461DF14717F95823FF551FFF481A
310
E2775CE8CDC3FFF3FCFFF6FFF8F0F8F7F3F5FFFBF6FFFDFAFFF9FFECFDFFE9FC
310
FFF4FCFFFAFCFFFBFCFFFDFEFEFEFEFEFEFEFFFDFEFFFBFEFFFAFEFFF8FCFFFA
310
FCFFFAFAFFFBFAFFFDFAFFFEFAFEFFFCFEFEFEFEFEFEFEFEFEFEFEFEFEFEFEFE
310
FEFEFEFEFEFEFEFEFEFEFEFEFEFEFEFEFEFEFEFEFEFEFEFEFEFEFEFEFEFEFEFE
310
FEFEFEFEFEFEFEFEFEFEFEFEFEFEFEFEFEFEFEFEFEFEFEFEFEFEFEFEFE00FEFE
310
FEFEFEFEFEFEFEFEFEFEFEFEFEFEFEFEFEFEFEFEFEFEFEFEFEFEFEFEFEFEFEFE
310
FEFEFEFEFEFEFEFEFEFEFEFEFEFEFEFEFEFEFEFEFEFEFEFEFEFEFEFEFEFEFEFE
310
FEFFFDFEFFFBFEFFFAFFFFFBFFFDFFFFF8FFFFF8FFFFFCFFFEFFFAFBFFF2F7F5
310
FF9F7CFF5727F54216ED4D26FE4725FB431EF64F21FF4C15FF480BFF5313FF5E
310
1AFF5D19FF5512FF591EFF481AEF5634EC7F69FEBFB5FFEFEEFFF4FCFFF4FEED
310
FDFFEBFCFFEDFAF5FF7350E0592CF14F2AEC4925F54717FF4A18FF5123F84F21
310
E9501BE6541DE85621E75520EB531CF5521AFB591FFF5D2DF15D3BC5ECDAFFFD
310
FAFFFFFFF5FFFBF8FFF9F2FFFFEBFFFFF0FBFDFEF8F5FFE8DDFF6651CC5229E9
310
4C20F54E2EEB4A2CDF4D27DD8064EDF3EEFFFDFEFFFEF4FFFFF8FFFFF9FFFFFB
310
FFFAFCFFE9E0FF5938D65026EF4527E4492DEA4825EB4A2DD68579DDF1F0FFFA
310
FEFFF7FBF0FFFFFBFEF4F4FFFCFCFFFEFFF7F6FAF8F6FFEFE6FF5B49C44F31E4
310
4620F44B22FF4D26F84C28E0694FD1F3EDFFFBFFFFFFFFF7FFFDF8FFFAFFEBE3
310
F4FBFCFFF4EFFFBEA2FF5931F44521EA4F2BFB431BEF4F23FF5625FF5120FF4D
310
1BFB5A2FEE977FFFE7DFFFEEFAFFF6FFF4F8FFFCFBFDFFFDF7FFF6F5FFF5FEE4
310
FFFFEAFCFFF8FCFEFEFCFFFAFCFFF6FCFFF1FCFFEFFEFFEFFCFFF0FEFFF3FCFF
310
F7FCFFFBFCFEFEFAFEFFFAFEFFFAFEFFFCFEFFFEFEFEFEFEFEFEFEFEFEFEFEFE
310
FEFEFEFEFEFEFEFEFEFEFEFEFEFEFEFEFEFEFEFEFEFEFEFEFEFEFEFEFEFEFEFE
310
FEFEFEFEFEFEFEFEFEFEFEFEFEFEFEFEFEFEFEFEFEFEFEFEFEFEFEFEFEFEFEFE
310
FE00FEFEFEFEFEFEFEFEFEFEFEFEFEFEFEFEFEFEFEFEFEFEFEFEFEFEFEFEFEFE
310
FEFEFEFEFEFEFEFEFEFEFEFEFEFEFEFEFEFEFEFEFEFEFEFEFEFEFEFEFEFEFEFE
310
FEFEFEFEFEFEFEFEFFFDFEFFFDFFFFFBFFFEFEFFFAFFFFFAFFFFFDFEFFFFF7FA
310
FFEDF8F8FFBEA0FF572BEA4517EC4F24FF4822FD441CFD511CFF5216FF5D1EFF
310
601DFF5B15FF520EFF5419FE5521FB461DEA694BFEA291FFDCD5FFECEBFFE3E7
310
FFEFF5FAFBFFF4F7FFE7F8FCFF8B75E55534DD4E2CEB4521F7471AFF4916FF5E
310
29FF5D27FF5B24F75C23F05E25F25F26F75C23FA5920FF5515FF531BF04A1FBC
310
D7BEFFF5EFFFFFFFFAFFFBFFFFFCFFFFFFEBFFFFEBF9FBF5FAF8FFF0E9FF806A
310
E05627F24F1BFF4C28EE4C2AE95121F66A43EDEADEFFFBFAFFFBF2FFFFF5FFFF
310
F5FFFFF9FFF8FCFDEEEBFF7151E54F27EB4826E54C2DEE4725EE4A2DDE6251CA
310
EEE8FFF6F7FFF8FCFDFFFBFCFFFAFDFBF1FDFFFAFFF0EEFAF8F6FFEFE7FF7F6C
310
E34F2FE2471EF6491EFF4F25FF512AEA5137C1E6DEFFFAFBFFFEFFFBFFFFFBFC
310
F4FEFFFEFAF6FFDFF6FFFFE9D4FF6A44FC5128F5461DF44B22F95329FF5022FF
310
4817FD4816F65F36F6A78FFFF1E9FFEBF7FDF4FFEFF4FEF1F5FAF9FDFAFFFBF9
310
FFFCFFE9FFFFEDFCFEFFFCFBFFFCFFFBFCFFF1FCFFEAFAFFE5FCFFE5FAFFE9FC
310
FFEFFCFFF6FCFFFDFCFDFFFCFCFFFCFCFFFCFDFFFCFEFFFEFEFEFEFEFEFEFEFE
310
FEFEFEFEFEFEFEFEFEFEFEFEFEFEFEFEFEFEFEFEFEFEFEFEFEFEFEFEFEFEFEFE
310
FEFEFEFEFEFEFEFEFEFEFEFEFEFEFEFEFEFEFEFEFEFEFEFEFEFEFEFEFEFEFEFE
310
FEFEFEFEFE00FEFEFEFEFEFEFEFEFEFEFEFEFEFEFEFEFEFEFEFEFEFEFEFEFEFE
310
FEFEFEFEFEFEFEFEFEFEFEFEFEFEFEFEFEFEFEFEFEFEFEFEFEFEFEFEFEFEFEFE
310
FEFEFEFEFEFEFEFEFEFEFEFEFDFFFEFEFEFFFEFDFFFEFEFFFBFFFFFCFFFFFFFA
310
FFFFF4F8FFE9F8F8FFDBC2FF5C32E34A1EED4E22FF471EFC4920FE4917F94B17
310
F15E2DF55A26E85F2AEC5D2BE75F36E5451FCF5631F15031E84F3CD36F64DEB9
310
B0FFE4DFFFF6F5FFEBF0F1F6FFECF6FFFFB1A3FB543ACE4E2EEB421DF54C22FF
310
4919FF3B06EF511CF56231EB5F32DC5B2ED85D30DA5C32D7552BD66131ED5F31
310
E1603DC3CCB6FFEFE9FCFFFFFEFFF8FFFFFAFFFFFFEDFFFFE7F7FDEAF9FEFFF0
310
F0FFA695FC5526F1511AFF4A23F14E27F5541CFF5B2EEFD3C4FFF8F8FFF9F3FF
310
FFF8FFFFF7FFFDFBFFF7FFF8F1F3FF977DFF5630E84B26E84E2AF34C28F84D2D
310
EA4E37C9CEC1FFF3F2FFF8FBFFF3F5F6FFFEFFF9F2FFFFF9FFF4F1FFF8F6FFEB
310
E4FFA08FFE512CE04E20FC4519FF4B1EFF5028F24B2EC3D7CDFFF8F9FFF8FAFA
310
FFFFFCFBF4FBFFFFF7F2FFCFF6FFF2CEBAFF582FE84F23F24C20FC532AFF4A21
310
F9481CF95324FF5321FF4D22E97A5CF1C5B6FFF3F8FFF6FFFBF8FFF6F2F9F2FD
310
FDFFFFFEFFFFFFF1FDFFF0FCFBFFFCF9FFFCFEFFFAFFF7FAFFF0F9FFECFAFFEA
310
FAFFEDFAFFF4FAFFFAFCFEFFFCFCFFFCFBFFFCFCFFFCFEFFFEFEFEFEFEFEFEFE
310
FEFEFEFEFEFEFEFEFEFEFEFEFEFEFEFEFEFEFEFEFEFEFEFEFEFEFEFEFEFEFEFE
310
FEFEFEFEFEFEFEFEFEFEFEFEFEFEFEFEFEFEFEFEFEFEFEFEFEFEFEFEFEFEFEFE
310
FEFEFEFEFEFEFEFEFE00FEFEFEFEFEFEFEFEFEFEFEFEFEFEFEFEFEFEFEFEFEFE
310
FEFEFEFEFEFEFEFEFEFEFEFEFEFEFEFEFEFEFEFEFEFEFEFEFEFEFEFEFEFEFEFE
310
FEFEFEFEFEFEFEFEFEFEFEFEFEFDFFFEFDFFFEFDFFFFFEFDFFFEFDFFFCFFFFFD
310
FEFFFFF7FFFFF1FCFFEBF8FAFFF2DFFF6340DE5327F04E21FF4519F84D26F866
310
40F6896BFFC8B2FFCEBDFFD6C4FFC8B7FFAA9DF15C4CBC4C2FD94A27E94528DB
310
4229CD6F55E9AB96FFF4EAFFF8F7FFF8FFFEEDF5FFD6CFFF5340C54F30EB3F1C
310
EF4F2CFF4720F26337FF9F77FFD3B6FFD7C3FFD0BBFFD0C1FFD1C8FFCBC2FFCC
310
BEFFC4B4FFCABCFFEFE6FFF7F9FAFFFFFCFFF3FFF9ECFFFFFFEFFFFFE3F7FFE0
310
FAFFF1F0FAFFD0C6FF5327E6531AFF491DF94E22FF531AFF5424EEB4A5FFF6F7
310
FFF7FAFFFBFFFEF9FBFCFBFFFCF8FFF2F3FAFFC2B1FF613FE34E27E74E25F84D
310
25FF4C28F64B2ED88F7DF8EFECFFF4F9FFF0F6F5FDFFFCFBFAFFFDFBFFFAFBFF
310
F8F9FFEEE8FFB19EFF4E27D75424FF4A1BFF4618FF4F23FA5130D1CEC3FFF8F9
310
FFF6F7FBFFFFFFFFFDFFFFFFF7F2FFD6E5F1EB8E75EF481ADE4C1CF15526FF4B
310
20F94820F44B23F4582DFF5929FF4817E94D24D97154D9CEC6FFF1F4FFF8FFFF
310
FAFFFAFDFFFFFFFEFFFEFFF6F8F9F5FCF9FFFAF8FFFAF9FFF9FBFFF9FDFFF7FE
310
FFF9FEFFF9FEFFF9FEFFF9FDFFFAFDFFFCFCFFFCFDFFFEFDFFFEFEFEFEFEFEFE
310
FEFEFEFEFEFEFEFEFEFEFEFEFEFEFEFEFEFEFEFEFEFEFEFEFEFEFEFEFEFEFEFE
310
FEFEFEFEFEFEFEFEFEFEFEFEFEFEFEFEFEFEFEFEFEFEFEFEFEFEFEFEFEFEFEFE
310
FEFEFEFEFEFEFEFEFEFEFEFEFE00FEFEFEFEFEFEFEFEFEFEFEFEFEFEFEFEFEFE
310
FEFEFEFEFEFEFEFEFEFEFEFEFEFEFEFEFEFEFEFEFEFEFEFEFEFEFEFEFEFEFEFE
310
FEFEFEFEFEFEFEFEFEFEFEFEFEFEFEFEFEFDFFFEFDFFFEFDFFFFFFFBFFFFFBFF
310
FDFEFFFEFDFFFFF6FFFFF0FFFFF0FBFDFFF6E6FF6A4CD55B2FF04F21FD4317F4
310
4F29F34223C6917BF1F1EBFFF3F5FFF5F6FFEFF3FFEFF5FFB2AEF94E31D44B25
310
F35631FD4B29EC4B25DB6548D9DDCCFFF0ECFFF8FBFFE9ECFFEFEBFF5445BE4F
310
30E93E1BEE5131FA4523E54019D99B7AFFECDCFFF4EFFFEFEBFFF1F5FFF3FFFF
310
F1FFFEF3FEFFF1F8FFF6F8FFF7F7FFF3F9EEFFFFFBFFF3FFFFF5FFFEFFF5FFFF
310
E7F7FFE0F8FFEAF0FFF5EAE6FF5229D8551DFF4C1EFA4E21FF521BFF4E20E89D
310
8CF3F1F3FFF3FCFFF8FFF7F2FBF1FAFFF9F6FFF4F4FDFFE2D8FF6A52D6522EDE
310
4E25F24C20FF4922FA4D2BEA5A43D3E7E0FFEFF2FFEFF9F9F7FFFAFAFFFFEFF1
310
FBFAFDFFF6FAFFF3EFFFB19FFF4A21D05925FF5020FF4517FE501FFD5936DECA
310
C2FFF6FAFFF5F7FFFEFDFFFBF9FFFAFAFAFBFFF7C8C6EA5230C45B28FB5E2BFF
310
4516F54418F4532BFC4E2CEA4321DA4E22EB5828F65524F0572CD9755BD1C4B6
310
FDF8F6FFFAFCFFF9F8FFFAF8FEFCFCFCFFFEFFFCF9FFFAF7FFF9F4FFF7F2FFF7
310
F0FFF5EFFFF7F0FFF7F2FFF7F5FFF9F8FFF9FBFFFAFDFFFEFEFEFFFEFDFFFEFD
310
FFFEFDFEFEFEFEFEFEFEFEFEFEFEFEFEFEFEFEFEFEFEFEFEFEFEFEFEFEFEFEFE
310
FEFEFEFEFEFEFEFEFEFEFEFEFEFEFEFEFEFEFEFEFEFEFEFEFEFEFEFEFEFEFEFE
310
FEFEFEFEFEFEFEFEFEFEFEFEFEFEFEFEFE00FEFEFEFEFEFEFEFEFEFEFEFEFEFE
310
FEFEFEFEFEFEFEFEFEFEFEFEFEFEFEFEFEFEFEFEFEFEFEFEFEFEFEFEFEFEFEFE
310
FEFEFEFEFEFEFEFEFEFEFEFEFEFEFEFEFEFEFEFEFEFDFFFCFCFFFEFDFFFFFFFB
310
FFFFFAFFFEFDFFFFFBFFFFF4FFFFF1FFFFF1FBFEFFF8ECFFAF95FF4C23D9592A
310
FF4F22FB4F27F15733DD5D45C1F1ECFFF3F9FFF6FDFFF4FFFFE7F3FFEBEAFF54
310
36DD4B21FC5024FF4B22FA562BF24827C5A491EEF3EAFFF4EFFFF7F3FFEAE6FF
310
8A7DEB4C2CE54C26FC4729EE5334EF5934EE6A4CE1F3E7FFF4F6FFF4F9FFE6F1
310
F5EFFFF0EDFFE9F3FFEDF4FFF2E6F1EFF5FDFCFAFFF3FDFFF9E8E1FCFFF4FFFA
310
F9FDFDFFF5FAFFEDF5FFEDEFFFF3EDEDFF7351EB5322F25228F94F26FA5122FA
310
532DE36958C7F1EEFFF2FBFFF2FFF4F8FFFBF2FDFAEEF9F7F4FBFFE6E5FFCEC1
310
FF4B2FBE5731E94B1FFB4B1FFF461FEC573BDB9A8FF0E7EAFFF3FFFFE7F6EEF6
310
FFFFE9F2F6F5FDFFF4F9FFE2DFFF8876DB542CD85724FA5223FF4A1CFF5420FF
310
5530DACFC7FFF1F7FFFAFCFFF6F5FFF1F0FAFDF7FFFAF0FF6D55BB5929E5531A
310
FF5823FF4D1BFD4A1AFC582EFD583DE0644CE04829CC5C33ED5A25FE551DF260
310
31E56D49D1D2BEFFFAEFFFFBF5FFFDFAFFFDFDFFFDFEFFF5F6FFFBF7FFF5EAFF
310
A190D9725DBA5740A89880E4D5C2FFF6EBFFF3EFFFFAFBFFFBFFFFF8FAF4FEFF
310
F6FFFFFBFCF8F7FFFEFEFEFEFEFEFEFEFEFEFEFEFEFEFEFEFEFEFEFEFEFEFEFE
310
FEFEFEFEFEFEFEFEFEFEFEFEFEFEFEFEFEFEFEFEFEFEFEFEFEFEFEFEFEFEFEFE
310
FEFEFEFEFEFEFEFEFEFEFEFEFEFEFEFEFEFEFEFEFE00FEFEFEFEFEFEFEFEFEFE
310
FEFEFEFEFEFEFEFEFEFEFEFEFEFEFEFEFEFEFEFEFEFEFEFEFEFEFEFEFEFEFEFE
310
FEFEFEFEFEFEFEFEFEFEFEFEFEFEFEFEFEFEFEFEFEFEFEFEFEFDFFFCFCFFFCFD
310
FFFEFFFBFFFFFAFFFEFDFFFFFBFFFFF6FFFFF4F9FBEFF9F9FFFAF1FFC4B0FF53
310
2BD75829FB481EEF4922EA572EE7573ACDD9CBFFDDDAFFF1F3FFF4F7FFF1F4FF
310
ECE3FF5D3CF14819FF3D0DF94314FA5A2BFD5E38DE7C65CDF5E8FFFBF1FFFAF3
310
FFF0EDFF9E93F34627DC451EF63D1AE64220E34E26EA603FE0E6D6FFF2EDFFF3
310
F2FFF3F7FFF1FDFFEFFFFFE5F6F3F3FFFFF4F8FFF6F8FFFAFDFFFAFDFFEEE8FF
310
F6ECFFF6EDFFF8F3FFF5F8FFF4FDFFF1FBFFEDEAFF7B5CF54A1EE7461CED461C
310
ED4A1FEA502CDE624AD2E7DAFFF0F0FFF3F8FFE3E5FFF4F5FFF3F2FFF3F2FFF3
310
F0FFE5DCFF846EE44523C75125FC4F1FFF4416F23D19D1604BCAA49EEDE6EAFF
310
F1F9FFF3F7FFEDF1FFF3F6FFF3F0FFC0B6FF735BD74E21DC541EF95828FF4213
310
EB4F1CF24F2BCBF1ECFFEEF7FBFAFCFFF6F5FFF6F4FFFBEFFFBDA2FF663DDC5A
310
20FA5619FF501BFE4F1DFD5926FF461DE4A590FFB4A7FF6D5AD14E2FC8531FEF
310
5B1CFF490CE86936F25D39C3D6BEFFFAEBFFEDE8FFEBEBF7FBFEFFF3F6FBFAF7
310
FF8D80BE7C66C5A585FFEAC5FF8260ED6549C1AF9EF5F6EFFFF8FAFFEDF2F0FF
310
FFF7FFFFF7F8F4EFFFFFFCFFFEFEFEFEFEFEFEFEFEFEFEFEFEFEFEFEFEFEFEFE
310
FEFEFEFEFEFEFEFEFEFEFEFEFEFEFEFEFEFEFEFEFEFEFEFEFEFEFEFEFEFEFEFE
310
FEFEFEFEFEFEFEFEFEFEFEFEFEFEFEFEFEFEFEFEFEFEFEFEFE00FEFEFEFEFEFE
310
FEFEFEFEFEFEFEFEFEFEFEFEFEFEFEFEFEFEFEFEFEFEFEFEFEFEFEFEFEFEFEFE
310
FEFEFEFEFEFEFEFEFEFEFEFEFEFEFEFEFEFEFEFEFEFEFEFEFEFEFEFEFEFDFFFC
310
FDFFFCFEFFFEFFFAFFFFFAFFFEFDFFFEFDFFFFF8FFFFF8FFFFFBFDFDFFFAF7FF
310
E5D7FF603CDC5A2CF54A21E85026EF491BEA5E34F1CEAFFFF0D7FFF4DFFFEBD9
310
FFD2C1FFA88EFF5C32FF5421FF5321FF5424FF5224F3542DD75637B0FAE5FFFB
310
EDFFFBF5FFF1F3FFBFB9FF5133E0532BFF4F28FF5329FF511FFF5729F1B899FF
310
BDA6FFCAB4FFC3B2FFC6BCFFBFB6FFCEC0FFD6C1FFD4BDFFD6C3FFCABFFEF1E9
310
FFF8F1FFF0E3FFDCC4FFDCC4FFCAB8FFCCBFFFD2C9FFCCBAFF906BFF6D3EFF52
310
24FF4F23FA552BF45732EC5633E1B295FFB8A5FFCDBEFFC8B6FFD5C1FFC7B2FF
310
C5B1FFE3D8FFF1E6FFCFBDFF6E4FE04B1BEF551EFF5D28FF5425F74625CE5B43
310
C99688EECDC5FFEFE6FFEFE6FFE8DDFFC9B8FF9177F95C37E14913F04E13FE4E
310
1CF0572AEF6234F26647D2EBE9FFF6FEFDFAFCFFFBF8FFFBF4FFF5E1FF7248E3
310
6028F75517FF561AFF4614F45020FA541EFD5228E1DFD1FFEDECFFB8B6F86958
310
C1491ED36427FF5F1BFF5D1CFF6D39F87851E3E9D2FFF6EDFFF6FAFFF3FBFBF2
310
F7F8FAF7FF66579BE2C7FF461EB9C598FF643BE4CBAAFF8D78DFE2DAFFF8F9FF
310
F0F6F1FFFFF5FFFFF5F7F4ECFFFFFCFFFEFEFEFEFEFEFEFEFEFEFEFEFEFEFEFE
310
FEFEFEFEFEFEFEFEFEFEFEFEFEFEFEFEFEFEFEFEFEFEFEFEFEFEFEFEFEFEFEFE
310
FEFEFEFEFEFEFEFEFEFEFEFEFEFEFEFEFEFEFEFEFEFEFEFEFEFEFEFEFE00FEFE
310
FEFEFEFEFEFEFEFEFEFEFEFEFEFEFEFEFEFEFEFEFEFEFEFEFEFEFEFEFEFEFEFE
310
FEFEFEFEFEFEFEFEFEFEFEFEFEFEFEFEFEFEFEFEFEFEFEFEFEFEFEFEFEFEFEFE
310
FEFDFFFCFDFFFCFEFEFEFFFAFFFFFAFFFDFEFFFCFFFFFEFDFFFEFDFFFEFFF7F4
310
FDF4F5FFF2E7FF6845DB5428E74921DE552DF05325FA4517E65229DE4E28C85B
310
37C95531C36E4CE75D36EA4E21FA3C0BF73F0EFA4819F75226E95F38DA7553D0
310
F9DEFFFDEAFFFFF6FFF8FBFFDAD8FF5035D24720F24318F54719FF4D18FF410D
310
E76D42F75D38DA613DDD593AD75B3FD95538D55732DC5227D64E23D05731C963
310
49BBB1A2F3EDE7FFD1C5FF5736BC6038D75230C45538C4543AC45031CC4E25E5
310
4515EF4F1DFF4718F64E24ED4F28E83A12D6623AF75734DC603FDD6745E55A35
310
D75A33D57050DD9E8AEDE9DCFFF4E5FFB8A1FF5930EA4916F34A17F45727FB55
310
2AEF4723D54A2DCA5E44D26951D7725BDF6F57DF5A3CD54A23D64C1BEB5519FF
310
5C1FFF5927F15B30DF613AD6AD95FFE4E1FFFAFFFFF0F1FBFBF6FFFAEFFFC1A9
310
FF5321D96025FF5116FF5823FF4A1EF55328F54617DF9671FFEAE2FFF1F7FFF1
310
F7FFADA5EB5533C75C27F25D1BFF5714FF5E22FC5A2AE06041C4F3E5FFF3F5FF
310
E7F1F8F8FFFFD4D5EA877BBDF4DBFF5E38D25F34E3431BC7CDADFFA591FCBCB2
310
F4EDEDFFFBFFFFFDFFF5FEFEF0FFFFFBFFFBFAFFFEFEFEFEFEFEFEFEFEFEFEFE
310
FEFEFEFEFEFEFEFEFEFEFEFEFEFEFEFEFEFEFEFEFEFEFEFEFEFEFEFEFEFEFEFE
310
FEFEFEFEFEFEFEFEFEFEFEFEFEFEFEFEFEFEFEFEFEFEFEFEFEFEFEFEFEFEFEFE
310
FE00FEFEFEFEFEFEFEFEFEFEFEFEFEFEFEFEFEFEFEFEFEFEFEFEFEFEFEFEFEFE
310
FEFEFEFEFEFEFEFEFEFEFEFEFEFEFEFEFEFEFEFEFEFEFEFEFEFEFEFEFEFEFEFE
310
FEFEFEFEFEFEFEFCFEFFFCFFFDFEFFF8FFFFFAFFFDFFFFFBFFFFFCFFFFFCFFFF
310
FBFFF9F5FFF7FAFEF6F1FF8A69F45D31E8502ADA5835EA512AF25328F5562AED
310
582EE76136E55125D66031F24B1BE95224F9491CF55A2DFF5228F14A23CD5532
310
BEB592FFFDE1FFFDE8FFFFF9FFFAFFFEF3F5FF6750D44A25E5471EF55022FF5F
310
2EFF501EF85B2BF54A1EDD4F25E24C23E34D26ED4B21F05520FD531AF9561DFB
310
5C29EF603AD9A892FFF1EEFFE6DDFF542ECE5524EA552BE45C35E95A34EA4E27
310
E75A2DFF5321FF5823FF501EFF532CF45B36F64922EA562BF8471CE7471AE551
310
22ED3E0ED84F1EE46439E6775AD9F4E2FFF6EBFFE6D7FFB497FF6F49F53D14CA
310
4519DA5E30FE6030FF5123F2481FE65531E95D3AEE5B35ED4E23EA4E1BF85A22
310
FF5A1DFF5116FF6737F5431DB26C51BFF1E2FFFAF8FFFBFEFFF0F2FAF8F4FFEE
310
DFFF775BD35522E15A23FF4513ED5025F84B25EF4826DF512DCDDBC2FFE9E7FF
310
EEF8FFF3FFFFE7E7FF967FEB5A31D2602CF55319F4561CF75421E76A46E6705C
310
CDEFEDFFF1F9FFF7FDFFF8FAFF8A81BABEAAFF7F61E8A483FF5938CF9E83FF9C
310
8DEFB5ADECE7E8FFFBFEFFFCFEF8FFFCF4FFFFFCFFFBFCFFFEFEFEFEFEFEFEFE
310
FEFEFEFEFEFEFEFEFEFEFEFEFEFEFEFEFEFEFEFEFEFEFEFEFEFEFEFEFEFEFEFE
310
FEFEFEFEFEFEFEFEFEFEFEFEFEFEFEFEFEFEFEFEFEFEFEFEFEFEFEFEFEFEFEFE
310
FEFEFEFEFE00FEFEFEFEFEFEFEFEFEFEFEFEFEFEFEFEFEFEFEFEFEFEFEFEFEFE
310
FEFEFEFEFEFEFEFEFEFEFEFEFEFEFEFEFEFEFEFEFEFEFEFEFEFEFEFEFEFEFEFE
310
FEFEFEFEFEFEFEFEFCFEFEFCFEFEFAFFFDFEFFF8FFFFFAFFFCFFFFFAFFFFFAFF
310
FFF9FFFFF8FFFFFBFFFBFFFCF8F4FFAC8DFF5E35E44623CB4424CF4A2AE34E2A
310
EE5025EA5126E5592FE25125DC5827F55322F44E26EA4420DE5732F25230DB59
310
3CC17860C6EBD1FFFFE8FFFFECFFFFFBFFFDFFF4F4FBFF8272DE4C2FD94A25ED
310
5229FC5329F85026EF5327EA4F24E3562FE9532EEE522BF95026FD5221F95722
310
FB5B25FF5423F14820CC7360D5ECF0FFEBEDFF7C5BF95727F1532AE44C26DC52
310
2BEB4C25EC4F26F34419EC5321FF4A1BF34B28E45435E44C2CDF512EEA5328F3
310
4F22F45B2CFE5829F46535F9582DDA5635BBF6E2FFF8F4FFF5F4FFF3E8FFBEAD
310
FF826BE55E3FD64F25E24716EE4D1AFE5828FF3C12E1421BE3461DEA491DF450
310
1EFF5923FF521DFF4B18EB5325D26947C4CCBAFFFAF5FFFBFAFFF4F6FEFBFEFF
310
EFEAFFC4B0FF5938BF6839F35E2EFC4D25E85231ED5537F44E33D7755CCEEDDF
310
FFF2F4FFF6FFFEE5EFEFF4F7FFF1E3FF886DE55530CC6438EF4413DB6132FA4E
310
26D95238C4736BC2DCDFFFF3F8FFF8FBFFF0EAFF7A6DBB816CD97863DEA48FFF
310
8C7BEA7A70C3D2CFFFF4F4FFEBEDF8FFFEFFFFFFFEFEF3F5FFFDFFFFFDFEFEFE
310
FEFEFEFEFEFEFEFEFEFEFEFEFEFEFEFEFEFEFEFEFEFEFEFEFEFEFEFEFEFEFEFE
310
FEFEFEFEFEFEFEFEFEFEFEFEFEFEFEFEFEFEFEFEFEFEFEFEFEFEFEFEFEFEFEFE
310
FEFEFEFEFEFEFEFEFE00FEFEFEFEFEFEFEFEFEFEFEFEFEFEFEFEFEFEFEFEFEFE
310
FEFEFEFEFEFEFEFEFEFEFEFEFEFEFEFEFEFEFEFEFEFEFEFEFEFEFEFEFEFEFEFE
310
FEFEFEFEFEFEFEFEFEFEFEFEFCFEFEFCFFFDFAFFFBFEFFF8FFFFFBFFFBFFFFF9
310
FFFFF8FFFFF7FFFDF0FFFCF5FFF1F9EEEFEEFFC4A8FF6740E95634D45236D54C
310
32DA4E32E3532FE7522EE05A38D95C36DC5124E5542BEB5D3FE63C24BE4429C6
310
614ACEA496E8EAE2FFFFF5FFF7EBFFFFF6FFFFFBFFF8FFE7F2FCFC9F96EC553E
310
D04A2DDE4B2BE4472AD45134D74C2CD15031D2553BD54E36D64A2DE0492DDE4E
310
31CE5132CD532FDA5632DD5333CE685DBEE4F7FCECFCFF9681FF5331DC573CD2
310
4028BC4A2CD34D2DDF4C2DDC4B29E15228F14D26E64C32D2503DC8473ABA4737
310
C1563AE1522FE34C28D8532FD95834D44D2DBA583CB3D1C3FFF7FFFFF8FFEEED
310
FCF4EAF3FFD2D4FCA49AED7054E74F29E74B1DF95023FF5A34FE5735F45632F6
310
532DF74A20F7451AED4925E35834DE7F56EEC6A8FFFBF5FFF2F7F6F8F6FFF3F3
310
FFFBFEFFEBE8FF7660BF5331BE562FD94A26D8492ED2432BCF472FE1432EC0AD
310
A3E5EDEBFEFAFFFFFAFFFEEBEFFAF6F5FFF4EDFFD2C5FF7563C85A41C16D49EF
310
4118D15932EC5131D64234AA8784CCF0F3FFF0F3FFF6F4FFD0CAFF847CC98278
310
D2978DE77068BB9E9ADCE9E9FFF6F6FFEBEBFDFFFCFFFFFDFFFFF2F8FFFDFFFF
310
FDFEFEFEFEFEFEFEFEFEFEFEFEFEFEFEFEFEFEFEFEFEFEFEFEFEFEFEFEFEFEFE
310
FEFEFEFEFEFEFEFEFEFEFEFEFEFEFEFEFEFEFEFEFEFEFEFEFEFEFEFEFEFEFEFE
310
FEFEFEFEFEFEFEFEFEFEFEFEFE00FEFEFEFEFEFEFEFEFEFEFEFEFEFEFEFEFEFE
310
FEFEFEFEFEFEFEFEFEFEFEFEFEFEFEFEFEFEFEFEFEFEFEFEFEFEFEFEFEFEFEFE
310
FEFEFEFEFEFEFEFEFEFEFEFEFEFEFEFEFCFEFEFCFFFDFAFFFBFEFFF8FFFFFBFF
310
FBFFFFF9FFFFF8FFFFF7FFFFF5FFFFF9FFF8FFF4F4F5FFF3D8FF9F79FFA282FF
310
A78DFFA088FF9B82FF9F7FFF9C7AFFA788FFB291FF9F74FFAB85FF9980FFAC9B
310
FFD4BFFFDCCCFFE4DEFFFAFAFFE7E6E8FFFEFFFFF7FFFFFAFFF7FFE3F6FFFBE5
310
DEFF9F8CFF9D84FF9E84FF9A82FFA792FF9E84FFA18AFFA591FF9C8AFF9883FF
310
9D88FFAC9BFFA793FFA083FFAC8DFFAB8FFF978EE8E7FFF4E2F9F4CEC0FF9376
310
FFB7A4FFA18FFFA38BFFA489FF9A82FFA389FF9E78FFA27FFFA48FFFA599FF99
310
94FD938BFDA690FF9D82FFA687FFA789FFA58AFFAE93FFBAA1FFD4C9FFFAFFF4
310
F6FFD9F5FFDFF3FFEBF3FFFFECEDFFDAC5FFC09DFF9569FF6A3EFF4521E94223
310
DE4726E54E2CEF5029F75A36FA8669FFBA9DFFF4CEFFFBDFFFF0EEFAF6FEEDFD
310
FBFFFBF9FFE1E4E8F3F0FFA28AF0C39FFFA17EFF9E7EFFAA96FF9A88FF9E88FF
310
9E8FFFE6E2FFFDFFFBFBFFF9ECF3F0FAFAFFEEEDFFEAE4FFF3EDFFDFD6FFAC9E
310
FF8B6EFFB18DFFA77EFF9C7BFFAC9BFF9892E9D8D9FBEBF0FFF3F3FFF1EFFFE8
310
E5FFD4D0FFC9C5FFD4D3FFEFEDFFE9EAFFF6F5FFFAF9FFFEF7FFFFFCFFFFFBFF
310
FFF5F8FFFDFFFEFEFEFEFEFEFEFEFEFEFEFEFEFEFEFEFEFEFEFEFEFEFEFEFEFE
310
FEFEFEFEFEFEFEFEFEFEFEFEFEFEFEFEFEFEFEFEFEFEFEFEFEFEFEFEFEFEFEFE
310
FEFEFEFEFEFEFEFEFEFEFEFEFEFEFEFEFE000000000000000000000000000000
310
0000000000000000000000000000000000000000000000000000000000000000
310
0000000000000000000000000000000000000000000000000000000000000000
310
0000000000000000000000000000000000000000000000000000000000000000
310
0000000000000000000000000000000000000000000000000000000000000000
310
0000000000000000000000000000000000000000000000000000000000000000
310
0000000000000000000000000000000000000000000000000000000000000000
310
0000000000000000000000000000000000000000000000000000000000000000
310
0000000000000000000000000000000000000000000000000000000000000000
310
0000000000000000000000000000000000000000000000000000000000000000
310
0000000000000000000000000000000000000000000000000000000000000000
310
0000000000000000000000000000000000000000000000000000000000000000
310
0000000000000000000000000000000000000000000000000000000000000000
310
0000000000000000000000000000000000000000000000000000000000000000
310
01004F006C006500310030004900740065006D004E0061006D00650000000000
310
0000000000000000000000000000000000000000000000000000000000000000
310
1E000200FFFFFFFFFFFFFFFFFFFFFFFF00000000000000000000000000000000
310
0000000000000000000000000000000000000000030000000500000000000000
310
0000000000000000000000000000000000000000000000000000000000000000
310
0000000000000000000000000000000000000000000000000000000000000000
310
00000000FFFFFFFFFFFFFFFFFFFFFFFF00000000000000000000000000000000
310
0000000000000000000000000000000000000000000000000000000000000000
310
0000000000000000000000000000000000000000000000000000000000000000
310
0000000000000000000000000000000000000000000000000000000000000000
310
00000000FFFFFFFFFFFFFFFFFFFFFFFF00000000000000000000000000000000
310
0000000000000000000000000000000000000000000000000000000000000000
310
0000000000000000000000000000000000000000000000000000000000000000
310
0000000000000000000000000000000000000000000000000000000000000000
310
00000000FFFFFFFFFFFFFFFFFFFFFFFF00000000000000000000000000000000
310
0000000000000000000000000000000000000000000000000000000000000000
  1
OLE
  0
ENDSEC
  0
SECTION
  2
OBJECTS
  0
DICTIONARY
  5
C
330
0
100
AcDbDictionary
281
     1
  3
ACAD_DETAILVIEWSTYLE
350
2A6
  3
ACAD_GROUP
350
D
  3
ACAD_LAYOUT
350
1A
  3
ACAD_MATERIAL
350
43
  3
ACAD_MLEADERSTYLE
350
6B
  3
ACAD_MLINESTYLE
350
17
  3
ACAD_PLOTSETTINGS
350
19
  3
ACAD_PLOTSTYLENAME
350
E
  3
ACAD_SCALELIST
350
47
  3
ACAD_SECTIONVIEWSTYLE
350
2A7
  3
ACAD_TABLESTYLE
350
69
  3
ACAD_VISUALSTYLE
350
2A
  3
ACDB_RECOMPOSE_DATA
350
2A3
  3
AcDbVariableDictionary
350
29F
  0
SUN
  5
6D
330
29
100
AcDbSun
 90
        1
290
     0
 63
     7
421
 16777215
 40
1.0
291
     1
 91
  2455826
 92
 54000000
292
     0
 70
     2
 71
   256
280
     1
  0
DICTIONARY
  5
2A6
102
{ACAD_REACTORS
330
C
102
}
330
C
100
AcDbDictionary
281
     1
  0
DICTIONARY
  5
D
102
{ACAD_REACTORS
330
C
102
}
330
C
100
AcDbDictionary
281
     1
  0
DICTIONARY
  5
1A
102
{ACAD_REACTORS
330
C
102
}
330
C
100
AcDbDictionary
281
     1
  3
Layout1
350
1E
  3
Layout2
350
26
  3
Model
350
22
  0
DICTIONARY
  5
43
102
{ACAD_REACTORS
330
C
102
}
330
C
100
AcDbDictionary
281
     1
  3
ByBlock
350
45
  3
ByLayer
350
44
  3
Global
350
46
  0
DICTIONARY
  5
6B
102
{ACAD_REACTORS
330
C
102
}
330
C
100
AcDbDictionary
281
     1
  3
Standard
350
6C
  0
DICTIONARY
  5
17
102
{ACAD_REACTORS
330
C
102
}
330
C
100
AcDbDictionary
281
     1
  3
Standard
350
18
  0
DICTIONARY
  5
19
102
{ACAD_REACTORS
330
C
102
}
330
C
100
AcDbDictionary
281
     1
  0
ACDBDICTIONARYWDFLT
  5
E
102
{ACAD_REACTORS
330
C
102
}
330
C
100
AcDbDictionary
281
     1
  3
Normal
350
F
100
AcDbDictionaryWithDefault
340
F
  0
DICTIONARY
  5
47
102
{ACAD_REACTORS
330
C
102
}
330
C
100
AcDbDictionary
281
     1
  3
A0
350
48
  3
A1
350
49
  3
A2
350
4A
  3
A3
350
4B
  3
A4
350
4C
  3
A5
350
4D
  3
A6
350
4E
  3
A7
350
4F
  3
A8
350
50
  3
A9
350
51
  3
B0
350
52
  3
B1
350
53
  3
B2
350
54
  3
B3
350
55
  3
B4
350
56
  3
B5
350
57
  3
B6
350
58
  3
B7
350
59
  3
B8
350
5A
  3
B9
350
5B
  3
C0
350
5C
  3
C1
350
5D
  3
C2
350
5E
  3
C3
350
5F
  3
C4
350
60
  3
C5
350
61
  3
C6
350
62
  3
C7
350
63
  3
C8
350
64
  3
C9
350
65
  3
D0
350
66
  3
D1
350
67
  3
D2
350
68
  0
DICTIONARY
  5
2A7
102
{ACAD_REACTORS
330
C
102
}
330
C
100
AcDbDictionary
281
     1
  0
DICTIONARY
  5
69
102
{ACAD_REACTORS
330
C
102
}
330
C
100
AcDbDictionary
281
     1
  3
Standard
350
6A
  0
DICTIONARY
  5
2A
102
{ACAD_REACTORS
330
C
102
}
330
C
100
AcDbDictionary
281
     1
  3
2dWireframe
350
2F
  3
Basic
350
32
  3
Brighten
350
36
  3
ColorChange
350
3A
  3
Conceptual
350
34
  3
Dim
350
35
  3
EdgeColorOff
350
3D
  3
Facepattern
350
39
  3
Flat
350
2B
  3
FlatWithEdges
350
2C
  3
Gouraud
350
2D
  3
GouraudWithEdges
350
2E
  3
Hidden
350
31
  3
JitterOff
350
3B
  3
Linepattern
350
38
  3
OverhangOff
350
3C
  3
Realistic
350
33
  3
Shaded
350
42
  3
Shaded with edges
350
41
  3
Shades of Gray
350
3E
  3
Sketchy
350
3F
  3
Thicken
350
37
  3
Wireframe
350
30
  3
X-Ray
350
40
  0
XRECORD
  5
2A3
102
{ACAD_REACTORS
330
C
102
}
330
C
100
AcDbXrecord
280
     1
 90
        1
330
6A
  0
DICTIONARY
  5
29F
102
{ACAD_REACTORS
330
C
102
}
330
C
100
AcDbDictionary
281
     1
  3
CANNOSCALE
350
2A0
  3
CMLEADERSTYLE
350
2A5
  3
CTABLESTYLE
350
2A4
  3
SECTIONTHICKNESSINC
350
2A8
  0
LAYOUT
  5
1E
102
{ACAD_REACTORS
330
1A
102
}
330
1A
100
AcDbPlotSettings
  1

  2
none_device
  4

  6

 40
0.0
 41
0.0
 42
0.0
 43
0.0
 44
0.0
 45
0.0
 46
0.0
 47
0.0
 48
0.0
 49
0.0
140
0.0
141
0.0
142
1.0
143
1.0
 70
   688
 72
     1
 73
     0
 74
     5
  7

 75
    16
 76
     0
 77
     2
 78
   300
147
1.0
148
0.0
149
0.0
100
AcDbLayout
  1
Layout1
 70
     1
 71
     1
 10
0.0
 20
0.0
 11
420.0
 21
297.0
 12
0.0
 22
0.0
 32
0.0
 14
1.0000000000E+20
 24
1.0000000000E+20
 34
1.0000000000E+20
 15
-1.0000000000E+20
 25
-1.0000000000E+20
 35
-1.0000000000E+20
146
0.0
 13
0.0
 23
0.0
 33
0.0
 16
1.0
 26
0.0
 36
0.0
 17
0.0
 27
1.0
 37
0.0
 76
     0
330
1B
  0
LAYOUT
  5
26
102
{ACAD_REACTORS
330
1A
102
}
330
1A
100
AcDbPlotSettings
  1

  2
none_device
  4

  6

 40
0.0
 41
0.0
 42
0.0
 43
0.0
 44
0.0
 45
0.0
 46
0.0
 47
0.0
 48
0.0
 49
0.0
140
0.0
141
0.0
142
1.0
143
1.0
 70
   688
 72
     1
 73
     0
 74
     5
  7

 75
    16
 76
     0
 77
     2
 78
   300
147
1.0
148
0.0
149
0.0
100
AcDbLayout
  1
Layout2
 70
     1
 71
     2
 10
0.0
 20
0.0
 11
0.0
 21
0.0
 12
0.0
 22
0.0
 32
0.0
 14
0.0
 24
0.0
 34
0.0
 15
0.0
 25
0.0
 35
0.0
146
0.0
 13
0.0
 23
0.0
 33
0.0
 16
1.0
 26
0.0
 36
0.0
 17
0.0
 27
1.0
 37
0.0
 76
     0
330
23
  0
LAYOUT
  5
22
102
{ACAD_REACTORS
330
1A
102
}
330
1A
100
AcDbPlotSettings
  1

  2
none_device
  4
Letter_(8.50_x_11.00_Inches)
  6

 40
6.35
 41
6.35
 42
6.35000508
 43
6.35000508
 44
215.9
 45
279.4
 46
0.0
 47
0.0
 48
0.0
 49
0.0
140
0.0
141
0.0
142
1.0
143
1.0
 70
  1712
 72
     1
 73
     0
 74
     0
  7

 75
     0
 76
     0
 77
     2
 78
   300
147
1.0
148
0.0
149
0.0
100
AcDbLayout
  1
Model
 70
     1
 71
     0
 10
0.0
 20
0.0
 11
5940.0
 21
4200.0
 12
0.0
 22
0.0
 32
0.0
 14
0.0
 24
0.0
 34
0.0
 15
5940.0
 25
4200.0
 35
0.0
146
0.0
 13
0.0
 23
0.0
 33
0.0
 16
1.0
 26
0.0
 36
0.0
 17
0.0
 27
1.0
 37
0.0
 76
     0
330
1F
331
29
  0
MATERIAL
  5
45
102
{ACAD_REACTORS
330
43
102
}
330
43
100
AcDbMaterial
  1
ByBlock
 72
     1
 94
      127
  0
MATERIAL
  5
44
102
{ACAD_REACTORS
330
43
102
}
330
43
100
AcDbMaterial
  1
ByLayer
 72
     1
 94
      127
  0
MATERIAL
  5
46
102
{ACAD_REACTORS
330
43
102
}
330
43
100
AcDbMaterial
  1
Global
 72
     1
 94
      127
  0
MLEADERSTYLE
  5
6C
102
{ACAD_REACTORS
330
6B
102
}
330
6B
100
AcDbMLeaderStyle
179
     2
170
     2
171
     1
172
     0
 90
        2
 40
0.0
 41
0.0
173
     1
 91
-1056964608
340
14
 92
       -2
290
     1
 42
2.0
291
     1
 43
8.0
  3
Standard
341
0
 44
4.0
300

342
11
174
     1
178
     6
175
     1
176
     0
 93
-1056964608
 45
4.0
292
     0
297
     0
 46
4.0
343
0
 94
-1056964608
 47
1.0
 49
1.0
140
1.0
293
     1
141
0.0
294
     1
177
     0
142
1.0
295
     0
296
     0
143
3.75
271
     0
272
     9
273
     9
298
     0
  0
MLINESTYLE
  5
18
102
{ACAD_REACTORS
330
17
102
}
330
17
100
AcDbMlineStyle
  2
Standard
 70
     0
  3

 62
   256
 51
90.0
 52
90.0
 71
     2
 49
0.5
 62
   256
  6
BYLAYER
 49
-0.5
 62
   256
  6
BYLAYER
  0
ACDBPLACEHOLDER
  5
F
102
{ACAD_REACTORS
330
E
102
}
330
E
  0
SCALE
  5
48
102
{ACAD_REACTORS
330
47
102
}
330
47
100
AcDbScale
 70
     0
300
1:1
140
1.0
141
1.0
290
     1
  0
SCALE
  5
49
102
{ACAD_REACTORS
330
47
102
}
330
47
100
AcDbScale
 70
     0
300
1:2
140
1.0
141
2.0
290
     0
  0
SCALE
  5
4A
102
{ACAD_REACTORS
330
47
102
}
330
47
100
AcDbScale
 70
     0
300
1:4
140
1.0
141
4.0
290
     0
  0
SCALE
  5
4B
102
{ACAD_REACTORS
330
47
102
}
330
47
100
AcDbScale
 70
     0
300
1:5
140
1.0
141
5.0
290
     0
  0
SCALE
  5
4C
102
{ACAD_REACTORS
330
47
102
}
330
47
100
AcDbScale
 70
     0
300
1:8
140
1.0
141
8.0
290
     0
  0
SCALE
  5
4D
102
{ACAD_REACTORS
330
47
102
}
330
47
100
AcDbScale
 70
     0
300
1:10
140
1.0
141
10.0
290
     0
  0
SCALE
  5
4E
102
{ACAD_REACTORS
330
47
102
}
330
47
100
AcDbScale
 70
     0
300
1:16
140
1.0
141
16.0
290
     0
  0
SCALE
  5
4F
102
{ACAD_REACTORS
330
47
102
}
330
47
100
AcDbScale
 70
     0
300
1:20
140
1.0
141
20.0
290
     0
  0
SCALE
  5
50
102
{ACAD_REACTORS
330
47
102
}
330
47
100
AcDbScale
 70
     0
300
1:30
140
1.0
141
30.0
290
     0
  0
SCALE
  5
51
102
{ACAD_REACTORS
330
47
102
}
330
47
100
AcDbScale
 70
     0
300
1:40
140
1.0
141
40.0
290
     0
  0
SCALE
  5
52
102
{ACAD_REACTORS
330
47
102
}
330
47
100
AcDbScale
 70
     0
300
1:50
140
1.0
141
50.0
290
     0
  0
SCALE
  5
53
102
{ACAD_REACTORS
330
47
102
}
330
47
100
AcDbScale
 70
     0
300
1:100
140
1.0
141
100.0
290
     0
  0
SCALE
  5
54
102
{ACAD_REACTORS
330
47
102
}
330
47
100
AcDbScale
 70
     0
300
2:1
140
2.0
141
1.0
290
     0
  0
SCALE
  5
55
102
{ACAD_REACTORS
330
47
102
}
330
47
100
AcDbScale
 70
     0
300
4:1
140
4.0
141
1.0
290
     0
  0
SCALE
  5
56
102
{ACAD_REACTORS
330
47
102
}
330
47
100
AcDbScale
 70
     0
300
8:1
140
8.0
141
1.0
290
     0
  0
SCALE
  5
57
102
{ACAD_REACTORS
330
47
102
}
330
47
100
AcDbScale
 70
     0
300
10:1
140
10.0
141
1.0
290
     0
  0
SCALE
  5
58
102
{ACAD_REACTORS
330
47
102
}
330
47
100
AcDbScale
 70
     0
300
100:1
140
100.0
141
1.0
290
     0
  0
SCALE
  5
59
102
{ACAD_REACTORS
330
47
102
}
330
47
100
AcDbScale
 70
     0
300
1/128" = 1'-0"
140
0.0078125
141
12.0
290
     0
  0
SCALE
  5
5A
102
{ACAD_REACTORS
330
47
102
}
330
47
100
AcDbScale
 70
     0
300
1/64" = 1'-0"
140
0.015625
141
12.0
290
     0
  0
SCALE
  5
5B
102
{ACAD_REACTORS
330
47
102
}
330
47
100
AcDbScale
 70
     0
300
1/32" = 1'-0"
140
0.03125
141
12.0
290
     0
  0
SCALE
  5
5C
102
{ACAD_REACTORS
330
47
102
}
330
47
100
AcDbScale
 70
     0
300
1/16" = 1'-0"
140
0.0625
141
12.0
290
     0
  0
SCALE
  5
5D
102
{ACAD_REACTORS
330
47
102
}
330
47
100
AcDbScale
 70
     0
300
3/32" = 1'-0"
140
0.09375
141
12.0
290
     0
  0
SCALE
  5
5E
102
{ACAD_REACTORS
330
47
102
}
330
47
100
AcDbScale
 70
     0
300
1/8" = 1'-0"
140
0.125
141
12.0
290
     0
  0
SCALE
  5
5F
102
{ACAD_REACTORS
330
47
102
}
330
47
100
AcDbScale
 70
     0
300
3/16" = 1'-0"
140
0.1875
141
12.0
290
     0
  0
SCALE
  5
60
102
{ACAD_REACTORS
330
47
102
}
330
47
100
AcDbScale
 70
     0
300
1/4" = 1'-0"
140
0.25
141
12.0
290
     0
  0
SCALE
  5
61
102
{ACAD_REACTORS
330
47
102
}
330
47
100
AcDbScale
 70
     0
300
3/8" = 1'-0"
140
0.375
141
12.0
290
     0
  0
SCALE
  5
62
102
{ACAD_REACTORS
330
47
102
}
330
47
100
AcDbScale
 70
     0
300
1/2" = 1'-0"
140
0.5
141
12.0
290
     0
  0
SCALE
  5
63
102
{ACAD_REACTORS
330
47
102
}
330
47
100
AcDbScale
 70
     0
300
3/4" = 1'-0"
140
0.75
141
12.0
290
     0
  0
SCALE
  5
64
102
{ACAD_REACTORS
330
47
102
}
330
47
100
AcDbScale
 70
     0
300
1" = 1'-0"
140
1.0
141
12.0
290
     0
  0
SCALE
  5
65
102
{ACAD_REACTORS
330
47
102
}
330
47
100
AcDbScale
 70
     0
300
1-1/2" = 1'-0"
140
1.5
141
12.0
290
     0
  0
SCALE
  5
66
102
{ACAD_REACTORS
330
47
102
}
330
47
100
AcDbScale
 70
     0
300
3" = 1'-0"
140
3.0
141
12.0
290
     0
  0
SCALE
  5
67
102
{ACAD_REACTORS
330
47
102
}
330
47
100
AcDbScale
 70
     0
300
6" = 1'-0"
140
6.0
141
12.0
290
     0
  0
SCALE
  5
68
102
{ACAD_REACTORS
330
47
102
}
330
47
100
AcDbScale
 70
     0
300
1'-0" = 1'-0"
140
12.0
141
12.0
290
     0
  0
TABLESTYLE
  5
6A
102
{ACAD_REACTORS
330
69
102
}
102
{ACAD_XDICTIONARY
360
2A1
102
}
330
69
100
AcDbTableStyle
  3
Standard
 70
     0
 71
     0
 40
0.06
 41
0.06
280
     0
281
     0
  7
Standard
140
4.5
170
     2
 62
     0
 63
   257
283
     0
 90
        4
 91
        0
  1

274
    -2
284
     1
 64
     0
275
    -2
285
     1
 65
     0
276
    -2
286
     1
 66
     0
277
    -2
287
     1
 67
     0
278
    -2
288
     1
 68
     0
279
    -2
289
     1
 69
     0
  7
Standard
140
6.0
170
     5
 62
     0
 63
   257
283
     0
 90
        4
 91
        0
  1

274
    -2
284
     1
 64
     0
275
    -2
285
     1
 65
     0
276
    -2
286
     1
 66
     0
277
    -2
287
     1
 67
     0
278
    -2
288
     1
 68
     0
279
    -2
289
     1
 69
     0
  7
Standard
140
4.5
170
     5
 62
     0
 63
   257
283
     0
 90
        4
 91
        0
  1

274
    -2
284
     1
 64
     0
275
    -2
285
     1
 65
     0
276
    -2
286
     1
 66
     0
277
    -2
287
     1
 67
     0
278
    -2
288
     1
 68
     0
279
    -2
289
     1
 69
     0
  0
VISUALSTYLE
  5
2F
102
{ACAD_REACTORS
330
2A
102
}
330
2A
100
AcDbVisualStyle
  2
2dWireframe
 70
     4
177
     3
291
     0
 70
    58
 90
        0
176
     1
 90
        2
176
     1
 90
        0
176
     1
 90
        0
176
     1
 40
0.6
176
     1
 40
30.0
176
     1
 62
     7
420
 16777215
176
     1
 90
        1
176
     1
 90
        4
176
     1
 62
     7
176
     1
 62
   257
176
     1
 90
        1
176
     1
 90
        1
176
     1
 40
1.0
176
     1
 90
        0
176
     1
 62
   257
176
     1
 40
1.0
176
     1
 90
        1
176
     1
 90
        6
176
     1
 90
        2
176
     1
 62
     7
176
     1
 90
        5
176
     1
 90
        0
176
     1
 90
        0
176
     1
290
     0
176
     1
 90
        1
176
     1
 40
0.0
176
     1
 90
        0
176
     1
290
     1
176
     1
290
     1
176
     1
290
     0
176
     1
290
     0
176
     1
290
     0
176
     1
290
     0
176
     1
290
     0
176
     1
290
     0
176
     1
290
     0
176
     1
 90
       50
176
     1
 40
0.0
176
     1
 40
1.0
176
     1
 90
        0
176
     1
 62
    18
420
        0
176
     1
 90
       50
176
     1
 90
        3
176
     1
 62
     5
420
      255
176
     1
290
     0
176
     1
 90
       50
176
     1
 90
       50
176
     1
 90
       50
176
     1
290
     0
176
     1
 90
       50
176
     1
 62
   256
176
     0
 40
1.0
176
     0
 90
        2
176
     1
  1
strokes_ogs.tif
176
     1
290
     0
176
     1
 40
1.0
176
     1
 40
1.0
176
     1
  0
VISUALSTYLE
  5
32
102
{ACAD_REACTORS
330
2A
102
}
330
2A
100
AcDbVisualStyle
  2
Basic
 70
     7
177
     3
291
     1
 70
    58
 90
        1
176
     1
 90
        0
176
     1
 90
        1
176
     1
 90
        0
176
     1
 40
0.6
176
     1
 40
30.0
176
     1
 62
     7
420
 16777215
176
     1
 90
        0
176
     1
 90
        4
176
     1
 62
     7
176
     1
 62
   257
176
     1
 90
        1
176
     1
 90
        1
176
     1
 40
1.0
176
     1
 90
        8
176
     1
 62
     7
176
     1
 40
1.0
176
     1
 90
        1
176
     1
 90
        6
176
     1
 90
        2
176
     1
 62
     7
176
     1
 90
        5
176
     1
 90
        0
176
     1
 90
        0
176
     1
290
     0
176
     1
 90
        1
176
     1
 40
0.0
176
     1
 90
        0
176
     1
290
     0
176
     1
290
     1
176
     1
290
     1
176
     1
290
     0
176
     1
290
     0
176
     1
290
     0
176
     1
290
     0
176
     1
290
     0
176
     1
290
     0
176
     1
 90
       50
176
     1
 40
0.0
176
     1
 40
1.0
176
     1
 90
        0
176
     1
 62
    18
420
        0
176
     1
 90
       50
176
     1
 90
        3
176
     1
 62
     5
420
      255
176
     1
290
     0
176
     1
 90
       50
176
     1
 90
       50
176
     1
 90
       50
176
     1
290
     0
176
     1
 90
       50
176
     1
 62
   256
176
     0
 40
1.0
176
     0
 90
        2
176
     1
  1
strokes_ogs.tif
176
     1
290
     0
176
     1
 40
1.0
176
     1
 40
1.0
176
     1
  0
VISUALSTYLE
  5
36
102
{ACAD_REACTORS
330
2A
102
}
330
2A
100
AcDbVisualStyle
  2
Brighten
 70
    12
177
     3
291
     1
 70
    58
 90
        2
176
     1
 90
        2
176
     1
 90
        0
176
     1
 90
        0
176
     1
 40
0.6
176
     1
 40
30.0
176
     1
 62
     7
420
 16777215
176
     1
 90
        1
176
     1
 90
        4
176
     1
 62
     7
176
     1
 62
   257
176
     1
 90
        1
176
     1
 90
        1
176
     1
 40
1.0
176
     1
 90
        8
176
     1
 62
     7
176
     1
 40
1.0
176
     1
 90
        1
176
     1
 90
        6
176
     1
 90
        2
176
     1
 62
     7
176
     1
 90
        5
176
     1
 90
        0
176
     1
 90
        0
176
     1
290
     0
176
     1
 90
        1
176
     1
 40
50.0
176
     1
 90
        0
176
     1
290
     0
176
     1
290
     1
176
     1
290
     1
176
     1
290
     0
176
     1
290
     0
176
     1
290
     0
176
     1
290
     0
176
     1
290
     0
176
     1
290
     0
176
     1
 90
       50
176
     1
 40
0.0
176
     1
 40
1.0
176
     1
 90
        0
176
     1
 62
    18
420
        0
176
     1
 90
       50
176
     1
 90
        3
176
     1
 62
     5
420
      255
176
     1
290
     0
176
     1
 90
       50
176
     1
 90
       50
176
     1
 90
       50
176
     1
290
     0
176
     1
 90
       50
176
     1
 62
   256
176
     0
 40
1.0
176
     0
 90
        2
176
     1
  1
strokes_ogs.tif
176
     1
290
     0
176
     1
 40
1.0
176
     1
 40
1.0
176
     1
  0
VISUALSTYLE
  5
3A
102
{ACAD_REACTORS
330
2A
102
}
330
2A
100
AcDbVisualStyle
  2
ColorChange
 70
    16
177
     3
291
     1
 70
    58
 90
        2
176
     1
 90
        2
176
     1
 90
        3
176
     1
 90
        0
176
     1
 40
0.6
176
     1
 40
30.0
176
     1
 62
     8
420
  8421504
176
     1
 90
        1
176
     1
 90
        4
176
     1
 62
     7
176
     1
 62
   257
176
     1
 90
        1
176
     1
 90
        1
176
     1
 40
1.0
176
     1
 90
        8
176
     1
 62
     8
420
  8421504
176
     1
 40
1.0
176
     1
 90
        1
176
     1
 90
        6
176
     1
 90
        2
176
     1
 62
     7
176
     1
 90
        5
176
     1
 90
        0
176
     1
 90
        0
176
     1
290
     0
176
     1
 90
        1
176
     1
 40
0.0
176
     1
 90
        0
176
     1
290
     0
176
     1
290
     1
176
     1
290
     1
176
     1
290
     0
176
     1
290
     0
176
     1
290
     0
176
     1
290
     0
176
     1
290
     0
176
     1
290
     0
176
     1
 90
       50
176
     1
 40
0.0
176
     1
 40
1.0
176
     1
 90
        0
176
     1
 62
    18
420
        0
176
     1
 90
       50
176
     1
 90
        3
176
     1
 62
     5
420
      255
176
     1
290
     0
176
     1
 90
       50
176
     1
 90
       50
176
     1
 90
       50
176
     1
290
     0
176
     1
 90
       50
176
     1
 62
   256
176
     0
 40
1.0
176
     0
 90
        2
176
     1
  1
strokes_ogs.tif
176
     1
290
     0
176
     1
 40
1.0
176
     1
 40
1.0
176
     1
  0
VISUALSTYLE
  5
34
102
{ACAD_REACTORS
330
2A
102
}
330
2A
100
AcDbVisualStyle
  2
Conceptual
 70
     9
177
     3
291
     0
 70
    58
 90
        3
176
     1
 90
        2
176
     1
 90
        0
176
     1
 90
        0
176
     1
 40
0.6
176
     1
 40
30.0
176
     1
 62
     7
420
 16777215
176
     1
 90
        2
176
     1
 90
        2
176
     1
 62
     7
176
     1
 62
   257
176
     1
 90
        1
176
     1
 90
        1
176
     1
 40
179.0
176
     1
 90
        8
176
     1
 62
     7
176
     1
 40
1.0
176
     1
 90
        1
176
     1
 90
        6
176
     1
 90
        2
176
     1
 62
     7
176
     1
 90
        3
176
     1
 90
        0
176
     1
 90
        0
176
     1
290
     0
176
     1
 90
        1
176
     1
 40
0.0
176
     1
 90
        0
176
     1
290
     0
176
     1
290
     1
176
     1
290
     1
176
     1
290
     0
176
     1
290
     0
176
     1
290
     0
176
     1
290
     0
176
     1
290
     0
176
     1
290
     0
176
     1
 90
       50
176
     1
 40
0.0
176
     1
 40
1.0
176
     1
 90
        0
176
     1
 62
    18
420
        0
176
     1
 90
       50
176
     1
 90
        3
176
     1
 62
     5
420
      255
176
     1
290
     0
176
     1
 90
       50
176
     1
 90
       50
176
     1
 90
       50
176
     1
290
     0
176
     1
 90
       50
176
     1
 62
   256
176
     0
 40
1.0
176
     0
 90
        2
176
     1
  1
strokes_ogs.tif
176
     1
290
     0
176
     1
 40
1.0
176
     1
 40
1.0
176
     1
  0
VISUALSTYLE
  5
35
102
{ACAD_REACTORS
330
2A
102
}
330
2A
100
AcDbVisualStyle
  2
Dim
 70
    11
177
     3
291
     1
 70
    58
 90
        2
176
     1
 90
        2
176
     1
 90
        0
176
     1
 90
        0
176
     1
 40
0.6
176
     1
 40
30.0
176
     1
 62
     7
420
 16777215
176
     1
 90
        1
176
     1
 90
        4
176
     1
 62
     7
176
     1
 62
   257
176
     1
 90
        1
176
     1
 90
        1
176
     1
 40
1.0
176
     1
 90
        8
176
     1
 62
     7
176
     1
 40
1.0
176
     1
 90
        1
176
     1
 90
        6
176
     1
 90
        2
176
     1
 62
     7
176
     1
 90
        5
176
     1
 90
        0
176
     1
 90
        0
176
     1
290
     0
176
     1
 90
        1
176
     1
 40
-50.0
176
     1
 90
        0
176
     1
290
     0
176
     1
290
     1
176
     1
290
     1
176
     1
290
     0
176
     1
290
     0
176
     1
290
     0
176
     1
290
     0
176
     1
290
     0
176
     1
290
     0
176
     1
 90
       50
176
     1
 40
0.0
176
     1
 40
1.0
176
     1
 90
        0
176
     1
 62
    18
420
        0
176
     1
 90
       50
176
     1
 90
        3
176
     1
 62
     5
420
      255
176
     1
290
     0
176
     1
 90
       50
176
     1
 90
       50
176
     1
 90
       50
176
     1
290
     0
176
     1
 90
       50
176
     1
 62
   256
176
     0
 40
1.0
176
     0
 90
        2
176
     1
  1
strokes_ogs.tif
176
     1
290
     0
176
     1
 40
1.0
176
     1
 40
1.0
176
     1
  0
VISUALSTYLE
  5
3D
102
{ACAD_REACTORS
330
2A
102
}
330
2A
100
AcDbVisualStyle
  2
EdgeColorOff
 70
    22
177
     3
291
     1
 70
    58
 90
        2
176
     0
 90
        2
176
     0
 90
        0
176
     0
 90
        0
176
     0
 40
0.6
176
     0
 40
30.0
176
     0
 62
     7
420
 16777215
176
     0
 90
        1
176
     0
 90
        4
176
     0
 62
     7
176
     0
 62
   257
176
     0
 90
        1
176
     0
 90
        1
176
     0
 40
1.0
176
     0
 90
        8
176
     2
 62
     7
176
     0
 40
1.0
176
     0
 90
        1
176
     0
 90
        6
176
     0
 90
        2
176
     0
 62
     7
176
     0
 90
        5
176
     0
 90
        0
176
     0
 90
        0
176
     0
290
     0
176
     0
 90
        1
176
     0
 40
0.0
176
     0
 90
        0
176
     0
290
     0
176
     0
290
     1
176
     0
290
     1
176
     0
290
     0
176
     0
290
     0
176
     0
290
     0
176
     0
290
     0
176
     0
290
     0
176
     0
290
     0
176
     0
 90
       50
176
     0
 40
0.0
176
     0
 40
1.0
176
     0
 90
        0
176
     0
 62
    18
420
        0
176
     0
 90
       50
176
     0
 90
        3
176
     0
 62
     5
420
      255
176
     0
290
     0
176
     0
 90
       50
176
     0
 90
       50
176
     0
 90
       50
176
     0
290
     0
176
     0
 90
       50
176
     0
 62
   256
176
     0
 40
1.0
176
     0
 90
        2
176
     0
  1
strokes_ogs.tif
176
     0
290
     0
176
     0
 40
1.0
176
     0
 40
1.0
176
     0
  0
VISUALSTYLE
  5
39
102
{ACAD_REACTORS
330
2A
102
}
330
2A
100
AcDbVisualStyle
  2
Facepattern
 70
    15
177
     3
291
     1
 70
    58
 90
        2
176
     1
 90
        2
176
     1
 90
        0
176
     1
 90
        0
176
     1
 40
0.6
176
     1
 40
30.0
176
     1
 62
     7
420
 16777215
176
     1
 90
        1
176
     1
 90
        4
176
     1
 62
     7
176
     1
 62
   257
176
     1
 90
        1
176
     1
 90
        1
176
     1
 40
1.0
176
     1
 90
        8
176
     1
 62
     7
176
     1
 40
1.0
176
     1
 90
        1
176
     1
 90
        6
176
     1
 90
        2
176
     1
 62
     7
176
     1
 90
        5
176
     1
 90
        0
176
     1
 90
        0
176
     1
290
     0
176
     1
 90
        1
176
     1
 40
0.0
176
     1
 90
        0
176
     1
290
     0
176
     1
290
     1
176
     1
290
     1
176
     1
290
     0
176
     1
290
     0
176
     1
290
     0
176
     1
290
     0
176
     1
290
     0
176
     1
290
     0
176
     1
 90
       50
176
     1
 40
0.0
176
     1
 40
1.0
176
     1
 90
        0
176
     1
 62
    18
420
        0
176
     1
 90
       50
176
     1
 90
        3
176
     1
 62
     5
420
      255
176
     1
290
     0
176
     1
 90
       50
176
     1
 90
       50
176
     1
 90
       50
176
     1
290
     0
176
     1
 90
       50
176
     1
 62
   256
176
     0
 40
1.0
176
     0
 90
        2
176
     1
  1
strokes_ogs.tif
176
     1
290
     0
176
     1
 40
1.0
176
     1
 40
1.0
176
     1
  0
VISUALSTYLE
  5
2B
102
{ACAD_REACTORS
330
2A
102
}
330
2A
100
AcDbVisualStyle
  2
Flat
 70
     0
177
     3
291
     1
 70
    58
 90
        2
176
     1
 90
        1
176
     1
 90
        1
176
     1
 90
        2
176
     1
 40
0.6
176
     1
 40
30.0
176
     1
 62
     7
420
 16777215
176
     1
 90
        0
176
     1
 90
        0
176
     1
 62
     7
176
     1
 62
   257
176
     1
 90
        1
176
     1
 90
        1
176
     1
 40
1.0
176
     1
 90
        8
176
     1
 62
     7
176
     1
 40
1.0
176
     1
 90
        1
176
     1
 90
        6
176
     1
 90
        2
176
     1
 62
     7
176
     1
 90
        5
176
     1
 90
        0
176
     1
 90
        0
176
     1
290
     0
176
     1
 90
       13
176
     1
 40
0.0
176
     1
 90
        0
176
     1
290
     0
176
     1
290
     1
176
     1
290
     1
176
     1
290
     0
176
     1
290
     0
176
     1
290
     0
176
     1
290
     0
176
     1
290
     0
176
     1
290
     0
176
     1
 90
       50
176
     1
 40
0.0
176
     1
 40
1.0
176
     1
 90
        0
176
     1
 62
    18
420
        0
176
     1
 90
       50
176
     1
 90
        3
176
     1
 62
     5
420
      255
176
     1
290
     0
176
     1
 90
       50
176
     1
 90
       50
176
     1
 90
       50
176
     1
290
     0
176
     1
 90
       50
176
     1
 62
   256
176
     0
 40
1.0
176
     0
 90
        2
176
     1
  1
strokes_ogs.tif
176
     1
290
     0
176
     1
 40
1.0
176
     1
 40
1.0
176
     1
  0
VISUALSTYLE
  5
2C
102
{ACAD_REACTORS
330
2A
102
}
330
2A
100
AcDbVisualStyle
  2
FlatWithEdges
 70
     1
177
     3
291
     1
 70
    58
 90
        2
176
     1
 90
        1
176
     1
 90
        1
176
     1
 90
        2
176
     1
 40
0.6
176
     1
 40
30.0
176
     1
 62
     7
420
 16777215
176
     1
 90
        1
176
     1
 90
        0
176
     1
 62
     7
176
     1
 62
   257
176
     1
 90
        1
176
     1
 90
        1
176
     1
 40
1.0
176
     1
 90
        0
176
     1
 62
   257
176
     1
 40
1.0
176
     1
 90
        1
176
     1
 90
        6
176
     1
 90
        2
176
     1
 62
     7
176
     1
 90
        5
176
     1
 90
        0
176
     1
 90
        0
176
     1
290
     0
176
     1
 90
       13
176
     1
 40
0.0
176
     1
 90
        0
176
     1
290
     0
176
     1
290
     1
176
     1
290
     1
176
     1
290
     0
176
     1
290
     0
176
     1
290
     0
176
     1
290
     0
176
     1
290
     0
176
     1
290
     0
176
     1
 90
       50
176
     1
 40
0.0
176
     1
 40
1.0
176
     1
 90
        0
176
     1
 62
    18
420
        0
176
     1
 90
       50
176
     1
 90
        3
176
     1
 62
     5
420
      255
176
     1
290
     0
176
     1
 90
       50
176
     1
 90
       50
176
     1
 90
       50
176
     1
290
     0
176
     1
 90
       50
176
     1
 62
   256
176
     0
 40
1.0
176
     0
 90
        2
176
     1
  1
strokes_ogs.tif
176
     1
290
     0
176
     1
 40
1.0
176
     1
 40
1.0
176
     1
  0
VISUALSTYLE
  5
2D
102
{ACAD_REACTORS
330
2A
102
}
330
2A
100
AcDbVisualStyle
  2
Gouraud
 70
     2
177
     3
291
     1
 70
    58
 90
        2
176
     1
 90
        2
176
     1
 90
        1
176
     1
 90
        2
176
     1
 40
0.6
176
     1
 40
30.0
176
     1
 62
     7
420
 16777215
176
     1
 90
        0
176
     1
 90
        0
176
     1
 62
     7
176
     1
 62
   257
176
     1
 90
        1
176
     1
 90
        1
176
     1
 40
1.0
176
     1
 90
        0
176
     1
 62
     7
176
     1
 40
1.0
176
     1
 90
        1
176
     1
 90
        6
176
     1
 90
        2
176
     1
 62
     7
176
     1
 90
        5
176
     1
 90
        0
176
     1
 90
        0
176
     1
290
     0
176
     1
 90
       13
176
     1
 40
0.0
176
     1
 90
        0
176
     1
290
     0
176
     1
290
     1
176
     1
290
     1
176
     1
290
     0
176
     1
290
     0
176
     1
290
     0
176
     1
290
     0
176
     1
290
     0
176
     1
290
     0
176
     1
 90
       50
176
     1
 40
0.0
176
     1
 40
1.0
176
     1
 90
        0
176
     1
 62
    18
420
        0
176
     1
 90
       50
176
     1
 90
        3
176
     1
 62
     5
420
      255
176
     1
290
     0
176
     1
 90
       50
176
     1
 90
       50
176
     1
 90
       50
176
     1
290
     0
176
     1
 90
       50
176
     1
 62
   256
176
     0
 40
1.0
176
     0
 90
        2
176
     1
  1
strokes_ogs.tif
176
     1
290
     0
176
     1
 40
1.0
176
     1
 40
1.0
176
     1
  0
VISUALSTYLE
  5
2E
102
{ACAD_REACTORS
330
2A
102
}
330
2A
100
AcDbVisualStyle
  2
GouraudWithEdges
 70
     3
177
     3
291
     1
 70
    58
 90
        2
176
     1
 90
        2
176
     1
 90
        1
176
     1
 90
        2
176
     1
 40
0.6
176
     1
 40
30.0
176
     1
 62
     7
420
 16777215
176
     1
 90
        1
176
     1
 90
        0
176
     1
 62
     7
176
     1
 62
   257
176
     1
 90
        1
176
     1
 90
        1
176
     1
 40
1.0
176
     1
 90
        0
176
     1
 62
   257
176
     1
 40
1.0
176
     1
 90
        1
176
     1
 90
        6
176
     1
 90
        2
176
     1
 62
     7
176
     1
 90
        5
176
     1
 90
        0
176
     1
 90
        0
176
     1
290
     0
176
     1
 90
       13
176
     1
 40
0.0
176
     1
 90
        0
176
     1
290
     0
176
     1
290
     1
176
     1
290
     1
176
     1
290
     0
176
     1
290
     0
176
     1
290
     0
176
     1
290
     0
176
     1
290
     0
176
     1
290
     0
176
     1
 90
       50
176
     1
 40
0.0
176
     1
 40
1.0
176
     1
 90
        0
176
     1
 62
    18
420
        0
176
     1
 90
       50
176
     1
 90
        3
176
     1
 62
     5
420
      255
176
     1
290
     0
176
     1
 90
       50
176
     1
 90
       50
176
     1
 90
       50
176
     1
290
     0
176
     1
 90
       50
176
     1
 62
   256
176
     0
 40
1.0
176
     0
 90
        2
176
     1
  1
strokes_ogs.tif
176
     1
290
     0
176
     1
 40
1.0
176
     1
 40
1.0
176
     1
  0
VISUALSTYLE
  5
31
102
{ACAD_REACTORS
330
2A
102
}
330
2A
100
AcDbVisualStyle
  2
Hidden
 70
     6
177
     3
291
     0
 70
    58
 90
        1
176
     1
 90
        2
176
     1
 90
        2
176
     1
 90
        0
176
     1
 40
0.6
176
     1
 40
30.0
176
     1
 62
     7
420
 16777215
176
     1
 90
        2
176
     1
 90
        2
176
     1
 62
     7
176
     1
 62
   257
176
     1
 90
        2
176
     1
 90
        1
176
     1
 40
40.0
176
     1
 90
        0
176
     1
 62
   257
176
     1
 40
1.0
176
     1
 90
        1
176
     1
 90
        6
176
     1
 90
        2
176
     1
 62
     7
176
     1
 90
        3
176
     1
 90
        0
176
     1
 90
        0
176
     1
290
     0
176
     1
 90
        1
176
     1
 40
0.0
176
     1
 90
        0
176
     1
290
     0
176
     1
290
     1
176
     1
290
     1
176
     1
290
     0
176
     1
290
     0
176
     1
290
     0
176
     1
290
     0
176
     1
290
     0
176
     1
290
     0
176
     1
 90
       50
176
     1
 40
0.0
176
     1
 40
1.0
176
     1
 90
        0
176
     1
 62
    18
420
        0
176
     1
 90
       50
176
     1
 90
        3
176
     1
 62
     5
420
      255
176
     1
290
     0
176
     1
 90
       50
176
     1
 90
       50
176
     1
 90
       50
176
     1
290
     0
176
     1
 90
       50
176
     1
 62
   256
176
     0
 40
1.0
176
     0
 90
        2
176
     1
  1
strokes_ogs.tif
176
     1
290
     0
176
     1
 40
1.0
176
     1
 40
1.0
176
     1
  0
VISUALSTYLE
  5
3B
102
{ACAD_REACTORS
330
2A
102
}
330
2A
100
AcDbVisualStyle
  2
JitterOff
 70
    20
177
     3
291
     1
 70
    58
 90
        2
176
     0
 90
        2
176
     0
 90
        0
176
     0
 90
        0
176
     0
 40
0.6
176
     0
 40
30.0
176
     0
 62
     7
420
 16777215
176
     0
 90
        1
176
     0
 90
        4
176
     0
 62
     7
176
     0
 62
   257
176
     0
 90
        1
176
     0
 90
        1
176
     0
 40
1.0
176
     0
 90
       10
176
     2
 62
     7
176
     0
 40
1.0
176
     0
 90
        1
176
     0
 90
        6
176
     0
 90
        2
176
     0
 62
     7
176
     0
 90
        5
176
     0
 90
        0
176
     0
 90
        0
176
     0
290
     0
176
     0
 90
        1
176
     0
 40
0.0
176
     0
 90
        0
176
     0
290
     0
176
     0
290
     1
176
     0
290
     1
176
     0
290
     0
176
     0
290
     0
176
     0
290
     0
176
     0
290
     0
176
     0
290
     0
176
     0
290
     0
176
     0
 90
       50
176
     0
 40
0.0
176
     0
 40
1.0
176
     0
 90
        0
176
     0
 62
    18
420
        0
176
     0
 90
       50
176
     0
 90
        3
176
     0
 62
     5
420
      255
176
     0
290
     0
176
     0
 90
       50
176
     0
 90
       50
176
     0
 90
       50
176
     0
290
     0
176
     0
 90
       50
176
     0
 62
   256
176
     0
 40
1.0
176
     0
 90
        2
176
     0
  1
strokes_ogs.tif
176
     0
290
     0
176
     0
 40
1.0
176
     0
 40
1.0
176
     0
  0
VISUALSTYLE
  5
38
102
{ACAD_REACTORS
330
2A
102
}
330
2A
100
AcDbVisualStyle
  2
Linepattern
 70
    14
177
     3
291
     1
 70
    58
 90
        2
176
     1
 90
        2
176
     1
 90
        0
176
     1
 90
        0
176
     1
 40
0.6
176
     1
 40
30.0
176
     1
 62
     7
420
 16777215
176
     1
 90
        1
176
     1
 90
        4
176
     1
 62
     7
176
     1
 62
   257
176
     1
 90
        7
176
     1
 90
        7
176
     1
 40
1.0
176
     1
 90
        8
176
     1
 62
     7
176
     1
 40
1.0
176
     1
 90
        1
176
     1
 90
        6
176
     1
 90
        2
176
     1
 62
     7
176
     1
 90
        5
176
     1
 90
        0
176
     1
 90
        0
176
     1
290
     0
176
     1
 90
        1
176
     1
 40
0.0
176
     1
 90
        0
176
     1
290
     0
176
     1
290
     1
176
     1
290
     1
176
     1
290
     0
176
     1
290
     0
176
     1
290
     0
176
     1
290
     0
176
     1
290
     0
176
     1
290
     0
176
     1
 90
       50
176
     1
 40
0.0
176
     1
 40
1.0
176
     1
 90
        0
176
     1
 62
    18
420
        0
176
     1
 90
       50
176
     1
 90
        3
176
     1
 62
     5
420
      255
176
     1
290
     0
176
     1
 90
       50
176
     1
 90
       50
176
     1
 90
       50
176
     1
290
     0
176
     1
 90
       50
176
     1
 62
   256
176
     0
 40
1.0
176
     0
 90
        2
176
     1
  1
strokes_ogs.tif
176
     1
290
     0
176
     1
 40
1.0
176
     1
 40
1.0
176
     1
  0
VISUALSTYLE
  5
3C
102
{ACAD_REACTORS
330
2A
102
}
330
2A
100
AcDbVisualStyle
  2
OverhangOff
 70
    21
177
     3
291
     1
 70
    58
 90
        2
176
     0
 90
        2
176
     0
 90
        0
176
     0
 90
        0
176
     0
 40
0.6
176
     0
 40
30.0
176
     0
 62
     7
420
 16777215
176
     0
 90
        1
176
     0
 90
        4
176
     0
 62
     7
176
     0
 62
   257
176
     0
 90
        1
176
     0
 90
        1
176
     0
 40
1.0
176
     0
 90
        9
176
     2
 62
     7
176
     0
 40
1.0
176
     0
 90
        1
176
     0
 90
        6
176
     0
 90
        2
176
     0
 62
     7
176
     0
 90
        5
176
     0
 90
        0
176
     0
 90
        0
176
     0
290
     0
176
     0
 90
        1
176
     0
 40
0.0
176
     0
 90
        0
176
     0
290
     0
176
     0
290
     1
176
     0
290
     1
176
     0
290
     0
176
     0
290
     0
176
     0
290
     0
176
     0
290
     0
176
     0
290
     0
176
     0
290
     0
176
     0
 90
       50
176
     0
 40
0.0
176
     0
 40
1.0
176
     0
 90
        0
176
     0
 62
    18
420
        0
176
     0
 90
       50
176
     0
 90
        3
176
     0
 62
     5
420
      255
176
     0
290
     0
176
     0
 90
       50
176
     0
 90
       50
176
     0
 90
       50
176
     0
290
     0
176
     0
 90
       50
176
     0
 62
   256
176
     0
 40
1.0
176
     0
 90
        2
176
     0
  1
strokes_ogs.tif
176
     0
290
     0
176
     0
 40
1.0
176
     0
 40
1.0
176
     0
  0
VISUALSTYLE
  5
33
102
{ACAD_REACTORS
330
2A
102
}
330
2A
100
AcDbVisualStyle
  2
Realistic
 70
     8
177
     3
291
     0
 70
    58
 90
        2
176
     1
 90
        3
176
     1
 90
        0
176
     1
 90
        2
176
     1
 40
0.6
176
     1
 40
30.0
176
     1
 62
     7
420
 16777215
176
     1
 90
        0
176
     1
 90
        0
176
     1
 62
     7
176
     1
 62
   257
176
     1
 90
        1
176
     1
 90
        1
176
     1
 40
1.0
176
     1
 90
        8
176
     1
 62
   257
176
     1
 40
1.0
176
     1
 90
        1
176
     1
 90
        6
176
     1
 90
        2
176
     1
 62
     7
176
     1
 90
        3
176
     1
 90
        0
176
     1
 90
        0
176
     1
290
     0
176
     1
 90
       13
176
     1
 40
0.0
176
     1
 90
        0
176
     1
290
     0
176
     1
290
     1
176
     1
290
     1
176
     1
290
     0
176
     1
290
     0
176
     1
290
     0
176
     1
290
     0
176
     1
290
     0
176
     1
290
     0
176
     1
 90
       50
176
     1
 40
0.0
176
     1
 40
1.0
176
     1
 90
        0
176
     1
 62
    18
420
        0
176
     1
 90
       50
176
     1
 90
        3
176
     1
 62
     5
420
      255
176
     1
290
     0
176
     1
 90
       50
176
     1
 90
       50
176
     1
 90
       50
176
     1
290
     0
176
     1
 90
       50
176
     1
 62
   256
176
     0
 40
1.0
176
     0
 90
        2
176
     1
  1
strokes_ogs.tif
176
     1
290
     0
176
     1
 40
1.0
176
     1
 40
1.0
176
     1
  0
VISUALSTYLE
  5
42
102
{ACAD_REACTORS
330
2A
102
}
330
2A
100
AcDbVisualStyle
  2
Shaded
 70
    27
177
     3
291
     0
 70
    58
 90
        2
176
     1
 90
        2
176
     1
 90
        1
176
     1
 90
        2
176
     1
 40
0.6
176
     1
 40
30.0
176
     1
 62
     7
420
 16777215
176
     1
 90
        0
176
     1
 90
        4
176
     1
 62
     7
176
     1
 62
   257
176
     1
 90
        1
176
     1
 90
        1
176
     1
 40
1.0
176
     1
 90
        8
176
     1
 62
   257
176
     1
 40
1.0
176
     1
 90
        1
176
     1
 90
        6
176
     1
 90
        2
176
     1
 62
     8
420
  7895160
176
     1
 90
        3
176
     1
 90
        0
176
     1
 90
        0
176
     1
290
     0
176
     1
 90
        5
176
     1
 40
0.0
176
     1
 90
        0
176
     1
290
     0
176
     1
290
     1
176
     1
290
     1
176
     1
290
     0
176
     1
290
     0
176
     1
290
     0
176
     1
290
     0
176
     1
290
     0
176
     1
290
     0
176
     1
 90
       50
176
     1
 40
0.0
176
     1
 40
1.0
176
     1
 90
        0
176
     1
 62
    18
420
        0
176
     1
 90
       50
176
     1
 90
        3
176
     1
 62
     5
420
      255
176
     1
290
     0
176
     1
 90
       50
176
     1
 90
       50
176
     1
 90
       50
176
     1
290
     0
176
     1
 90
       50
176
     1
 62
   256
176
     0
 40
1.0
176
     0
 90
        2
176
     1
  1
strokes_ogs.tif
176
     1
290
     0
176
     1
 40
1.0
176
     1
 40
1.0
176
     1
  0
VISUALSTYLE
  5
41
102
{ACAD_REACTORS
330
2A
102
}
330
2A
100
AcDbVisualStyle
  2
Shaded with edges
 70
    26
177
     3
291
     0
 70
    58
 90
        2
176
     1
 90
        2
176
     1
 90
        1
176
     1
 90
        2
176
     1
 40
0.6
176
     1
 40
30.0
176
     1
 62
     7
420
 16777215
176
     1
 90
        1
176
     1
 90
       10
176
     1
 62
     7
176
     1
 62
   257
176
     1
 90
        2
176
     1
 90
        1
176
     1
 40
1.0
176
     1
 90
        8
176
     1
 62
   257
176
     1
 40
1.0
176
     1
 90
        1
176
     1
 90
        6
176
     1
 90
        2
176
     1
 62
     7
176
     1
 90
        3
176
     1
 90
        0
176
     1
 90
        0
176
     1
290
     0
176
     1
 90
        5
176
     1
 40
0.0
176
     1
 90
        0
176
     1
290
     0
176
     1
290
     1
176
     1
290
     1
176
     1
290
     0
176
     1
290
     0
176
     1
290
     0
176
     1
290
     0
176
     1
290
     0
176
     1
290
     0
176
     1
 90
       50
176
     1
 40
0.0
176
     1
 40
1.0
176
     1
 90
        0
176
     1
 62
    18
420
        0
176
     1
 90
       50
176
     1
 90
        3
176
     1
 62
     5
420
      255
176
     1
290
     0
176
     1
 90
       50
176
     1
 90
       50
176
     1
 90
       50
176
     1
290
     0
176
     1
 90
       50
176
     1
 62
   256
176
     0
 40
1.0
176
     0
 90
        2
176
     1
  1
strokes_ogs.tif
176
     1
290
     0
176
     1
 40
1.0
176
     1
 40
1.0
176
     1
  0
VISUALSTYLE
  5
3E
102
{ACAD_REACTORS
330
2A
102
}
330
2A
100
AcDbVisualStyle
  2
Shades of Gray
 70
    23
177
     3
291
     0
 70
    58
 90
        2
176
     1
 90
        2
176
     1
 90
        3
176
     1
 90
        0
176
     1
 40
0.6
176
     1
 40
30.0
176
     1
 62
     7
420
 16777215
176
     1
 90
        2
176
     1
 90
        2
176
     1
 62
     7
176
     1
 62
     7
176
     1
 90
        1
176
     1
 90
        1
176
     1
 40
40.0
176
     1
 90
        8
176
     1
 62
     7
176
     1
 40
1.0
176
     1
 90
        1
176
     1
 90
        6
176
     1
 90
        2
176
     1
 62
     7
176
     1
 90
        3
176
     1
 90
        0
176
     1
 90
        0
176
     1
290
     0
176
     1
 90
        1
176
     1
 40
0.0
176
     1
 90
        0
176
     1
290
     0
176
     1
290
     1
176
     1
290
     1
176
     1
290
     0
176
     1
290
     0
176
     1
290
     0
176
     1
290
     0
176
     1
290
     0
176
     1
290
     0
176
     1
 90
       50
176
     1
 40
0.0
176
     1
 40
1.0
176
     1
 90
        0
176
     1
 62
    18
420
        0
176
     1
 90
       50
176
     1
 90
        3
176
     1
 62
     5
420
      255
176
     1
290
     0
176
     1
 90
       50
176
     1
 90
       50
176
     1
 90
       50
176
     1
290
     0
176
     1
 90
       50
176
     1
 62
   256
176
     0
 40
1.0
176
     0
 90
        2
176
     1
  1
strokes_ogs.tif
176
     1
290
     0
176
     1
 40
1.0
176
     1
 40
1.0
176
     1
  0
VISUALSTYLE
  5
3F
102
{ACAD_REACTORS
330
2A
102
}
330
2A
100
AcDbVisualStyle
  2
Sketchy
 70
    24
177
     3
291
     0
 70
    58
 90
        1
176
     1
 90
        2
176
     1
 90
        2
176
     1
 90
        0
176
     1
 40
0.6
176
     1
 40
30.0
176
     1
 62
     7
420
 16777215
176
     1
 90
        2
176
     1
 90
        2
176
     1
 62
     7
176
     1
 62
     7
176
     1
 90
        1
176
     1
 90
        1
176
     1
 40
40.0
176
     1
 90
       11
176
     1
 62
     7
176
     1
 40
1.0
176
     1
 90
        1
176
     1
 90
        6
176
     1
 90
        2
176
     1
 62
     7
176
     1
 90
        6
176
     1
 90
        0
176
     1
 90
        0
176
     1
290
     0
176
     1
 90
        1
176
     1
 40
0.0
176
     1
 90
        0
176
     1
290
     0
176
     1
290
     1
176
     1
290
     1
176
     1
290
     0
176
     1
290
     0
176
     1
290
     0
176
     1
290
     0
176
     1
290
     0
176
     1
290
     0
176
     1
 90
       50
176
     1
 40
0.0
176
     1
 40
1.0
176
     1
 90
        0
176
     1
 62
    18
420
        0
176
     1
 90
       50
176
     1
 90
        3
176
     1
 62
     5
420
      255
176
     1
290
     0
176
     1
 90
       50
176
     1
 90
       50
176
     1
 90
       50
176
     1
290
     0
176
     1
 90
       50
176
     1
 62
   256
176
     0
 40
1.0
176
     0
 90
        2
176
     1
  1
strokes_ogs.tif
176
     1
290
     0
176
     1
 40
1.0
176
     1
 40
1.0
176
     1
  0
VISUALSTYLE
  5
37
102
{ACAD_REACTORS
330
2A
102
}
330
2A
100
AcDbVisualStyle
  2
Thicken
 70
    13
177
     3
291
     1
 70
    58
 90
        2
176
     1
 90
        2
176
     1
 90
        0
176
     1
 90
        0
176
     1
 40
0.6
176
     1
 40
30.0
176
     1
 62
     7
420
 16777215
176
     1
 90
        1
176
     1
 90
        4
176
     1
 62
     7
176
     1
 62
   257
176
     1
 90
        1
176
     1
 90
        1
176
     1
 40
1.0
176
     1
 90
       12
176
     1
 62
     7
176
     1
 40
1.0
176
     1
 90
        1
176
     1
 90
        6
176
     1
 90
        2
176
     1
 62
     7
176
     1
 90
        5
176
     1
 90
        0
176
     1
 90
        0
176
     1
290
     0
176
     1
 90
        1
176
     1
 40
0.0
176
     1
 90
        0
176
     1
290
     0
176
     1
290
     1
176
     1
290
     1
176
     1
290
     0
176
     1
290
     0
176
     1
290
     0
176
     1
290
     0
176
     1
290
     0
176
     1
290
     0
176
     1
 90
       50
176
     1
 40
0.0
176
     1
 40
1.0
176
     1
 90
        0
176
     1
 62
    18
420
        0
176
     1
 90
       50
176
     1
 90
        3
176
     1
 62
     5
420
      255
176
     1
290
     0
176
     1
 90
       50
176
     1
 90
       50
176
     1
 90
       50
176
     1
290
     0
176
     1
 90
       50
176
     1
 62
   256
176
     0
 40
1.0
176
     0
 90
        2
176
     1
  1
strokes_ogs.tif
176
     1
290
     0
176
     1
 40
1.0
176
     1
 40
1.0
176
     1
  0
VISUALSTYLE
  5
30
102
{ACAD_REACTORS
330
2A
102
}
330
2A
100
AcDbVisualStyle
  2
Wireframe
 70
     5
177
     3
291
     0
 70
    58
 90
        0
176
     1
 90
        2
176
     1
 90
        0
176
     1
 90
        0
176
     1
 40
0.6
176
     1
 40
30.0
176
     1
 62
     7
420
 16777215
176
     1
 90
        1
176
     1
 90
        4
176
     1
 62
     7
176
     1
 62
   257
176
     1
 90
        1
176
     1
 90
        1
176
     1
 40
1.0
176
     1
 90
        0
176
     1
 62
   257
176
     1
 40
1.0
176
     1
 90
        1
176
     1
 90
        6
176
     1
 90
        2
176
     1
 62
     7
176
     1
 90
        3
176
     1
 90
        0
176
     1
 90
        0
176
     1
290
     0
176
     1
 90
        1
176
     1
 40
0.0
176
     1
 90
        0
176
     1
290
     0
176
     1
290
     1
176
     1
290
     1
176
     1
290
     0
176
     1
290
     0
176
     1
290
     0
176
     1
290
     0
176
     1
290
     0
176
     1
290
     0
176
     1
 90
       50
176
     1
 40
0.0
176
     1
 40
1.0
176
     1
 90
        0
176
     1
 62
    18
420
        0
176
     1
 90
       50
176
     1
 90
        3
176
     1
 62
     5
420
      255
176
     1
290
     0
176
     1
 90
       50
176
     1
 90
       50
176
     1
 90
       50
176
     1
290
     0
176
     1
 90
       50
176
     1
 62
   256
176
     0
 40
1.0
176
     0
 90
        2
176
     1
  1
strokes_ogs.tif
176
     1
290
     0
176
     1
 40
1.0
176
     1
 40
1.0
176
     1
  0
VISUALSTYLE
  5
40
102
{ACAD_REACTORS
330
2A
102
}
330
2A
100
AcDbVisualStyle
  2
X-Ray
 70
    25
177
     3
291
     0
 70
    58
 90
        2
176
     1
 90
        2
176
     1
 90
        1
176
     1
 90
        1
176
     1
 40
0.5
176
     1
 40
30.0
176
     1
 62
     7
420
 16777215
176
     1
 90
        1
176
     1
 90
        0
176
     1
 62
     7
176
     1
 62
   257
176
     1
 90
        1
176
     1
 90
        1
176
     1
 40
1.0
176
     1
 90
        8
176
     1
 62
     7
176
     1
 40
1.0
176
     1
 90
        1
176
     1
 90
        6
176
     1
 90
        2
176
     1
 62
     7
176
     1
 90
        3
176
     1
 90
        0
176
     1
 90
        0
176
     1
290
     0
176
     1
 90
       13
176
     1
 40
0.0
176
     1
 90
        0
176
     1
290
     0
176
     1
290
     1
176
     1
290
     1
176
     1
290
     0
176
     1
290
     0
176
     1
290
     0
176
     1
290
     0
176
     1
290
     0
176
     1
290
     0
176
     1
 90
       50
176
     1
 40
0.0
176
     1
 40
1.0
176
     1
 90
        0
176
     1
 62
    18
420
        0
176
     1
 90
       50
176
     1
 90
        3
176
     1
 62
     5
420
      255
176
     1
290
     0
176
     1
 90
       50
176
     1
 90
       50
176
     1
 90
       50
176
     1
290
     0
176
     1
 90
       50
176
     1
 62
   256
176
     0
 40
1.0
176
     0
 90
        2
176
     1
  1
strokes_ogs.tif
176
     1
290
     0
176
     1
 40
1.0
176
     1
 40
1.0
176
     1
  0
DICTIONARYVAR
  5
2A0
102
{ACAD_REACTORS
330
29F
102
}
330
29F
100
DictionaryVariables
280
     0
  1
1:1
  0
DICTIONARYVAR
  5
2A5
102
{ACAD_REACTORS
330
29F
102
}
330
29F
100
DictionaryVariables
280
     0
  1
Standard
  0
DICTIONARYVAR
  5
2A4
102
{ACAD_REACTORS
330
29F
102
}
330
29F
100
DictionaryVariables
280
     0
  1
Standard
  0
DICTIONARYVAR
  5
2A8
102
{ACAD_REACTORS
330
29F
102
}
330
29F
100
DictionaryVariables
280
     0
  1
6.000000
  0
DICTIONARY
  5
2A1
330
6A
100
AcDbDictionary
280
     1
281
     1
  3
ACAD_ROUNDTRIP_2008_TABLESTYLE_CELLSTYLEMAP
360
2A2
  0
CELLSTYLEMAP
  5
2A2
102
{ACAD_REACTORS
330
2A1
102
}
330
2A1
100
AcDbCellStyleMap
 90
        3
300
CELLSTYLE
  1
TABLEFORMAT_BEGIN
 90
        5
170
     1
 91
        0
 92
    32768
 62
   257
 93
        1
300
CONTENTFORMAT
  1
CONTENTFORMAT_BEGIN
 90
        0
 91
        0
 92
        4
 93
        0
300

 40
0.0
140
1.0
 94
        5
 62
     0
340
11
144
6.0
309
CONTENTFORMAT_END
171
     1
301
MARGIN
  1
CELLMARGIN_BEGIN
 40
1.5
 40
1.5
 40
1.5
 40
1.5
 40
1.5
 40
1.5
309
CELLMARGIN_END
 94
        6
 95
        1
302
GRIDFORMAT
  1
GRIDFORMAT_BEGIN
 90
        0
 91
        1
 62
     0
 92
       -2
340
14
 93
        0
 40
0.045
309
GRIDFORMAT_END
 95
        2
302
GRIDFORMAT
  1
GRIDFORMAT_BEGIN
 90
        0
 91
        1
 62
     0
 92
       -2
340
14
 93
        0
 40
0.045
309
GRIDFORMAT_END
 95
        4
302
GRIDFORMAT
  1
GRIDFORMAT_BEGIN
 90
        0
 91
        1
 62
     0
 92
       -2
340
14
 93
        0
 40
0.045
309
GRIDFORMAT_END
 95
        8
302
GRIDFORMAT
  1
GRIDFORMAT_BEGIN
 90
        0
 91
        1
 62
     0
 92
       -2
340
14
 93
        0
 40
0.045
309
GRIDFORMAT_END
 95
       16
302
GRIDFORMAT
  1
GRIDFORMAT_BEGIN
 90
        0
 91
        1
 62
     0
 92
       -2
340
14
 93
        0
 40
0.045
309
GRIDFORMAT_END
 95
       32
302
GRIDFORMAT
  1
GRIDFORMAT_BEGIN
 90
        0
 91
        1
 62
     0
 92
       -2
340
14
 93
        0
 40
0.045
309
GRIDFORMAT_END
309
TABLEFORMAT_END
  1
CELLSTYLE_BEGIN
 90
        1
 91
        1
300
_TITLE
309
CELLSTYLE_END
300
CELLSTYLE
  1
TABLEFORMAT_BEGIN
 90
        5
170
     1
 91
        0
 92
        0
 62
   257
 93
        1
300
CONTENTFORMAT
  1
CONTENTFORMAT_BEGIN
 90
        0
 91
        0
 92
        4
 93
        0
300

 40
0.0
140
1.0
 94
        5
 62
     0
340
11
144
4.5
309
CONTENTFORMAT_END
171
     1
301
MARGIN
  1
CELLMARGIN_BEGIN
 40
1.5
 40
1.5
 40
1.5
 40
1.5
 40
1.5
 40
1.5
309
CELLMARGIN_END
 94
        6
 95
        1
302
GRIDFORMAT
  1
GRIDFORMAT_BEGIN
 90
        0
 91
        1
 62
     0
 92
       -2
340
14
 93
        0
 40
0.045
309
GRIDFORMAT_END
 95
        2
302
GRIDFORMAT
  1
GRIDFORMAT_BEGIN
 90
        0
 91
        1
 62
     0
 92
       -2
340
14
 93
        0
 40
0.045
309
GRIDFORMAT_END
 95
        4
302
GRIDFORMAT
  1
GRIDFORMAT_BEGIN
 90
        0
 91
        1
 62
     0
 92
       -2
340
14
 93
        0
 40
0.045
309
GRIDFORMAT_END
 95
        8
302
GRIDFORMAT
  1
GRIDFORMAT_BEGIN
 90
        0
 91
        1
 62
     0
 92
       -2
340
14
 93
        0
 40
0.045
309
GRIDFORMAT_END
 95
       16
302
GRIDFORMAT
  1
GRIDFORMAT_BEGIN
 90
        0
 91
        1
 62
     0
 92
       -2
340
14
 93
        0
 40
0.045
309
GRIDFORMAT_END
 95
       32
302
GRIDFORMAT
  1
GRIDFORMAT_BEGIN
 90
        0
 91
        1
 62
     0
 92
       -2
340
14
 93
        0
 40
0.045
309
GRIDFORMAT_END
309
TABLEFORMAT_END
  1
CELLSTYLE_BEGIN
 90
        2
 91
        1
300
_HEADER
309
CELLSTYLE_END
300
CELLSTYLE
  1
TABLEFORMAT_BEGIN
 90
        5
170
     1
 91
        0
 92
        0
 62
   257
 93
        1
300
CONTENTFORMAT
  1
CONTENTFORMAT_BEGIN
 90
        0
 91
        0
 92
        4
 93
        0
300

 40
0.0
140
1.0
 94
        2
 62
     0
340
11
144
4.5
309
CONTENTFORMAT_END
171
     1
301
MARGIN
  1
CELLMARGIN_BEGIN
 40
1.5
 40
1.5
 40
1.5
 40
1.5
 40
1.5
 40
1.5
309
CELLMARGIN_END
 94
        6
 95
        1
302
GRIDFORMAT
  1
GRIDFORMAT_BEGIN
 90
        0
 91
        1
 62
     0
 92
       -2
340
14
 93
        0
 40
0.045
309
GRIDFORMAT_END
 95
        2
302
GRIDFORMAT
  1
GRIDFORMAT_BEGIN
 90
        0
 91
        1
 62
     0
 92
       -2
340
14
 93
        0
 40
0.045
309
GRIDFORMAT_END
 95
        4
302
GRIDFORMAT
  1
GRIDFORMAT_BEGIN
 90
        0
 91
        1
 62
     0
 92
       -2
340
14
 93
        0
 40
0.045
309
GRIDFORMAT_END
 95
        8
302
GRIDFORMAT
  1
GRIDFORMAT_BEGIN
 90
        0
 91
        1
 62
     0
 92
       -2
340
14
 93
        0
 40
0.045
309
GRIDFORMAT_END
 95
       16
302
GRIDFORMAT
  1
GRIDFORMAT_BEGIN
 90
        0
 91
        1
 62
     0
 92
       -2
340
14
 93
        0
 40
0.045
309
GRIDFORMAT_END
 95
       32
302
GRIDFORMAT
  1
GRIDFORMAT_BEGIN
 90
        0
 91
        1
 62
     0
 92
       -2
340
14
 93
        0
 40
0.045
309
GRIDFORMAT_END
309
TABLEFORMAT_END
  1
CELLSTYLE_BEGIN
 90
        3
 91
        2
300
_DATA
309
CELLSTYLE_END
  0
ENDSEC
  0
EOF
