  0
SECTION
  2
HEADER
  9
$ACADVER
  1
AC1027
  9
$ACADMAINTVER
 70
   105
  9
$DWGCODEPAGE
  3
ANSI_1252
  9
$REQUIREDVERSIONS
160
                 0
  9
$INSBASE
 10
0.0
 20
0.0
 30
0.0
  9
$EXTMIN
 10
0.0
 20
0.0
 30
0.0
  9
$EXTMAX
 10
594.0
 20
420.0
 30
0.0
  9
$LIMMIN
 10
0.0
 20
0.0
  9
$LIMMAX
 10
594.0
 20
420.0
  9
$ORTHOMODE
 70
     0
  9
$REGENMODE
 70
     1
  9
$FILLMODE
 70
     1
  9
$QTEXTMODE
 70
     0
  9
$MIRRTEXT
 70
     1
  9
$LTSCALE
 40
1.0
  9
$ATTMODE
 70
     1
  9
$TEXTSIZE
 40
3.5
  9
$TRACEWID
 40
1.0
  9
$TEXTSTYLE
  7
Standard
  9
$CLAYER
  8
0
  9
$CELTYPE
  6
ByLayer
  9
$CECOLOR
 62
   256
  9
$CELTSCALE
 40
1.0
  9
$DISPSILH
 70
     0
  9
$DIMSCALE
 40
1.0
  9
$DIMASZ
 40
3.302
  9
$DIMEXO
 40
1.0
  9
$DIMDLI
 40
3.75
  9
$DIMRND
 40
0.0
  9
$DIMDLE
 40
0.0
  9
$DIMEXE
 40
1.0
  9
$DIMTP
 40
0.0
  9
$DIMTM
 40
0.0
  9
$DIMTXT
 40
3.5
  9
$DIMCEN
 40
2.5
  9
$DIMTSZ
 40
0.0
  9
$DIMTOL
 70
     0
  9
$DIMLIM
 70
     0
  9
$DIMTIH
 70
     1
  9
$DIMTOH
 70
     1
  9
$DIMSE1
 70
     0
  9
$DIMSE2
 70
     0
  9
$DIMTAD
 70
     1
  9
$DIMZIN
 70
     0
  9
$DIMBLK
  1

  9
$DIMASO
 70
     1
  9
$DIMSHO
 70
     1
  9
$DIMPOST
  1

  9
$DIMAPOST
  1

  9
$DIMALT
 70
     0
  9
$DIMALTD
 70
     3
  9
$DIMALTF
 40
0.0393700787
  9
$DIMLFAC
 40
10.0
  9
$DIMTOFL
 70
     1
  9
$DIMTVP
 40
0.0
  9
$DIMTIX
 70
     0
  9
$DIMSOXD
 70
     0
  9
$DIMSAH
 70
     0
  9
$DIMBLK1
  1

  9
$DIMBLK2
  1

  9
$DIMSTYLE
  2
ISO-25
  9
$DIMCLRD
 70
     0
  9
$DIMCLRE
 70
     0
  9
$DIMCLRT
 70
     0
  9
$DIMTFAC
 40
1.0
  9
$DIMGAP
 40
1.524
  9
$DIMJUST
 70
     0
  9
$DIMSD1
 70
     0
  9
$DIMSD2
 70
     0
  9
$DIMTOLJ
 70
     0
  9
$DIMTZIN
 70
     0
  9
$DIMALTZ
 70
     0
  9
$DIMALTTZ
 70
     0
  9
$DIMUPT
 70
     0
  9
$DIMDEC
 70
     2
  9
$DIMTDEC
 70
     2
  9
$DIMALTU
 70
     2
  9
$DIMALTTD
 70
     3
  9
$DIMTXSTY
  7
Standard
  9
$DIMAUNIT
 70
     0
  9
$DIMADEC
 70
     2
  9
$DIMALTRND
 40
0.0
  9
$DIMAZIN
 70
     0
  9
$DIMDSEP
 70
    44
  9
$DIMATFIT
 70
     3
  9
$DIMFRAC
 70
     0
  9
$DIMLDRBLK
  1

  9
$DIMLUNIT
 70
     2
  9
$DIMLWD
 70
    -2
  9
$DIMLWE
 70
    -2
  9
$DIMTMOVE
 70
     0
  9
$DIMFXL
 40
1.0
  9
$DIMFXLON
 70
     0
  9
$DIMJOGANG
 40
0.7853981634
  9
$DIMTFILL
 70
     0
  9
$DIMTFILLCLR
 70
     0
  9
$DIMARCSYM
 70
     0
  9
$DIMLTYPE
  6

  9
$DIMLTEX1
  6

  9
$DIMLTEX2
  6

  9
$DIMTXTDIRECTION
 70
     0
  9
$LUNITS
 70
     2
  9
$LUPREC
 70
     2
  9
$SKETCHINC
 40
1.0
  9
$FILLETRAD
 40
10.0
  9
$AUNITS
 70
     0
  9
$AUPREC
 70
     2
  9
$MENU
  1
.
  9
$ELEVATION
 40
0.0
  9
$PELEVATION
 40
0.0
  9
$THICKNESS
 40
0.0
  9
$LIMCHECK
 70
     0
  9
$CHAMFERA
 40
0.0
  9
$CHAMFERB
 40
0.0
  9
$CHAMFERC
 40
0.0
  9
$CHAMFERD
 40
0.0
  9
$SKPOLY
 70
     0
  9
$TDCREATE
 40
2459157.48747882
  9
$TDUCREATE
 40
2459157.445812153
  9
$TDUPDATE
 40
2459157.487486945
  9
$TDUUPDATE
 40
2459157.445820278
  9
$TDINDWG
 40
0.0000000116
  9
$TDUSRTIMER
 40
0.0000000116
  9
$USRTIMER
 70
     1
  9
$ANGBASE
 50
0.0
  9
$ANGDIR
 70
     0
  9
$PDMODE
 70
     0
  9
$PDSIZE
 40
-1.0
  9
$PLINEWID
 40
0.0
  9
$SPLFRAME
 70
     0
  9
$SPLINETYPE
 70
     6
  9
$SPLINESEGS
 70
     8
  9
$HANDSEED
  5
343
  9
$SURFTAB1
 70
     6
  9
$SURFTAB2
 70
     6
  9
$SURFTYPE
 70
     6
  9
$SURFU
 70
     6
  9
$SURFV
 70
     6
  9
$UCSBASE
  2

  9
$UCSNAME
  2

  9
$UCSORG
 10
0.0
 20
0.0
 30
0.0
  9
$UCSXDIR
 10
1.0
 20
0.0
 30
0.0
  9
$UCSYDIR
 10
0.0
 20
1.0
 30
0.0
  9
$UCSORTHOREF
  2

  9
$UCSORTHOVIEW
 70
     0
  9
$UCSORGTOP
 10
0.0
 20
0.0
 30
0.0
  9
$UCSORGBOTTOM
 10
0.0
 20
0.0
 30
0.0
  9
$UCSORGLEFT
 10
0.0
 20
0.0
 30
0.0
  9
$UCSORGRIGHT
 10
0.0
 20
0.0
 30
0.0
  9
$UCSORGFRONT
 10
0.0
 20
0.0
 30
0.0
  9
$UCSORGBACK
 10
0.0
 20
0.0
 30
0.0
  9
$PUCSBASE
  2

  9
$PUCSNAME
  2

  9
$PUCSORG
 10
0.0
 20
0.0
 30
0.0
  9
$PUCSXDIR
 10
1.0
 20
0.0
 30
0.0
  9
$PUCSYDIR
 10
0.0
 20
1.0
 30
0.0
  9
$PUCSORTHOREF
  2

  9
$PUCSORTHOVIEW
 70
     0
  9
$PUCSORGTOP
 10
0.0
 20
0.0
 30
0.0
  9
$PUCSORGBOTTOM
 10
0.0
 20
0.0
 30
0.0
  9
$PUCSORGLEFT
 10
0.0
 20
0.0
 30
0.0
  9
$PUCSORGRIGHT
 10
0.0
 20
0.0
 30
0.0
  9
$PUCSORGFRONT
 10
0.0
 20
0.0
 30
0.0
  9
$PUCSORGBACK
 10
0.0
 20
0.0
 30
0.0
  9
$USERI1
 70
     0
  9
$USERI2
 70
     0
  9
$USERI3
 70
     0
  9
$USERI4
 70
     0
  9
$USERI5
 70
     0
  9
$USERR1
 40
0.0
  9
$USERR2
 40
0.0
  9
$USERR3
 40
0.0
  9
$USERR4
 40
0.0
  9
$USERR5
 40
0.0
  9
$WORLDVIEW
 70
     1
  9
$SHADEDGE
 70
     3
  9
$SHADEDIF
 70
    70
  9
$TILEMODE
 70
     1
  9
$MAXACTVP
 70
    64
  9
$PINSBASE
 10
0.0
 20
0.0
 30
0.0
  9
$PLIMCHECK
 70
     0
  9
$PEXTMIN
 10
1.0000000000E+20
 20
1.0000000000E+20
 30
1.0000000000E+20
  9
$PEXTMAX
 10
-1.0000000000E+20
 20
-1.0000000000E+20
 30
-1.0000000000E+20
  9
$PLIMMIN
 10
0.0
 20
0.0
  9
$PLIMMAX
 10
420.0
 20
297.0
  9
$UNITMODE
 70
     0
  9
$VISRETAIN
 70
     1
  9
$PLINEGEN
 70
     0
  9
$PSLTSCALE
 70
     1
  9
$TREEDEPTH
 70
  3020
  9
$CMLSTYLE
  2
Standard
  9
$CMLJUST
 70
     0
  9
$CMLSCALE
 40
20.0
  9
$PROXYGRAPHICS
 70
     1
  9
$MEASUREMENT
 70
     1
  9
$CELWEIGHT
370
    -1
  9
$ENDCAPS
280
     0
  9
$JOINSTYLE
280
     0
  9
$LWDISPLAY
290
     1
  9
$INSUNITS
 70
     4
  9
$HYPERLINKBASE
  1

  9
$STYLESHEET
  1

  9
$XEDIT
290
     1
  9
$CEPSNTYPE
380
     0
  9
$PSTYLEMODE
290
     1
  9
$FINGERPRINTGUID
  2
{FE9AFE89-2AA8-4BE6-8D91-CF07259E62C6}
  9
$VERSIONGUID
  2
{FAEB1C32-E019-11D5-929B-00C0DF256EC4}
  9
$EXTNAMES
290
     1
  9
$PSVPSCALE
 40
0.0
  9
$OLESTARTUP
290
     0
  9
$SORTENTS
280
   127
  9
$INDEXCTL
280
     0
  9
$HIDETEXT
280
     1
  9
$XCLIPFRAME
280
     2
  9
$HALOGAP
280
     0
  9
$OBSCOLOR
 70
   257
  9
$OBSLTYPE
280
     0
  9
$INTERSECTIONDISPLAY
280
     0
  9
$INTERSECTIONCOLOR
 70
   257
  9
$DIMASSOC
280
     2
  9
$PROJECTNAME
  1

  9
$CAMERADISPLAY
290
     0
  9
$LENSLENGTH
 40
50.0
  9
$CAMERAHEIGHT
 40
0.0
  9
$STEPSPERSEC
 40
2.0
  9
$STEPSIZE
 40
6.0
  9
$3DDWFPREC
 40
2.0
  9
$PSOLWIDTH
 40
5.0
  9
$PSOLHEIGHT
 40
80.0
  9
$LOFTANG1
 40
1.5707963268
  9
$LOFTANG2
 40
1.5707963268
  9
$LOFTMAG1
 40
0.0
  9
$LOFTMAG2
 40
0.0
  9
$LOFTPARAM
 70
     7
  9
$LOFTNORMALS
280
     1
  9
$LATITUDE
 40
37.795
  9
$LONGITUDE
 40
-122.394
  9
$NORTHDIRECTION
 40
0.0
  9
$TIMEZONE
 70
 -8000
  9
$LIGHTGLYPHDISPLAY
280
     1
  9
$TILEMODELIGHTSYNCH
280
     1
  9
$CMATERIAL
347
44
  9
$SOLIDHIST
280
     0
  9
$SHOWHIST
280
     1
  9
$DWFFRAME
280
     2
  9
$DGNFRAME
280
     2
  9
$REALWORLDSCALE
290
     1
  9
$INTERFERECOLOR
 62
   256
  9
$CSHADOW
280
     0
  9
$SHADOWPLANELOCATION
 40
0.0
  0
ENDSEC
  0
SECTION
  2
CLASSES
  0
CLASS
  1
ACDBDICTIONARYWDFLT
  2
AcDbDictionaryWithDefault
  3
ObjectDBX Classes
 90
        0
 91
        4
280
     0
281
     0
  0
CLASS
  1
VISUALSTYLE
  2
AcDbVisualStyle
  3
ObjectDBX Classes
 90
     4095
 91
        4
280
     0
281
     0
  0
CLASS
  1
MATERIAL
  2
AcDbMaterial
  3
ObjectDBX Classes
 90
     1153
 91
        4
280
     0
281
     0
  0
CLASS
  1
SCALE
  2
AcDbScale
  3
ObjectDBX Classes
 90
     1153
 91
        4
280
     0
281
     0
  0
CLASS
  1
TABLESTYLE
  2
AcDbTableStyle
  3
ObjectDBX Classes
 90
     4095
 91
        4
280
     0
281
     0
  0
CLASS
  1
MLEADERSTYLE
  2
AcDbMLeaderStyle
  3
ACDB_MLEADERSTYLE_CLASS
 90
     4095
 91
        4
280
     0
281
     0
  0
CLASS
  1
SUN
  2
AcDbSun
  3
SCENEOE
 90
     1153
 91
        4
280
     0
281
     0
  0
CLASS
  1
DICTIONARYVAR
  2
AcDbDictionaryVar
  3
ObjectDBX Classes
 90
        0
 91
        4
280
     0
281
     0
  0
CLASS
  1
CELLSTYLEMAP
  2
AcDbCellStyleMap
  3
ObjectDBX Classes
 90
     1152
 91
        4
280
     0
281
     0
  0
ENDSEC
  0
SECTION
  2
TABLES
  0
TABLE
  2
VPORT
  5
8
330
0
100
AcDbSymbolTable
 70
     1
  0
VPORT
  5
29
330
8
100
AcDbSymbolTableRecord
100
AcDbViewportTableRecord
  2
*Active
 70
     0
 10
0.0
 20
0.0
 11
1.0
 21
1.0
 12
297.0
 22
210.0
 13
0.0
 23
0.0
 14
10.0
 24
10.0
 15
10.0
 25
10.0
 16
0.0
 26
0.0
 36
1.0
 17
0.0
 27
0.0
 37
0.0
 40
420.0
 41
1.4142857143
 42
50.0
 43
0.0
 44
0.0
 50
0.0
 51
0.0
 71
     0
 72
  2000
 73
     1
 74
     3
 75
     0
 76
     0
 77
     0
 78
     0
281
     0
 65
     1
110
0.0
120
0.0
130
0.0
111
1.0
121
0.0
131
0.0
112
0.0
122
1.0
132
0.0
 79
     0
146
0.0
348
2F
 60
     3
 61
     5
292
     1
282
     1
141
0.0
142
0.0
 63
   250
361
6D
  0
ENDTAB
  0
TABLE
  2
LTYPE
  5
5
330
0
100
AcDbSymbolTable
 70
     6
  0
LTYPE
  5
14
330
5
100
AcDbSymbolTableRecord
100
AcDbLinetypeTableRecord
  2
ByBlock
 70
     0
  3

 72
    65
 73
     0
 40
0.0
  0
LTYPE
  5
15
330
5
100
AcDbSymbolTableRecord
100
AcDbLinetypeTableRecord
  2
ByLayer
 70
     0
  3

 72
    65
 73
     0
 40
0.0
  0
LTYPE
  5
16
330
5
100
AcDbSymbolTableRecord
100
AcDbLinetypeTableRecord
  2
Continuous
 70
     0
  3
Solid line
 72
    65
 73
     0
 40
0.0
  0
LTYPE
  5
6E
330
5
100
AcDbSymbolTableRecord
100
AcDbLinetypeTableRecord
  2
HIDDEN
 70
     0
  3
Hidden __ __ __ __ __ __ __ __ __ __ __ __ __ __
 72
    65
 73
     2
 40
1.905
 49
1.27
 74
     0
 49
-0.635
 74
     0
  0
LTYPE
  5
6F
330
5
100
AcDbSymbolTableRecord
100
AcDbLinetypeTableRecord
  2
PHANTOM
 70
     0
  3
Phantom ______  __  __  ______  __  __  ______
 72
    65
 73
     6
 40
12.7
 49
6.35
 74
     0
 49
-1.27
 74
     0
 49
1.27
 74
     0
 49
-1.27
 74
     0
 49
1.27
 74
     0
 49
-1.27
 74
     0
  0
LTYPE
  5
70
330
5
100
AcDbSymbolTableRecord
100
AcDbLinetypeTableRecord
  2
CENTER
 70
     0
  3
Center ____ _ ____ _ ____ _ ____ _ ____ _ ____
 72
    65
 73
     4
 40
10.16
 49
6.35
 74
     0
 49
-1.27
 74
     0
 49
1.27
 74
     0
 49
-1.27
 74
     0
  0
LTYPE
  5
71
330
5
100
AcDbSymbolTableRecord
100
AcDbLinetypeTableRecord
  2
CENTERX2
 70
     0
  3
Center (2x) ________  __  ________  __  _____
 72
    65
 73
     4
 40
20.32
 49
12.7
 74
     0
 49
-2.54
 74
     0
 49
2.54
 74
     0
 49
-2.54
 74
     0
  0
LTYPE
  5
72
330
5
100
AcDbSymbolTableRecord
100
AcDbLinetypeTableRecord
  2
DOT2
 70
     0
  3
Dot (.5x) ........................................
 72
    65
 73
     2
 40
0.635
 49
0.0
 74
     0
 49
-0.635
 74
     0
  0
ENDTAB
  0
TABLE
  2
LAYER
  5
2
330
0
100
AcDbSymbolTable
 70
    37
  0
LAYER
  5
10
330
2
100
AcDbSymbolTableRecord
100
AcDbLayerTableRecord
  2
0
 70
     0
 62
     7
  6
Continuous
370
    -3
390
F
347
46
348
0
  0
LAYER
  5
73
330
2
100
AcDbSymbolTableRecord
100
AcDbLayerTableRecord
  2
SLD-0
 70
     0
 62
     7
  6
Continuous
370
    -3
390
F
347
46
348
0
  0
LAYER
  5
74
330
2
100
AcDbSymbolTableRecord
100
AcDbLayerTableRecord
  2
RAHMEN025
 70
     0
 62
     7
  6
Continuous
370
    -3
390
F
347
46
348
0
  0
LAYER
  5
75
330
2
100
AcDbSymbolTableRecord
100
AcDbLayerTableRecord
  2
RAHMEN07
 70
     0
 62
     5
  6
Continuous
370
    -3
390
F
347
46
348
0
  0
LAYER
  5
76
330
2
100
AcDbSymbolTableRecord
100
AcDbLayerTableRecord
  2
RAHMEN05
 70
     0
 62
     6
  6
Continuous
370
    -3
390
F
347
46
348
0
  0
LAYER
  5
77
330
2
100
AcDbSymbolTableRecord
100
AcDbLayerTableRecord
  2
TB
 70
     0
 62
     7
  6
Continuous
370
    -3
390
F
347
46
348
0
  0
LAYER
  5
78
330
2
100
AcDbSymbolTableRecord
100
AcDbLayerTableRecord
  2
1-VIDNO
 70
     0
 62
     5
  6
Continuous
370
    -3
390
F
347
46
348
0
  0
LAYER
  5
79
330
2
100
AcDbSymbolTableRecord
100
AcDbLayerTableRecord
  2
2-NEVIDNO
 70
     0
 62
     5
  6
HIDDEN
370
    -3
390
F
347
46
348
0
  0
LAYER
  5
7A
330
2
100
AcDbSymbolTableRecord
100
AcDbLayerTableRecord
  2
O-GLAVE
 70
     0
 62
     5
  6
Continuous
370
    -3
390
F
347
46
348
0
  0
LAYER
  5
7B
330
2
100
AcDbSymbolTableRecord
100
AcDbLayerTableRecord
  2
O-TEKST
 70
     0
 62
     7
  6
Continuous
370
    -3
390
F
347
46
348
0
  0
LAYER
  5
7C
330
2
100
AcDbSymbolTableRecord
100
AcDbLayerTableRecord
  2
O-ZUNANJI
 70
     0
 62
     7
  6
Continuous
370
    -3
390
F
347
46
348
0
  0
LAYER
  5
7D
330
2
100
AcDbSymbolTableRecord
100
AcDbLayerTableRecord
  2
SLD-DEFPOINTS
 70
     0
 62
     7
  6
Continuous
370
    -3
390
F
347
46
348
0
  0
LAYER
  5
7E
330
2
100
AcDbSymbolTableRecord
100
AcDbLayerTableRecord
  2
3-POMOZNO
 70
     0
 62
     4
  6
Continuous
370
    -3
390
F
347
46
348
0
  0
LAYER
  5
7F
330
2
100
AcDbSymbolTableRecord
100
AcDbLayerTableRecord
  2
4-SREDNJICA
 70
     0
 62
     1
  6
CENTER
370
    -3
390
F
347
46
348
0
  0
LAYER
  5
80
330
2
100
AcDbSymbolTableRecord
100
AcDbLayerTableRecord
  2
5-SRAFURA
 70
     0
 62
     7
  6
Continuous
370
    -3
390
F
347
46
348
0
  0
LAYER
  5
81
330
2
100
AcDbSymbolTableRecord
100
AcDbLayerTableRecord
  2
6-KOTE
 70
     0
 62
     7
  6
Continuous
370
    -3
390
F
347
46
348
0
  0
LAYER
  5
82
330
2
100
AcDbSymbolTableRecord
100
AcDbLayerTableRecord
  2
7-TEKST
 70
     0
 62
     7
  6
Continuous
370
    -3
390
F
347
46
348
0
  0
LAYER
  5
83
330
2
100
AcDbSymbolTableRecord
100
AcDbLayerTableRecord
  2
8-VARJENJA
 70
     0
 62
     1
  6
Continuous
370
    -3
390
F
347
46
348
0
  0
LAYER
  5
84
330
2
100
AcDbSymbolTableRecord
100
AcDbLayerTableRecord
  2
BEMASSUNG
 70
     0
 62
     7
  6
Continuous
370
    -3
390
F
347
46
348
0
  0
LAYER
  5
85
330
2
100
AcDbSymbolTableRecord
100
AcDbLayerTableRecord
  2
UMRISS03
 70
     0
 62
     7
  6
Continuous
370
    -3
390
F
347
46
348
0
  0
LAYER
  5
86
330
2
100
AcDbSymbolTableRecord
100
AcDbLayerTableRecord
  2
UMRISS02
 70
     0
 62
     7
  6
Continuous
370
    -3
390
F
347
46
348
0
  0
LAYER
  5
87
330
2
100
AcDbSymbolTableRecord
100
AcDbLayerTableRecord
  2
HILFSLINIEN
 70
     0
 62
     7
  6
Continuous
370
    -3
390
F
347
46
348
0
  0
LAYER
  5
88
330
2
100
AcDbSymbolTableRecord
100
AcDbLayerTableRecord
  2
UMRISS03_-PSPAC_
 70
     0
 62
     7
  6
Continuous
370
    -3
390
F
347
46
348
0
  0
LAYER
  5
89
330
2
100
AcDbSymbolTableRecord
100
AcDbLayerTableRecord
  2
ACA_VARSAVE
 70
     0
 62
     7
  6
Continuous
370
    -3
390
F
347
46
348
0
  0
LAYER
  5
8A
330
2
100
AcDbSymbolTableRecord
100
AcDbLayerTableRecord
  2
KONTUREN
 70
     0
 62
     7
  6
Continuous
370
    -3
390
F
347
46
348
0
  0
LAYER
  5
8B
330
2
100
AcDbSymbolTableRecord
100
AcDbLayerTableRecord
  2
ACHSE
 70
     0
 62
     7
  6
Continuous
370
    -3
390
F
347
46
348
0
  0
LAYER
  5
8C
330
2
100
AcDbSymbolTableRecord
100
AcDbLayerTableRecord
  2
UNSICHTBAR
 70
     0
 62
     7
  6
Continuous
370
    -3
390
F
347
46
348
0
  0
LAYER
  5
8D
330
2
100
AcDbSymbolTableRecord
100
AcDbLayerTableRecord
  2
MASSE
 70
     0
 62
     7
  6
Continuous
370
    -3
390
F
347
46
348
0
  0
LAYER
  5
8E
330
2
100
AcDbSymbolTableRecord
100
AcDbLayerTableRecord
  2
RAND
 70
     0
 62
     7
  6
Continuous
370
    -3
390
F
347
46
348
0
  0
LAYER
  5
8F
330
2
100
AcDbSymbolTableRecord
100
AcDbLayerTableRecord
  2
D-TEXT
 70
     0
 62
     7
  6
Continuous
370
    -3
390
F
347
46
348
0
  0
LAYER
  5
90
330
2
100
AcDbSymbolTableRecord
100
AcDbLayerTableRecord
  2
F-TEXT
 70
     0
 62
     7
  6
Continuous
370
    -3
390
F
347
46
348
0
  0
LAYER
  5
91
330
2
100
AcDbSymbolTableRecord
100
AcDbLayerTableRecord
  2
I-TEXT
 70
     0
 62
     7
  6
Continuous
370
    -3
390
F
347
46
348
0
  0
LAYER
  5
92
330
2
100
AcDbSymbolTableRecord
100
AcDbLayerTableRecord
  2
D-TEXT-FETT
 70
     0
 62
     7
  6
Continuous
370
    -3
390
F
347
46
348
0
  0
LAYER
  5
93
330
2
100
AcDbSymbolTableRecord
100
AcDbLayerTableRecord
  2
F-TEXT-FETT
 70
     0
 62
     7
  6
Continuous
370
    -3
390
F
347
46
348
0
  0
LAYER
  5
94
330
2
100
AcDbSymbolTableRecord
100
AcDbLayerTableRecord
  2
I-TEXT-FETT
 70
     0
 62
     7
  6
Continuous
370
    -3
390
F
347
46
348
0
  0
LAYER
  5
95
330
2
100
AcDbSymbolTableRecord
100
AcDbLayerTableRecord
  2
TEXT-D-F-I
 70
     0
 62
     7
  6
Continuous
370
    -3
390
F
347
46
348
0
  0
LAYER
  5
96
330
2
100
AcDbSymbolTableRecord
100
AcDbLayerTableRecord
  2
TEXT-D-F-I-FETT
 70
     0
 62
     7
  6
Continuous
370
    -3
390
F
347
46
348
0
  0
ENDTAB
  0
TABLE
  2
STYLE
  5
3
330
0
100
AcDbSymbolTable
 70
     2
  0
STYLE
  5
11
330
3
100
AcDbSymbolTableRecord
100
AcDbTextStyleTableRecord
  2
Standard
 70
     0
 40
0.0
 41
1.0
 50
0.0
 71
     0
 42
3.5
  3
txt
  4

  0
STYLE
  5
114
330
3
100
AcDbSymbolTableRecord
100
AcDbTextStyleTableRecord
  2
SLDTEXTSTYLE0
 70
     0
 40
0.0
 41
0.75
 50
0.0
 71
     0
 42
3.5
  3
TXT
  4

  0
ENDTAB
  0
TABLE
  2
VIEW
  5
6
330
0
100
AcDbSymbolTable
 70
     0
  0
ENDTAB
  0
TABLE
  2
UCS
  5
7
330
0
100
AcDbSymbolTable
 70
     0
  0
ENDTAB
  0
TABLE
  2
APPID
  5
9
330
0
100
AcDbSymbolTable
 70
     1
  0
APPID
  5
12
330
9
100
AcDbSymbolTableRecord
100
AcDbRegAppTableRecord
  2
ACAD
 70
     0
  0
ENDTAB
  0
TABLE
  2
DIMSTYLE
  5
A
330
0
100
AcDbSymbolTable
 70
     1
100
AcDbDimStyleTable
  0
DIMSTYLE
105
27
330
A
100
AcDbSymbolTableRecord
100
AcDbDimStyleTableRecord
  2
ISO-25
 70
     0
 41
2.5
 42
0.625
 43
3.75
 44
1.25
 73
     0
 74
     0
 77
     1
 78
     8
140
2.5
141
2.5
143
0.0393700787
147
0.625
171
     3
172
     1
178
     0
271
     2
272
     2
274
     3
278
    44
283
     0
284
     8
340
11
  0
ENDTAB
  0
TABLE
  2
BLOCK_RECORD
  5
1
330
0
100
AcDbSymbolTable
 70
     3
  0
BLOCK_RECORD
  5
1F
330
1
100
AcDbSymbolTableRecord
100
AcDbBlockTableRecord
  2
*Model_Space
340
22
 70
     0
280
     1
281
     0
  0
BLOCK_RECORD
  5
1B
330
1
100
AcDbSymbolTableRecord
100
AcDbBlockTableRecord
  2
*Paper_Space
340
1E
 70
     0
280
     1
281
     0
  0
BLOCK_RECORD
  5
23
330
1
100
AcDbSymbolTableRecord
100
AcDbBlockTableRecord
  2
*Paper_Space0
340
26
 70
     0
280
     1
281
     0
  0
BLOCK_RECORD
  5
1CD
330
1
100
AcDbSymbolTableRecord
100
AcDbBlockTableRecord
  2
SW_NOTE_0
340
0
102
{BLKREFS
331
1D2
102
}
 70
     0
280
     1
281
     0
  0
BLOCK_RECORD
  5
206
330
1
100
AcDbSymbolTableRecord
100
AcDbBlockTableRecord
  2
SW_NOTE_1
340
0
102
{BLKREFS
331
20B
102
}
 70
     0
280
     1
281
     0
  0
ENDTAB
  0
ENDSEC
  0
SECTION
  2
BLOCKS
  0
BLOCK
  5
20
330
1F
100
AcDbEntity
  8
0
100
AcDbBlockBegin
  2
*Model_Space
 70
     0
 10
0.0
 20
0.0
 30
0.0
  3
*Model_Space
  1

  0
ENDBLK
  5
21
330
1F
100
AcDbEntity
  8
0
100
AcDbBlockEnd
  0
BLOCK
  5
1C
330
1B
100
AcDbEntity
 67
     1
  8
0
100
AcDbBlockBegin
  2
*Paper_Space
 70
     0
 10
0.0
 20
0.0
 30
0.0
  3
*Paper_Space
  1

  0
ENDBLK
  5
1D
330
1B
100
AcDbEntity
 67
     1
  8
0
100
AcDbBlockEnd
  0
BLOCK
  5
24
330
23
100
AcDbEntity
  8
0
100
AcDbBlockBegin
  2
*Paper_Space0
 70
     0
 10
0.0
 20
0.0
 30
0.0
  3
*Paper_Space0
  1

  0
ENDBLK
  5
25
330
23
100
AcDbEntity
  8
0
100
AcDbBlockEnd
  0
BLOCK
  5
1CE
330
1CD
100
AcDbEntity
  8
0
100
AcDbBlockBegin
  2
SW_NOTE_0
 70
     0
 10
0.0
 20
0.0
 30
0.0
  3
SW_NOTE_0
  1

  0
MTEXT
  5
1D0
330
1CD
100
AcDbEntity
  8
O-TEKST
 62
     0
100
AcDbMText
 10
16.0734375
 20
8.1855801476
 30
0.0
 40
6.35
 41
0.0
 46
0.0
 71
     2
 72
     1
  1
SCHNITT
  7
SLDTEXTSTYLE0
 73
     1
 44
1.0
  0
MTEXT
  5
1D1
330
1CD
100
AcDbEntity
  8
O-TEKST
 62
     0
100
AcDbMText
 10
38.5538176
 20
5.3469457771
 30
0.0
 40
3.5
 41
0.0
 46
0.0
 71
     2
 72
     1
  1
A-A
  7
SLDTEXTSTYLE0
 73
     1
 44
1.0
  0
ENDBLK
  5
1CF
330
1CD
100
AcDbEntity
  8
0
100
AcDbBlockEnd
  0
BLOCK
  5
207
330
206
100
AcDbEntity
  8
0
100
AcDbBlockBegin
  2
SW_NOTE_1
 70
     0
 10
0.0
 20
0.0
 30
0.0
  3
SW_NOTE_1
  1

  0
MTEXT
  5
209
330
206
100
AcDbEntity
  8
O-TEKST
 62
     0
100
AcDbMText
 10
16.0734375
 20
8.1855801476
 30
0.0
 40
6.35
 41
0.0
 46
0.0
 71
     2
 72
     1
  1
SCHNITT
  7
SLDTEXTSTYLE0
 73
     1
 44
1.0
  0
MTEXT
  5
20A
330
206
100
AcDbEntity
  8
O-TEKST
 62
     0
100
AcDbMText
 10
38.0069426
 20
5.3469457771
 30
0.0
 40
3.5
 41
0.0
 46
0.0
 71
     2
 72
     1
  1
B-B
  7
SLDTEXTSTYLE0
 73
     1
 44
1.0
  0
ENDBLK
  5
208
330
206
100
AcDbEntity
  8
0
100
AcDbBlockEnd
  0
ENDSEC
  0
SECTION
  2
ENTITIES
  0
LINE
  5
97
330
1F
100
AcDbEntity
  8
0
  6
Continuous
 62
     7
370
    25
100
AcDbLine
 10
79.7514255544
 20
82.1558606125
 30
0.0
 11
257.7514255544
 21
82.1558606125
 31
0.0
  0
LINE
  5
98
330
1F
100
AcDbEntity
  8
0
  6
Continuous
 62
     7
370
    25
100
AcDbLine
 10
257.7514255544
 20
82.1558606125
 30
0.0
 11
257.7514255544
 21
140.1558606125
 31
0.0
  0
LINE
  5
99
330
1F
100
AcDbEntity
  8
0
  6
Continuous
 62
     7
370
    25
100
AcDbLine
 10
257.7514255544
 20
140.1558606125
 30
0.0
 11
79.7514255544
 21
140.1558606125
 31
0.0
  0
LINE
  5
9A
330
1F
100
AcDbEntity
  8
0
  6
Continuous
 62
     7
370
    25
100
AcDbLine
 10
79.7514255544
 20
140.1558606125
 30
0.0
 11
79.7514255544
 21
82.1558606125
 31
0.0
  0
LINE
  5
9B
330
1F
100
AcDbEntity
  8
0
  6
Continuous
 62
     7
370
    25
100
AcDbLine
 10
233.7514255544
 20
90.1558606125
 30
0.0
 11
233.7514255544
 21
132.1558606125
 31
0.0
  0
LINE
  5
9C
330
1F
100
AcDbEntity
  8
0
  6
Continuous
 62
     7
370
    25
100
AcDbLine
 10
233.7514255544
 20
132.1558606125
 30
0.0
 11
103.7514255544
 21
132.1558606125
 31
0.0
  0
LINE
  5
9D
330
1F
100
AcDbEntity
  8
0
  6
Continuous
 62
     7
370
    25
100
AcDbLine
 10
103.7514255544
 20
132.1558606125
 30
0.0
 11
103.7514255544
 21
90.1558606125
 31
0.0
  0
LINE
  5
9E
330
1F
100
AcDbEntity
  8
0
  6
Continuous
 62
     7
370
    25
100
AcDbLine
 10
103.7514255544
 20
90.1558606125
 30
0.0
 11
233.7514255544
 21
90.1558606125
 31
0.0
  0
SPLINE
  5
9F
330
1F
100
AcDbEntity
  8
0
  6
Continuous
 62
     7
370
    25
100
AcDbSpline
210
0.0
220
0.0
230
1.0
 70
     8
 71
     3
 72
    13
 73
     9
 74
     0
 42
0.000000001
 43
0.00000001
 40
0.0
 40
0.0
 40
0.0
 40
0.0
 40
0.1136733573953124
 40
0.2347444985469644
 40
0.500000000000009
 40
0.7652555014530562
 40
0.8863266426046784
 40
0.9999999999999999
 40
0.9999999999999999
 40
0.9999999999999999
 40
0.9999999999999999
 10
106.4549426584646
 20
118.2977727363843
 30
0.0
 10
106.453373413188
 20
118.2969190446753
 30
0.0
 10
106.4501327972336
 20
118.2951561035892
 30
0.0
 10
106.4217314347939
 20
118.277825252771
 30
0.0
 10
106.3726203279943
 20
118.2423904961771
 30
0.0
 10
106.3235092211946
 20
118.1912522426113
 30
0.0
 10
106.2951078587549
 20
118.1396775915596
 30
0.0
 10
106.2918672428006
 20
118.1114444397649
 30
0.0
 10
106.2902979975239
 20
118.0977727363843
 30
0.0
  0
SPLINE
  5
A0
330
1F
100
AcDbEntity
  8
0
  6
Continuous
 62
     7
370
    25
100
AcDbSpline
210
0.0
220
0.0
230
1.0
 70
     8
 71
     3
 72
    13
 73
     9
 74
     0
 42
0.000000001
 43
0.00000001
 40
0.0
 40
0.0
 40
0.0
 40
0.0
 40
0.1242103284963936
 40
0.2484733181776798
 40
0.500000000000004
 40
0.751526681822327
 40
0.8757896715036073
 40
1.0
 40
1.0
 40
1.0
 40
1.0
 10
106.4549426584646
 20
118.4977727363843
 30
0.0
 10
106.4534561718559
 20
118.4961625509751
 30
0.0
 10
106.4504825684159
 20
118.4929414974897
 30
0.0
 10
106.4234404282327
 20
118.4600413636087
 30
0.0
 10
106.3726203279942
 20
118.3876385332051
 30
0.0
 10
106.3218002277559
 20
118.2802040661638
 30
0.0
 10
106.2947580875726
 20
118.1788513064039
 30
0.0
 10
106.2917844841326
 20
118.1247951075187
 30
0.0
 10
106.2902979975239
 20
118.0977727363843
 30
0.0
  0
LINE
  5
A1
330
1F
100
AcDbEntity
  8
0
  6
Continuous
 62
     7
370
    25
100
AcDbLine
 10
106.4549426585
 20
118.4977727364
 30
0.0
 11
106.4549426585
 21
118.2977727364
 31
0.0
  0
LINE
  5
A2
330
1F
100
AcDbEntity
  8
0
  6
Continuous
 62
     7
370
    25
100
AcDbLine
 10
106.4549426585
 20
118.4977727364
 30
0.0
 11
103.7514255544
 21
118.4977727364
 31
0.0
  0
LINE
  5
A3
330
1F
100
AcDbEntity
  8
0
  6
Continuous
 62
     7
370
    25
100
AcDbLine
 10
105.2902979975
 20
107.8977727364
 30
0.0
 11
103.7514255544
 21
107.8977727364
 31
0.0
  0
LINE
  5
A4
330
1F
100
AcDbEntity
  8
0
  6
Continuous
 62
     7
370
    25
100
AcDbLine
 10
103.7514255544
 20
105.3977727364
 30
0.0
 11
105.2902979975
 21
105.3977727364
 31
0.0
  0
LINE
  5
A5
330
1F
100
AcDbEntity
  8
0
  6
Continuous
 62
     7
370
    25
100
AcDbLine
 10
105.2902979975
 20
105.3977727364
 30
0.0
 11
105.2902979975
 21
107.8977727364
 31
0.0
  0
LINE
  5
A6
330
1F
100
AcDbEntity
  8
0
  6
Continuous
 62
     7
370
    25
100
AcDbLine
 10
105.2902979975
 20
112.3977727364
 30
0.0
 11
103.7514255544
 21
112.3977727364
 31
0.0
  0
LINE
  5
A7
330
1F
100
AcDbEntity
  8
0
  6
Continuous
 62
     7
370
    25
100
AcDbLine
 10
103.7514255544
 20
109.8977727364
 30
0.0
 11
105.2902979975
 21
109.8977727364
 31
0.0
  0
LINE
  5
A8
330
1F
100
AcDbEntity
  8
0
  6
Continuous
 62
     7
370
    25
100
AcDbLine
 10
105.2902979975
 20
109.8977727364
 30
0.0
 11
105.2902979975
 21
112.3977727364
 31
0.0
  0
LINE
  5
A9
330
1F
100
AcDbEntity
  8
0
  6
Continuous
 62
     7
370
    25
100
AcDbLine
 10
106.2902979975
 20
117.8977727364
 30
0.0
 11
106.4902979975
 21
117.8977727364
 31
0.0
  0
LINE
  5
AA
330
1F
100
AcDbEntity
  8
0
  6
Continuous
 62
     7
370
    25
100
AcDbLine
 10
106.2902979975
 20
104.3977727364
 30
0.0
 11
106.4902979975
 21
104.3977727364
 31
0.0
  0
LINE
  5
AB
330
1F
100
AcDbEntity
  8
0
  6
Continuous
 62
     7
370
    25
100
AcDbLine
 10
106.2902979975
 20
104.1977727364
 30
0.0
 11
106.2902979975
 21
104.3977727364
 31
0.0
  0
LINE
  5
AC
330
1F
100
AcDbEntity
  8
0
  6
Continuous
 62
     7
370
    25
100
AcDbLine
 10
105.2902979975
 20
116.8977727364
 30
0.0
 11
103.7514255544
 21
116.8977727364
 31
0.0
  0
LINE
  5
AD
330
1F
100
AcDbEntity
  8
0
  6
Continuous
 62
     7
370
    25
100
AcDbLine
 10
103.7514255544
 20
114.3977727364
 30
0.0
 11
105.2902979975
 21
114.3977727364
 31
0.0
  0
LINE
  5
AE
330
1F
100
AcDbEntity
  8
0
  6
Continuous
 62
     7
370
    25
100
AcDbLine
 10
105.2902979975
 20
114.3977727364
 30
0.0
 11
105.2902979975
 21
116.8977727364
 31
0.0
  0
LINE
  5
AF
330
1F
100
AcDbEntity
  8
0
  6
Continuous
 62
     7
370
    25
100
AcDbLine
 10
106.2902979975
 20
118.0977727364
 30
0.0
 11
106.2902979975
 21
117.8977727364
 31
0.0
  0
SPLINE
  5
B0
330
1F
100
AcDbEntity
  8
0
  6
Continuous
 62
     7
370
    25
100
AcDbSpline
210
0.0
220
0.0
230
1.0
 70
     8
 71
     3
 72
    13
 73
     9
 74
     0
 42
0.000000001
 43
0.00000001
 40
0.0
 40
0.0
 40
0.0
 40
0.0
 40
0.1136733573953291
 40
0.2347444985469581
 40
0.4999999999999972
 40
0.765255501453055
 40
0.8863266426046875
 40
1.0
 40
1.0
 40
1.0
 40
1.0
 10
106.4902979975239
 20
117.8977727363843
 30
0.0
 10
106.5039697009045
 20
117.899341981661
 30
0.0
 10
106.5322028526992
 20
117.9025825976154
 30
0.0
 10
106.5837775037509
 20
117.930983960055
 30
0.0
 10
106.6349157573167
 20
117.9800950668547
 30
0.0
 10
106.6703505139106
 20
118.0292061736544
 30
0.0
 10
106.6876813647288
 20
118.057607536094
 30
0.0
 10
106.6894443058149
 20
118.0608481520484
 30
0.0
 10
106.6902979975239
 20
118.062417397325
 30
0.0
  0
LINE
  5
B1
330
1F
100
AcDbEntity
  8
0
  6
Continuous
 62
     7
370
    25
100
AcDbLine
 10
106.6902979975
 20
118.0624173973
 30
0.0
 11
106.8902979975
 21
118.0624173973
 31
0.0
  0
SPLINE
  5
B2
330
1F
100
AcDbEntity
  8
0
  6
Continuous
 62
     7
370
    25
100
AcDbSpline
210
0.0
220
0.0
230
1.0
 70
     8
 71
     3
 72
    13
 73
     9
 74
     0
 42
0.000000001
 43
0.00000001
 40
0.0
 40
0.0
 40
0.0
 40
0.0
 40
0.1242103284963836
 40
0.2484733181776741
 40
0.4999999999999994
 40
0.7515266818223278
 40
0.8757896715036088
 40
1.0
 40
1.0
 40
1.0
 40
1.0
 10
106.4902979975239
 20
117.8977727363843
 30
0.0
 10
106.5173203686583
 20
117.8992592229931
 30
0.0
 10
106.5713765675435
 20
117.902232826433
 30
0.0
 10
106.6727293273035
 20
117.9292749666163
 30
0.0
 10
106.7801637943447
 20
117.9800950668547
 30
0.0
 10
106.8525666247483
 20
118.030915167093
 30
0.0
 10
106.8854667586294
 20
118.0579573072763
 30
0.0
 10
106.8886878121147
 20
118.0609309107163
 30
0.0
 10
106.8902979975239
 20
118.062417397325
 30
0.0
  0
LINE
  5
B3
330
1F
100
AcDbEntity
  8
0
  6
Continuous
 62
     7
370
    25
100
AcDbLine
 10
106.8902979975
 20
104.2331280754
 30
0.0
 11
106.8902979975
 21
118.0624173973
 31
0.0
  0
SPLINE
  5
B4
330
1F
100
AcDbEntity
  8
0
  6
Continuous
 62
     7
370
    25
100
AcDbSpline
210
0.0
220
0.0
230
1.0
 70
     8
 71
     3
 72
    13
 73
     9
 74
     0
 42
0.000000001
 43
0.00000001
 40
0.0
 40
0.0
 40
0.0
 40
0.0
 40
0.1242103284963913
 40
0.2484733181776771
 40
0.5000000000000021
 40
0.7515266818223255
 40
0.8757896715035998
 40
0.9999999999999999
 40
0.9999999999999999
 40
0.9999999999999999
 40
0.9999999999999999
 10
106.8902979975239
 20
104.2331280754436
 30
0.0
 10
106.8886878121147
 20
104.2346145620524
 30
0.0
 10
106.8854667586294
 20
104.2375881654923
 30
0.0
 10
106.8525666247483
 20
104.2646303056756
 30
0.0
 10
106.7801637943447
 20
104.315450405914
 30
0.0
 10
106.6727293273035
 20
104.3662705061523
 30
0.0
 10
106.5713765675435
 20
104.3933126463356
 30
0.0
 10
106.5173203686583
 20
104.3962862497756
 30
0.0
 10
106.4902979975239
 20
104.3977727363843
 30
0.0
  0
SPLINE
  5
B5
330
1F
100
AcDbEntity
  8
0
  6
Continuous
 62
     7
370
    25
100
AcDbSpline
210
0.0
220
0.0
230
1.0
 70
     8
 71
     3
 72
    13
 73
     9
 74
     0
 42
0.000000001
 43
0.00000001
 40
0.0
 40
0.0
 40
0.0
 40
0.0
 40
0.1136733573953087
 40
0.2347444985469496
 40
0.4999999999999905
 40
0.7652555014530446
 40
0.886326642604672
 40
1.0
 40
1.0
 40
1.0
 40
1.0
 10
106.6902979975239
 20
104.2331280754436
 30
0.0
 10
106.6894443058149
 20
104.2346973207203
 30
0.0
 10
106.6876813647288
 20
104.2379379366747
 30
0.0
 10
106.6703505139106
 20
104.2663392991143
 30
0.0
 10
106.6349157573167
 20
104.315450405914
 30
0.0
 10
106.5837775037509
 20
104.3645615127136
 30
0.0
 10
106.5322028526992
 20
104.3929628751533
 30
0.0
 10
106.5039697009045
 20
104.3962034911077
 30
0.0
 10
106.4902979975239
 20
104.3977727363843
 30
0.0
  0
LINE
  5
B6
330
1F
100
AcDbEntity
  8
0
  6
Continuous
 62
     7
370
    25
100
AcDbLine
 10
106.6902979975
 20
104.2331280754
 30
0.0
 11
106.8902979975
 21
104.2331280754
 31
0.0
  0
SPLINE
  5
B7
330
1F
100
AcDbEntity
  8
0
  6
Continuous
 62
     7
370
    25
100
AcDbSpline
210
0.0
220
0.0
230
1.0
 70
     8
 71
     3
 72
    13
 73
     9
 74
     0
 42
0.000000001
 43
0.00000001
 40
0.0
 40
0.0
 40
0.0
 40
0.0
 40
0.1136733573953209
 40
0.2347444985469557
 40
0.5000000000000032
 40
0.7652555014530464
 40
0.8863266426046845
 40
1.0
 40
1.0
 40
1.0
 40
1.0
 10
106.2902979975239
 20
104.1977727363843
 30
0.0
 10
106.2918672428006
 20
104.1841010330037
 30
0.0
 10
106.295107858755
 20
104.1558678812091
 30
0.0
 10
106.3235092211946
 20
104.1042932301574
 30
0.0
 10
106.3726203279943
 20
104.0531549765916
 30
0.0
 10
106.421731434794
 20
104.0177202199977
 30
0.0
 10
106.4501327972336
 20
104.0003893691794
 30
0.0
 10
106.453373413188
 20
103.9986264280933
 30
0.0
 10
106.4549426584646
 20
103.9977727363843
 30
0.0
  0
LINE
  5
B8
330
1F
100
AcDbEntity
  8
0
  6
Continuous
 62
     7
370
    25
100
AcDbLine
 10
106.4549426585
 20
103.7977727364
 30
0.0
 11
106.4549426585
 21
103.9977727364
 31
0.0
  0
SPLINE
  5
B9
330
1F
100
AcDbEntity
  8
0
  6
Continuous
 62
     7
370
    25
100
AcDbSpline
210
0.0
220
0.0
230
1.0
 70
     8
 71
     3
 72
    13
 73
     9
 74
     0
 42
0.000000001
 43
0.00000001
 40
0.0
 40
0.0
 40
0.0
 40
0.0
 40
0.1242103284963931
 40
0.2484733181776775
 40
0.5000000000000019
 40
0.7515266818223241
 40
0.8757896715036085
 40
1.0
 40
1.0
 40
1.0
 40
1.0
 10
106.2902979975239
 20
104.1977727363843
 30
0.0
 10
106.2917844841326
 20
104.1707503652499
 30
0.0
 10
106.2947580875726
 20
104.1166941663647
 30
0.0
 10
106.3218002277559
 20
104.0153414066048
 30
0.0
 10
106.3726203279943
 20
103.9079069395635
 30
0.0
 10
106.4234404282327
 20
103.8355041091599
 30
0.0
 10
106.4504825684159
 20
103.8026039752789
 30
0.0
 10
106.4534561718559
 20
103.7993829217936
 30
0.0
 10
106.4549426584646
 20
103.7977727363843
 30
0.0
  0
LINE
  5
BA
330
1F
100
AcDbEntity
  8
0
  6
Continuous
 62
     7
370
    25
100
AcDbLine
 10
103.7514255544
 20
103.7977727364
 30
0.0
 11
106.4549426585
 21
103.7977727364
 31
0.0
  0
LINE
  5
BB
330
1F
100
AcDbEntity
  8
0
  6
Continuous
 62
     7
370
    25
100
AcDbLine
 10
106.8902979975
 20
118.4977727364
 30
0.0
 11
106.4549426585
 21
118.4977727364
 31
0.0
  0
LINE
  5
BC
330
1F
100
AcDbEntity
  8
0
  6
Continuous
 62
     7
370
    25
100
AcDbLine
 10
106.8902979975
 20
118.4977727364
 30
0.0
 11
106.8902979975
 21
118.2977727364
 31
0.0
  0
LINE
  5
BD
330
1F
100
AcDbEntity
  8
0
  6
Continuous
 62
     7
370
    25
100
AcDbLine
 10
106.8902979975
 20
118.2977727364
 30
0.0
 11
106.4549426585
 21
118.2977727364
 31
0.0
  0
LINE
  5
BE
330
1F
100
AcDbEntity
  8
0
  6
Continuous
 62
     7
370
    25
100
AcDbLine
 10
106.6902979975
 20
118.2477727364
 30
0.0
 11
106.6902979975
 21
118.0624173973
 31
0.0
  0
LINE
  5
BF
330
1F
100
AcDbEntity
  8
0
  6
Continuous
 62
     7
370
    25
100
AcDbLine
 10
106.6902979975
 20
118.2477727364
 30
0.0
 11
106.8902979975
 21
118.2477727364
 31
0.0
  0
LINE
  5
C0
330
1F
100
AcDbEntity
  8
0
  6
Continuous
 62
     7
370
    25
100
AcDbLine
 10
106.8902979975
 20
118.2477727364
 30
0.0
 11
106.8902979975
 21
118.0624173973
 31
0.0
  0
LINE
  5
C1
330
1F
100
AcDbEntity
  8
0
  6
Continuous
 62
     7
370
    25
100
AcDbLine
 10
106.6902979975
 20
104.0477727364
 30
0.0
 11
106.8902979975
 21
104.0477727364
 31
0.0
  0
LINE
  5
C2
330
1F
100
AcDbEntity
  8
0
  6
Continuous
 62
     7
370
    25
100
AcDbLine
 10
106.8902979975
 20
104.2331280754
 30
0.0
 11
106.8902979975
 21
104.0477727364
 31
0.0
  0
LINE
  5
C3
330
1F
100
AcDbEntity
  8
0
  6
Continuous
 62
     7
370
    25
100
AcDbLine
 10
106.6902979975
 20
104.2331280754
 30
0.0
 11
106.6902979975
 21
104.0477727364
 31
0.0
  0
LINE
  5
C4
330
1F
100
AcDbEntity
  8
0
  6
Continuous
 62
     7
370
    25
100
AcDbLine
 10
106.8902979975
 20
103.7977727364
 30
0.0
 11
106.8902979975
 21
103.9977727364
 31
0.0
  0
LINE
  5
C5
330
1F
100
AcDbEntity
  8
0
  6
Continuous
 62
     7
370
    25
100
AcDbLine
 10
106.4549426585
 20
103.7977727364
 30
0.0
 11
106.8902979975
 21
103.7977727364
 31
0.0
  0
LINE
  5
C6
330
1F
100
AcDbEntity
  8
0
  6
Continuous
 62
     7
370
    25
100
AcDbLine
 10
106.4549426585
 20
103.9977727364
 30
0.0
 11
106.8902979975
 21
103.9977727364
 31
0.0
  0
LINE
  5
C7
330
1F
100
AcDbEntity
  8
0
  6
Continuous
 62
     7
370
    25
100
AcDbLine
 10
233.7514255544
 20
118.4977727364
 30
0.0
 11
231.0479084503
 21
118.4977727364
 31
0.0
  0
SPLINE
  5
C8
330
1F
100
AcDbEntity
  8
0
  6
Continuous
 62
     7
370
    25
100
AcDbSpline
210
0.0
220
0.0
230
1.0
 70
     8
 71
     3
 72
    13
 73
     9
 74
     0
 42
0.000000001
 43
0.00000001
 40
0.0
 40
0.0
 40
0.0
 40
0.0
 40
0.1242103284963927
 40
0.2484733181776732
 40
0.4999999999999962
 40
0.7515266818223203
 40
0.8757896715036065
 40
1.0
 40
1.0
 40
1.0
 40
1.0
 10
231.2125531112414
 20
118.0977727363843
 30
0.0
 10
231.2110666246326
 20
118.1247951075187
 30
0.0
 10
231.2080930211927
 20
118.1788513064039
 30
0.0
 10
231.1810508810094
 20
118.2802040661638
 30
0.0
 10
231.130230780771
 20
118.3876385332051
 30
0.0
 10
231.0794106805327
 20
118.4600413636087
 30
0.0
 10
231.0523685403494
 20
118.4929414974897
 30
0.0
 10
231.0493949369094
 20
118.496162550975
 30
0.0
 10
231.0479084503007
 20
118.4977727363843
 30
0.0
  0
SPLINE
  5
C9
330
1F
100
AcDbEntity
  8
0
  6
Continuous
 62
     7
370
    25
100
AcDbSpline
210
0.0
220
0.0
230
1.0
 70
     8
 71
     3
 72
    13
 73
     9
 74
     0
 42
0.000000001
 43
0.00000001
 40
0.0
 40
0.0
 40
0.0
 40
0.0
 40
0.1136733573953215
 40
0.2347444985469438
 40
0.499999999999991
 40
0.7652555014530357
 40
0.8863266426046877
 40
1.0
 40
1.0
 40
1.0
 40
1.0
 10
231.2125531112414
 20
118.0977727363843
 30
0.0
 10
231.2109838659647
 20
118.1114444397649
 30
0.0
 10
231.2077432500103
 20
118.1396775915596
 30
0.0
 10
231.1793418875707
 20
118.1912522426112
 30
0.0
 10
231.130230780771
 20
118.2423904961771
 30
0.0
 10
231.0811196739714
 20
118.277825252771
 30
0.0
 10
231.0527183115317
 20
118.2951561035892
 30
0.0
 10
231.0494776955773
 20
118.2969190446753
 30
0.0
 10
231.0479084503007
 20
118.2977727363843
 30
0.0
  0
LINE
  5
CA
330
1F
100
AcDbEntity
  8
0
  6
Continuous
 62
     7
370
    25
100
AcDbLine
 10
231.0479084503
 20
118.4977727364
 30
0.0
 11
231.0479084503
 21
118.2977727364
 31
0.0
  0
LINE
  5
CB
330
1F
100
AcDbEntity
  8
0
  6
Continuous
 62
     7
370
    25
100
AcDbLine
 10
232.2125531112
 20
114.3977727364
 30
0.0
 11
233.7514255544
 21
114.3977727364
 31
0.0
  0
LINE
  5
CC
330
1F
100
AcDbEntity
  8
0
  6
Continuous
 62
     7
370
    25
100
AcDbLine
 10
233.7514255544
 20
116.8977727364
 30
0.0
 11
232.2125531112
 21
116.8977727364
 31
0.0
  0
LINE
  5
CD
330
1F
100
AcDbEntity
  8
0
  6
Continuous
 62
     7
370
    25
100
AcDbLine
 10
232.2125531112
 20
116.8977727364
 30
0.0
 11
232.2125531112
 21
114.3977727364
 31
0.0
  0
LINE
  5
CE
330
1F
100
AcDbEntity
  8
0
  6
Continuous
 62
     7
370
    25
100
AcDbLine
 10
232.2125531112
 20
109.8977727364
 30
0.0
 11
233.7514255544
 21
109.8977727364
 31
0.0
  0
LINE
  5
CF
330
1F
100
AcDbEntity
  8
0
  6
Continuous
 62
     7
370
    25
100
AcDbLine
 10
233.7514255544
 20
112.3977727364
 30
0.0
 11
232.2125531112
 21
112.3977727364
 31
0.0
  0
LINE
  5
D0
330
1F
100
AcDbEntity
  8
0
  6
Continuous
 62
     7
370
    25
100
AcDbLine
 10
232.2125531112
 20
112.3977727364
 30
0.0
 11
232.2125531112
 21
109.8977727364
 31
0.0
  0
LINE
  5
D1
330
1F
100
AcDbEntity
  8
0
  6
Continuous
 62
     7
370
    25
100
AcDbLine
 10
231.2125531112
 20
104.1977727364
 30
0.0
 11
231.2125531112
 21
104.3977727364
 31
0.0
  0
LINE
  5
D2
330
1F
100
AcDbEntity
  8
0
  6
Continuous
 62
     7
370
    25
100
AcDbLine
 10
231.2125531112
 20
104.3977727364
 30
0.0
 11
231.0125531112
 21
104.3977727364
 31
0.0
  0
LINE
  5
D3
330
1F
100
AcDbEntity
  8
0
  6
Continuous
 62
     7
370
    25
100
AcDbLine
 10
231.2125531112
 20
117.8977727364
 30
0.0
 11
231.0125531112
 21
117.8977727364
 31
0.0
  0
LINE
  5
D4
330
1F
100
AcDbEntity
  8
0
  6
Continuous
 62
     7
370
    25
100
AcDbLine
 10
231.2125531112
 20
118.0977727364
 30
0.0
 11
231.2125531112
 21
117.8977727364
 31
0.0
  0
LINE
  5
D5
330
1F
100
AcDbEntity
  8
0
  6
Continuous
 62
     7
370
    25
100
AcDbLine
 10
232.2125531112
 20
105.3977727364
 30
0.0
 11
233.7514255544
 21
105.3977727364
 31
0.0
  0
LINE
  5
D6
330
1F
100
AcDbEntity
  8
0
  6
Continuous
 62
     7
370
    25
100
AcDbLine
 10
233.7514255544
 20
107.8977727364
 30
0.0
 11
232.2125531112
 21
107.8977727364
 31
0.0
  0
LINE
  5
D7
330
1F
100
AcDbEntity
  8
0
  6
Continuous
 62
     7
370
    25
100
AcDbLine
 10
232.2125531112
 20
107.8977727364
 30
0.0
 11
232.2125531112
 21
105.3977727364
 31
0.0
  0
SPLINE
  5
D8
330
1F
100
AcDbEntity
  8
0
  6
Continuous
 62
     7
370
    25
100
AcDbSpline
210
0.0
220
0.0
230
1.0
 70
     8
 71
     3
 72
    13
 73
     9
 74
     0
 42
0.000000001
 43
0.00000001
 40
0.0
 40
0.0
 40
0.0
 40
0.0
 40
0.1136733573953134
 40
0.2347444985469479
 40
0.5000000000000041
 40
0.7652555014530414
 40
0.8863266426046706
 40
1.0
 40
1.0
 40
1.0
 40
1.0
 10
230.8125531112414
 20
118.062417397325
 30
0.0
 10
230.8134068029504
 20
118.0608481520483
 30
0.0
 10
230.8151697440365
 20
118.057607536094
 30
0.0
 10
230.8325005948547
 20
118.0292061736543
 30
0.0
 10
230.8679353514486
 20
117.9800950668547
 30
0.0
 10
230.9190736050144
 20
117.930983960055
 30
0.0
 10
230.9706482560661
 20
117.9025825976153
 30
0.0
 10
230.9988814078608
 20
117.899341981661
 30
0.0
 10
231.0125531112413
 20
117.8977727363843
 30
0.0
  0
SPLINE
  5
D9
330
1F
100
AcDbEntity
  8
0
  6
Continuous
 62
     7
370
    25
100
AcDbSpline
210
0.0
220
0.0
230
1.0
 70
     8
 71
     3
 72
    13
 73
     9
 74
     0
 42
0.000000001
 43
0.00000001
 40
0.0
 40
0.0
 40
0.0
 40
0.0
 40
0.1242103284963916
 40
0.2484733181776731
 40
0.500000000000001
 40
0.7515266818223257
 40
0.8757896715036164
 40
1.0
 40
1.0
 40
1.0
 40
1.0
 10
230.6125531112413
 20
118.062417397325
 30
0.0
 10
230.6141632966506
 20
118.0609309107163
 30
0.0
 10
230.6173843501359
 20
118.0579573072763
 30
0.0
 10
230.6502844840169
 20
118.030915167093
 30
0.0
 10
230.7226873144206
 20
117.9800950668547
 30
0.0
 10
230.8301217814618
 20
117.9292749666163
 30
0.0
 10
230.9314745412217
 20
117.902232826433
 30
0.0
 10
230.985530740107
 20
117.899259222993
 30
0.0
 10
231.0125531112413
 20
117.8977727363843
 30
0.0
  0
LINE
  5
DA
330
1F
100
AcDbEntity
  8
0
  6
Continuous
 62
     7
370
    25
100
AcDbLine
 10
230.8125531112
 20
118.0624173973
 30
0.0
 11
230.6125531112
 21
118.0624173973
 31
0.0
  0
LINE
  5
DB
330
1F
100
AcDbEntity
  8
0
  6
Continuous
 62
     7
370
    25
100
AcDbLine
 10
230.6125531112
 20
118.0624173973
 30
0.0
 11
230.6125531112
 21
104.2331280754
 31
0.0
  0
SPLINE
  5
DC
330
1F
100
AcDbEntity
  8
0
  6
Continuous
 62
     7
370
    25
100
AcDbSpline
210
0.0
220
0.0
230
1.0
 70
     8
 71
     3
 72
    13
 73
     9
 74
     0
 42
0.000000001
 43
0.00000001
 40
0.0
 40
0.0
 40
0.0
 40
0.0
 40
0.1242103284964001
 40
0.2484733181776741
 40
0.4999999999999981
 40
0.7515266818223238
 40
0.875789671503609
 40
1.0
 40
1.0
 40
1.0
 40
1.0
 10
231.0125531112413
 20
104.3977727363843
 30
0.0
 10
230.985530740107
 20
104.3962862497756
 30
0.0
 10
230.9314745412217
 20
104.3933126463356
 30
0.0
 10
230.8301217814618
 20
104.3662705061523
 30
0.0
 10
230.7226873144206
 20
104.3154504059139
 30
0.0
 10
230.650284484017
 20
104.2646303056756
 30
0.0
 10
230.6173843501359
 20
104.2375881654923
 30
0.0
 10
230.6141632966506
 20
104.2346145620524
 30
0.0
 10
230.6125531112413
 20
104.2331280754436
 30
0.0
  0
SPLINE
  5
DD
330
1F
100
AcDbEntity
  8
0
  6
Continuous
 62
     7
370
    25
100
AcDbSpline
210
0.0
220
0.0
230
1.0
 70
     8
 71
     3
 72
    13
 73
     9
 74
     0
 42
0.000000001
 43
0.00000001
 40
0.0
 40
0.0
 40
0.0
 40
0.0
 40
0.1136733573953277
 40
0.2347444985469548
 40
0.5000000000000103
 40
0.7652555014530501
 40
0.8863266426046923
 40
0.9999999999999999
 40
0.9999999999999999
 40
0.9999999999999999
 40
0.9999999999999999
 10
231.0125531112413
 20
104.3977727363843
 30
0.0
 10
230.9988814078608
 20
104.3962034911076
 30
0.0
 10
230.9706482560661
 20
104.3929628751533
 30
0.0
 10
230.9190736050144
 20
104.3645615127136
 30
0.0
 10
230.8679353514486
 20
104.3154504059139
 30
0.0
 10
230.8325005948547
 20
104.2663392991143
 30
0.0
 10
230.8151697440364
 20
104.2379379366746
 30
0.0
 10
230.8134068029504
 20
104.2346973207203
 30
0.0
 10
230.8125531112414
 20
104.2331280754436
 30
0.0
  0
LINE
  5
DE
330
1F
100
AcDbEntity
  8
0
  6
Continuous
 62
     7
370
    25
100
AcDbLine
 10
230.8125531112
 20
104.2331280754
 30
0.0
 11
230.6125531112
 21
104.2331280754
 31
0.0
  0
LINE
  5
DF
330
1F
100
AcDbEntity
  8
0
  6
Continuous
 62
     7
370
    25
100
AcDbLine
 10
231.0479084503
 20
103.7977727364
 30
0.0
 11
233.7514255544
 21
103.7977727364
 31
0.0
  0
SPLINE
  5
E0
330
1F
100
AcDbEntity
  8
0
  6
Continuous
 62
     7
370
    25
100
AcDbSpline
210
0.0
220
0.0
230
1.0
 70
     8
 71
     3
 72
    13
 73
     9
 74
     0
 42
0.000000001
 43
0.00000001
 40
0.0
 40
0.0
 40
0.0
 40
0.0
 40
0.1242103284963916
 40
0.248473318177676
 40
0.4999999999999982
 40
0.7515266818223226
 40
0.8757896715036071
 40
1.0
 40
1.0
 40
1.0
 40
1.0
 10
231.0479084503007
 20
103.7977727363843
 30
0.0
 10
231.0493949369094
 20
103.7993829217936
 30
0.0
 10
231.0523685403494
 20
103.8026039752789
 30
0.0
 10
231.0794106805326
 20
103.8355041091599
 30
0.0
 10
231.130230780771
 20
103.9079069395635
 30
0.0
 10
231.1810508810094
 20
104.0153414066048
 30
0.0
 10
231.2080930211927
 20
104.1166941663647
 30
0.0
 10
231.2110666246326
 20
104.1707503652499
 30
0.0
 10
231.2125531112414
 20
104.1977727363843
 30
0.0
  0
SPLINE
  5
E1
330
1F
100
AcDbEntity
  8
0
  6
Continuous
 62
     7
370
    25
100
AcDbSpline
210
0.0
220
0.0
230
1.0
 70
     8
 71
     3
 72
    13
 73
     9
 74
     0
 42
0.000000001
 43
0.00000001
 40
0.0
 40
0.0
 40
0.0
 40
0.0
 40
0.1136733573953156
 40
0.2347444985469537
 40
0.4999999999999968
 40
0.7652555014530443
 40
0.8863266426046791
 40
1.0
 40
1.0
 40
1.0
 40
1.0
 10
231.0479084503007
 20
103.9977727363843
 30
0.0
 10
231.0494776955773
 20
103.9986264280933
 30
0.0
 10
231.0527183115317
 20
104.0003893691794
 30
0.0
 10
231.0811196739713
 20
104.0177202199977
 30
0.0
 10
231.130230780771
 20
104.0531549765916
 30
0.0
 10
231.1793418875707
 20
104.1042932301574
 30
0.0
 10
231.2077432500103
 20
104.155867881209
 30
0.0
 10
231.2109838659647
 20
104.1841010330037
 30
0.0
 10
231.2125531112414
 20
104.1977727363843
 30
0.0
  0
LINE
  5
E2
330
1F
100
AcDbEntity
  8
0
  6
Continuous
 62
     7
370
    25
100
AcDbLine
 10
231.0479084503
 20
103.7977727364
 30
0.0
 11
231.0479084503
 21
103.9977727364
 31
0.0
  0
LINE
  5
E3
330
1F
100
AcDbEntity
  8
0
  6
Continuous
 62
     7
370
    25
100
AcDbLine
 10
230.6125531112
 20
118.4977727364
 30
0.0
 11
230.6125531112
 21
118.2977727364
 31
0.0
  0
LINE
  5
E4
330
1F
100
AcDbEntity
  8
0
  6
Continuous
 62
     7
370
    25
100
AcDbLine
 10
231.0479084503
 20
118.2977727364
 30
0.0
 11
230.6125531112
 21
118.2977727364
 31
0.0
  0
LINE
  5
E5
330
1F
100
AcDbEntity
  8
0
  6
Continuous
 62
     7
370
    25
100
AcDbLine
 10
231.0479084503
 20
118.4977727364
 30
0.0
 11
230.6125531112
 21
118.4977727364
 31
0.0
  0
LINE
  5
E6
330
1F
100
AcDbEntity
  8
0
  6
Continuous
 62
     7
370
    25
100
AcDbLine
 10
230.8125531112
 20
118.2477727364
 30
0.0
 11
230.6125531112
 21
118.2477727364
 31
0.0
  0
LINE
  5
E7
330
1F
100
AcDbEntity
  8
0
  6
Continuous
 62
     7
370
    25
100
AcDbLine
 10
230.6125531112
 20
118.0624173973
 30
0.0
 11
230.6125531112
 21
118.2477727364
 31
0.0
  0
LINE
  5
E8
330
1F
100
AcDbEntity
  8
0
  6
Continuous
 62
     7
370
    25
100
AcDbLine
 10
230.8125531112
 20
118.0624173973
 30
0.0
 11
230.8125531112
 21
118.2477727364
 31
0.0
  0
LINE
  5
E9
330
1F
100
AcDbEntity
  8
0
  6
Continuous
 62
     7
370
    25
100
AcDbLine
 10
230.8125531112
 20
104.0477727364
 30
0.0
 11
230.6125531112
 21
104.0477727364
 31
0.0
  0
LINE
  5
EA
330
1F
100
AcDbEntity
  8
0
  6
Continuous
 62
     7
370
    25
100
AcDbLine
 10
230.6125531112
 20
104.0477727364
 30
0.0
 11
230.6125531112
 21
104.2331280754
 31
0.0
  0
LINE
  5
EB
330
1F
100
AcDbEntity
  8
0
  6
Continuous
 62
     7
370
    25
100
AcDbLine
 10
230.8125531112
 20
104.0477727364
 30
0.0
 11
230.8125531112
 21
104.2331280754
 31
0.0
  0
LINE
  5
EC
330
1F
100
AcDbEntity
  8
0
  6
Continuous
 62
     7
370
    25
100
AcDbLine
 10
230.6125531112
 20
103.7977727364
 30
0.0
 11
231.0479084503
 21
103.7977727364
 31
0.0
  0
LINE
  5
ED
330
1F
100
AcDbEntity
  8
0
  6
Continuous
 62
     7
370
    25
100
AcDbLine
 10
230.6125531112
 20
103.7977727364
 30
0.0
 11
230.6125531112
 21
103.9977727364
 31
0.0
  0
LINE
  5
EE
330
1F
100
AcDbEntity
  8
0
  6
Continuous
 62
     7
370
    25
100
AcDbLine
 10
230.6125531112
 20
103.9977727364
 30
0.0
 11
231.0479084503
 21
103.9977727364
 31
0.0
  0
LINE
  5
EF
330
1F
100
AcDbEntity
  8
0
  6
Continuous
 62
     7
370
    25
100
AcDbLine
 10
107.3514255544
 20
118.9558606125
 30
0.0
 11
107.3514255544
 21
103.3558606125
 31
0.0
  0
LINE
  5
F0
330
1F
100
AcDbEntity
  8
0
  6
Continuous
 62
     7
370
    25
100
AcDbLine
 10
103.7514255544
 20
118.9558606125
 30
0.0
 11
107.3514255544
 21
118.9558606125
 31
0.0
  0
LINE
  5
F1
330
1F
100
AcDbEntity
  8
0
  6
Continuous
 62
     7
370
    25
100
AcDbLine
 10
107.3514255544
 20
103.3558606125
 30
0.0
 11
103.7514255544
 21
103.3558606125
 31
0.0
  0
LINE
  5
F2
330
1F
100
AcDbEntity
  8
0
  6
Continuous
 62
     7
370
    25
100
AcDbLine
 10
233.7514255544
 20
118.9558606125
 30
0.0
 11
230.1514255544
 21
118.9558606125
 31
0.0
  0
LINE
  5
F3
330
1F
100
AcDbEntity
  8
0
  6
Continuous
 62
     7
370
    25
100
AcDbLine
 10
230.1514255544
 20
118.9558606125
 30
0.0
 11
230.1514255544
 21
103.3558606125
 31
0.0
  0
LINE
  5
F4
330
1F
100
AcDbEntity
  8
0
  6
Continuous
 62
     7
370
    25
100
AcDbLine
 10
230.1514255544
 20
103.3558606125
 30
0.0
 11
233.7514255544
 21
103.3558606125
 31
0.0
  0
LINE
  5
F5
330
1F
100
AcDbEntity
  8
0
  6
Continuous
 62
     7
370
    25
100
AcDbLine
 10
233.7514255544
 20
118.6558606125
 30
0.0
 11
230.4514255544
 21
118.6558606125
 31
0.0
  0
LINE
  5
F6
330
1F
100
AcDbEntity
  8
0
  6
Continuous
 62
     7
370
    25
100
AcDbLine
 10
230.4514255544
 20
118.6558606125
 30
0.0
 11
230.1514255544
 21
118.9558606125
 31
0.0
  0
LINE
  5
F7
330
1F
100
AcDbEntity
  8
0
  6
Continuous
 62
     7
370
    25
100
AcDbLine
 10
103.7514255544
 20
103.6558606125
 30
0.0
 11
107.0514255544
 21
103.6558606125
 31
0.0
  0
LINE
  5
F8
330
1F
100
AcDbEntity
  8
0
  6
Continuous
 62
     7
370
    25
100
AcDbLine
 10
107.0514255544
 20
103.6558606125
 30
0.0
 11
107.3514255544
 21
103.3558606125
 31
0.0
  0
LINE
  5
F9
330
1F
100
AcDbEntity
  8
0
  6
Continuous
 62
     7
370
    25
100
AcDbLine
 10
230.4514255544
 20
118.6558606125
 30
0.0
 11
230.4514255544
 21
103.6558606125
 31
0.0
  0
LINE
  5
FA
330
1F
100
AcDbEntity
  8
0
  6
Continuous
 62
     7
370
    25
100
AcDbLine
 10
230.4514255544
 20
103.6558606125
 30
0.0
 11
230.1514255544
 21
103.3558606125
 31
0.0
  0
LINE
  5
FB
330
1F
100
AcDbEntity
  8
0
  6
Continuous
 62
     7
370
    25
100
AcDbLine
 10
107.0514255544
 20
118.6558606125
 30
0.0
 11
103.7514255544
 21
118.6558606125
 31
0.0
  0
LINE
  5
FC
330
1F
100
AcDbEntity
  8
0
  6
Continuous
 62
     7
370
    25
100
AcDbLine
 10
107.0514255544
 20
118.6558606125
 30
0.0
 11
107.3514255544
 21
118.9558606125
 31
0.0
  0
LINE
  5
FD
330
1F
100
AcDbEntity
  8
0
  6
Continuous
 62
     7
370
    25
100
AcDbLine
 10
107.0514255544
 20
103.6558606125
 30
0.0
 11
107.0514255544
 21
118.6558606125
 31
0.0
  0
LINE
  5
FE
330
1F
100
AcDbEntity
  8
0
  6
Continuous
 62
     7
370
    25
100
AcDbLine
 10
230.4514255544
 20
103.6558606125
 30
0.0
 11
233.7514255544
 21
103.6558606125
 31
0.0
  0
ARC
  5
FF
330
1F
100
AcDbEntity
  8
0
  6
Continuous
 62
     7
370
    25
100
AcDbCircle
 10
237.9514255544
 20
111.1558606125
 30
0.0
 40
5.900000000000015
100
AcDbArc
 50
213.5193300231
 51
224.6131882414
  0
ARC
  5
100
330
1F
100
AcDbEntity
  8
0
  6
Continuous
 62
     7
370
    25
100
AcDbCircle
 10
237.9514255544
 20
111.1558606125
 30
0.0
 40
5.899999999999998
100
AcDbArc
 50
135.3868117586
 51
146.6688849122
  0
ARC
  5
101
330
1F
100
AcDbEntity
  8
0
  6
Continuous
 62
     7
370
    25
100
AcDbCircle
 10
99.5514255544
 20
111.1558606125
 30
0.0
 40
5.899999999999984
100
AcDbArc
 50
315.3868117586
 51
326.4806699769
  0
ARC
  5
102
330
1F
100
AcDbEntity
  8
0
  6
Continuous
 62
     7
370
    25
100
AcDbCircle
 10
99.5514255544
 20
111.1558606125
 30
0.0
 40
5.899999999999984
100
AcDbArc
 50
33.3311150878
 51
44.6131882414
  0
LWPOLYLINE
  5
103
330
1F
100
AcDbEntity
  8
0
  6
Continuous
 62
     7
370
    25
100
AcDbPolyline
 90
        3
 70
   128
 43
0.0
 10
103.7514255544
 20
107.3766411163
 10
104.0281666653
 20
107.7089360375
 10
104.1674155231
 20
107.8977727364
  0
ARC
  5
104
330
1F
100
AcDbEntity
  8
0
  6
Continuous
 62
     7
370
    25
100
AcDbCircle
 10
99.5514255544
 20
111.1558606125
 30
0.0
 40
5.649999999999992
100
AcDbArc
 50
347.1340717748
 51
12.697724189
  0
ARC
  5
105
330
1F
100
AcDbEntity
  8
0
  6
Continuous
 62
     7
370
    25
100
AcDbCircle
 10
99.5514255544
 20
111.1558606125
 30
0.0
 40
5.650000000000001
100
AcDbArc
 50
35.0149220843
 51
41.9813293454
  0
LWPOLYLINE
  5
106
330
1F
100
AcDbEntity
  8
0
  6
Continuous
 62
     7
370
    25
100
AcDbPolyline
 90
        3
 70
   128
 43
0.0
 10
233.7514255544
 20
107.3766411163
 10
233.4746844434
 20
107.7089360375
 10
233.3354355856
 20
107.8977727364
  0
ARC
  5
107
330
1F
100
AcDbEntity
  8
0
  6
Continuous
 62
     7
370
    25
100
AcDbCircle
 10
237.9514255544
 20
111.1558606125
 30
0.0
 40
5.650000000000019
100
AcDbArc
 50
167.302275811
 51
192.8659282252
  0
ARC
  5
108
330
1F
100
AcDbEntity
  8
0
  6
Continuous
 62
     7
370
    25
100
AcDbCircle
 10
237.9514255544
 20
111.1558606125
 30
0.0
 40
5.649999999999997
100
AcDbArc
 50
138.0186706546
 51
144.9850779157
  0
LINE
  5
109
330
1F
100
AcDbEntity
  8
0
  6
PHANTOM
 62
     1
370
    18
100
AcDbLine
 10
103.7514255544
 20
118.0977727364
 30
0.0
 11
106.2902979975
 21
118.0977727364
 31
0.0
  0
LINE
  5
10A
330
1F
100
AcDbEntity
  8
0
  6
PHANTOM
 62
     1
370
    18
100
AcDbLine
 10
106.4902979975
 20
117.8977727364
 30
0.0
 11
106.4902979975
 21
104.3977727364
 31
0.0
  0
LINE
  5
10B
330
1F
100
AcDbEntity
  8
0
  6
PHANTOM
 62
     1
370
    18
100
AcDbLine
 10
106.2902979975
 20
104.1977727364
 30
0.0
 11
103.7514255544
 21
104.1977727364
 31
0.0
  0
LINE
  5
10C
330
1F
100
AcDbEntity
  8
0
  6
PHANTOM
 62
     1
370
    18
100
AcDbLine
 10
231.2125531112
 20
118.0977727364
 30
0.0
 11
233.7514255544
 21
118.0977727364
 31
0.0
  0
LINE
  5
10D
330
1F
100
AcDbEntity
  8
0
  6
PHANTOM
 62
     1
370
    18
100
AcDbLine
 10
233.7514255544
 20
104.1977727364
 30
0.0
 11
231.2125531112
 21
104.1977727364
 31
0.0
  0
LINE
  5
10E
330
1F
100
AcDbEntity
  8
0
  6
PHANTOM
 62
     1
370
    18
100
AcDbLine
 10
231.0125531112
 20
104.3977727364
 30
0.0
 11
231.0125531112
 21
117.8977727364
 31
0.0
  0
LINE
  5
10F
330
1F
100
AcDbEntity
  8
0
  6
PHANTOM
 62
     7
370
    35
100
AcDbLine
 10
279.1114255544
 20
111.1558606125
 30
0.0
 11
58.3914255544
 21
111.1558606125
 31
0.0
  0
LINE
  5
110
330
1F
100
AcDbEntity
  8
0
  6
Continuous
 62
     7
370
    35
100
AcDbLine
 10
277.1114255544
 20
99.1558606125
 30
0.0
 11
277.1114255544
 21
111.1558606125
 31
0.0
  0
SOLID
  5
111
330
1F
100
AcDbEntity
  8
0
  6
Continuous
 62
     7
370
    35
100
AcDbTrace
 10
277.1114255544
 20
111.1558606125
 30
0.0
 11
275.6114255544
 21
105.1558606125
 31
0.0
 12
278.6114255544
 22
105.1558606125
 32
0.0
 13
278.6114255544
 23
105.1558606125
 33
0.0
  0
LINE
  5
112
330
1F
100
AcDbEntity
  8
0
  6
Continuous
 62
     7
370
    35
100
AcDbLine
 10
60.3914255544
 20
99.1558606125
 30
0.0
 11
60.3914255544
 21
111.1558606125
 31
0.0
  0
SOLID
  5
113
330
1F
100
AcDbEntity
  8
0
  6
Continuous
 62
     7
370
    35
100
AcDbTrace
 10
60.3914255544
 20
111.1558606125
 30
0.0
 11
58.8914255544
 21
105.1558606125
 31
0.0
 12
61.8914255544
 22
105.1558606125
 32
0.0
 13
61.8914255544
 23
105.1558606125
 33
0.0
  0
MTEXT
  5
115
330
1F
100
AcDbEntity
  8
0
  6
Continuous
 62
     7
100
AcDbMText
 10
279.6165726354
 20
109.2412141995
 30
0.0
 40
6.35
 41
0.0
 46
0.0
 71
     1
 72
     1
  1
A
  7
SLDTEXTSTYLE0
 73
     1
 44
1.0
  0
MTEXT
  5
116
330
1F
100
AcDbEntity
  8
0
  6
Continuous
 62
     7
100
AcDbMText
 10
51.6234107709
 20
109.2412141995
 30
0.0
 40
6.35
 41
0.0
 46
0.0
 71
     1
 72
     1
  1
A
  7
SLDTEXTSTYLE0
 73
     1
 44
1.0
  0
LINE
  5
117
330
1F
100
AcDbEntity
  8
0
  6
PHANTOM
 62
     7
370
    35
100
AcDbLine
 10
168.7514255544
 20
148.0056570972
 30
0.0
 11
168.7514255544
 21
74.3060641277
 31
0.0
  0
LINE
  5
118
330
1F
100
AcDbEntity
  8
0
  6
Continuous
 62
     7
370
    35
100
AcDbLine
 10
156.7514255544
 20
146.0056570972
 30
0.0
 11
168.7514255544
 21
146.0056570972
 31
0.0
  0
SOLID
  5
119
330
1F
100
AcDbEntity
  8
0
  6
Continuous
 62
     7
370
    35
100
AcDbTrace
 10
168.7514255544
 20
146.0056570972
 30
0.0
 11
162.7514255544
 21
147.5056570972
 31
0.0
 12
162.7514255544
 22
144.5056570972
 32
0.0
 13
162.7514255544
 23
144.5056570972
 33
0.0
  0
LINE
  5
11A
330
1F
100
AcDbEntity
  8
0
  6
Continuous
 62
     7
370
    35
100
AcDbLine
 10
156.7514255544
 20
76.3060641277
 30
0.0
 11
168.7514255544
 21
76.3060641277
 31
0.0
  0
SOLID
  5
11B
330
1F
100
AcDbEntity
  8
0
  6
Continuous
 62
     7
370
    35
100
AcDbTrace
 10
168.7514255544
 20
76.3060641277
 30
0.0
 11
162.7514255544
 21
77.8060641277
 31
0.0
 12
162.7514255544
 22
74.8060641277
 32
0.0
 13
162.7514255544
 23
74.8060641277
 33
0.0
  0
MTEXT
  5
11C
330
1F
100
AcDbEntity
  8
0
  6
Continuous
 62
     7
100
AcDbMText
 10
156.7514255544
 20
156.0910106843
 30
0.0
 40
6.35
 41
0.0
 46
0.0
 71
     1
 72
     1
  1
B
  7
SLDTEXTSTYLE0
 73
     1
 44
1.0
  0
MTEXT
  5
11D
330
1F
100
AcDbEntity
  8
0
  6
Continuous
 62
     7
100
AcDbMText
 10
156.7514255544
 20
72.9476413832
 30
0.0
 40
6.35
 41
0.0
 46
0.0
 71
     1
 72
     1
  1
B
  7
SLDTEXTSTYLE0
 73
     1
 44
1.0
  0
LINE
  5
11E
330
1F
100
AcDbEntity
  8
0
  6
Continuous
 62
     7
370
    25
100
AcDbLine
 10
103.7514255544
 20
306.7636219641
 30
0.0
 11
83.7514255544
 21
306.7636219641
 31
0.0
  0
LINE
  5
11F
330
1F
100
AcDbEntity
  8
0
  6
Continuous
 62
     7
370
    25
100
AcDbLine
 10
83.7514255544
 20
303.2636219641
 30
0.0
 11
83.7514255544
 21
306.7636219641
 31
0.0
  0
LINE
  5
120
330
1F
100
AcDbEntity
  8
0
  6
Continuous
 62
     7
370
    25
100
AcDbLine
 10
103.7514255544
 20
321.2636219641
 30
0.0
 11
79.7514255544
 21
321.2636219641
 31
0.0
  0
LINE
  5
121
330
1F
100
AcDbEntity
  8
0
  6
Continuous
 62
     7
370
    25
100
AcDbLine
 10
103.7514255544
 20
306.7636219641
 30
0.0
 11
103.7514255544
 21
321.2636219641
 31
0.0
  0
LINE
  5
122
330
1F
100
AcDbEntity
  8
0
  6
Continuous
 62
     7
370
    25
100
AcDbLine
 10
79.7514255544
 20
303.2636219641
 30
0.0
 11
79.7514255544
 21
321.2636219641
 31
0.0
  0
LINE
  5
123
330
1F
100
AcDbEntity
  8
0
  6
Continuous
 62
     7
370
    25
100
AcDbLine
 10
83.7514255544
 20
303.2636219641
 30
0.0
 11
79.7514255544
 21
303.2636219641
 31
0.0
  0
LINE
  5
124
330
1F
100
AcDbEntity
  8
0
  6
Continuous
 62
     7
370
    25
100
AcDbLine
 10
253.7514255544
 20
306.7636219641
 30
0.0
 11
253.7514255544
 21
303.2636219641
 31
0.0
  0
LINE
  5
125
330
1F
100
AcDbEntity
  8
0
  6
Continuous
 62
     7
370
    25
100
AcDbLine
 10
233.7514255544
 20
321.2636219641
 30
0.0
 11
233.7514255544
 21
306.7636219641
 31
0.0
  0
LINE
  5
126
330
1F
100
AcDbEntity
  8
0
  6
Continuous
 62
     7
370
    25
100
AcDbLine
 10
257.7514255544
 20
321.2636219641
 30
0.0
 11
257.7514255544
 21
303.2636219641
 31
0.0
  0
LINE
  5
127
330
1F
100
AcDbEntity
  8
0
  6
Continuous
 62
     7
370
    25
100
AcDbLine
 10
253.7514255544
 20
306.7636219641
 30
0.0
 11
233.7514255544
 21
306.7636219641
 31
0.0
  0
LINE
  5
128
330
1F
100
AcDbEntity
  8
0
  6
Continuous
 62
     7
370
    25
100
AcDbLine
 10
257.7514255544
 20
321.2636219641
 30
0.0
 11
233.7514255544
 21
321.2636219641
 31
0.0
  0
LINE
  5
129
330
1F
100
AcDbEntity
  8
0
  6
Continuous
 62
     7
370
    25
100
AcDbLine
 10
257.7514255544
 20
303.2636219641
 30
0.0
 11
253.7514255544
 21
303.2636219641
 31
0.0
  0
LINE
  5
12A
330
1F
100
AcDbEntity
  8
0
  6
Continuous
 62
     7
370
    25
100
AcDbLine
 10
233.7514255544
 20
306.7636219641
 30
0.0
 11
103.7514255544
 21
306.7636219641
 31
0.0
  0
LINE
  5
12B
330
1F
100
AcDbEntity
  8
0
  6
Continuous
 62
     7
370
    25
100
AcDbLine
 10
233.7514255544
 20
321.2636219641
 30
0.0
 11
103.7514255544
 21
321.2636219641
 31
0.0
  0
LINE
  5
12C
330
1F
100
AcDbEntity
  8
0
  6
Continuous
 62
     7
370
    25
100
AcDbLine
 10
83.7514255544
 20
303.2636219641
 30
0.0
 11
84.3085684115
 21
303.2636219641
 31
0.0
  0
LINE
  5
12D
330
1F
100
AcDbEntity
  8
0
  6
Continuous
 62
     7
370
    25
100
AcDbLine
 10
253.1942826972
 20
303.2636219641
 30
0.0
 11
253.7514255544
 21
303.2636219641
 31
0.0
  0
LINE
  5
12E
330
1F
100
AcDbEntity
  8
0
  6
Continuous
 62
     7
370
    25
100
AcDbLine
 10
243.7125531112
 20
226.1636219641
 30
0.0
 11
243.7125531112
 21
225.9636219641
 31
0.0
  0
LINE
  5
12F
330
1F
100
AcDbEntity
  8
0
  6
Continuous
 62
     7
370
    25
100
AcDbLine
 10
245.3125531112
 20
223.6636219641
 30
0.0
 11
245.1125531112
 21
223.6636219641
 31
0.0
  0
LINE
  5
130
330
1F
100
AcDbEntity
  8
0
  6
Continuous
 62
     7
370
    25
100
AcDbLine
 10
245.1125531112
 20
223.6636219641
 30
0.0
 11
245.1125531112
 21
225.7636219641
 31
0.0
  0
LINE
  5
131
330
1F
100
AcDbEntity
  8
0
  6
Continuous
 62
     7
370
    25
100
AcDbLine
 10
245.3125531112
 20
223.6636219641
 30
0.0
 11
245.3125531112
 21
225.7636219641
 31
0.0
  0
ARC
  5
132
330
1F
100
AcDbEntity
  8
0
  6
Continuous
 62
     7
370
    25
100
AcDbCircle
 10
244.9125531112
 20
225.7636219641
 30
0.0
 40
0.2000000000000171
100
AcDbArc
 50
0.0
 51
90.0
  0
ARC
  5
133
330
1F
100
AcDbEntity
  8
0
  6
Continuous
 62
     7
370
    25
100
AcDbCircle
 10
244.9125531112
 20
225.7636219641
 30
0.0
 40
0.4000000000000057
100
AcDbArc
 50
0.0
 51
90.0
  0
LINE
  5
134
330
1F
100
AcDbEntity
  8
0
  6
Continuous
 62
     7
370
    25
100
AcDbLine
 10
243.7125531112
 20
226.1636219641
 30
0.0
 11
244.9125531112
 21
226.1636219641
 31
0.0
  0
LINE
  5
135
330
1F
100
AcDbEntity
  8
0
  6
Continuous
 62
     7
370
    25
100
AcDbLine
 10
243.7125531112
 20
225.9636219641
 30
0.0
 11
244.9125531112
 21
225.9636219641
 31
0.0
  0
LINE
  5
136
330
1F
100
AcDbEntity
  8
0
  6
Continuous
 62
     7
370
    25
100
AcDbLine
 10
230.8125531112
 20
223.6636219641
 30
0.0
 11
230.6125531112
 21
223.6636219641
 31
0.0
  0
LINE
  5
137
330
1F
100
AcDbEntity
  8
0
  6
Continuous
 62
     7
370
    25
100
AcDbLine
 10
232.2125531112
 20
225.9636219641
 30
0.0
 11
232.2125531112
 21
226.1636219641
 31
0.0
  0
LINE
  5
138
330
1F
100
AcDbEntity
  8
0
  6
Continuous
 62
     7
370
    25
100
AcDbLine
 10
230.6125531112
 20
225.7636219641
 30
0.0
 11
230.6125531112
 21
223.6636219641
 31
0.0
  0
LINE
  5
139
330
1F
100
AcDbEntity
  8
0
  6
Continuous
 62
     7
370
    25
100
AcDbLine
 10
230.8125531112
 20
225.7636219641
 30
0.0
 11
230.8125531112
 21
223.6636219641
 31
0.0
  0
ARC
  5
13A
330
1F
100
AcDbEntity
  8
0
  6
Continuous
 62
     7
370
    25
100
AcDbCircle
 10
231.0125531112
 20
225.7636219641
 30
0.0
 40
0.1999999999999886
100
AcDbArc
 50
90.0
 51
180.0
  0
ARC
  5
13B
330
1F
100
AcDbEntity
  8
0
  6
Continuous
 62
     7
370
    25
100
AcDbCircle
 10
231.0125531112
 20
225.7636219641
 30
0.0
 40
0.4000000000000057
100
AcDbArc
 50
90.0
 51
180.0
  0
LINE
  5
13C
330
1F
100
AcDbEntity
  8
0
  6
Continuous
 62
     7
370
    25
100
AcDbLine
 10
231.0125531112
 20
226.1636219641
 30
0.0
 11
232.2125531112
 21
226.1636219641
 31
0.0
  0
LINE
  5
13D
330
1F
100
AcDbEntity
  8
0
  6
Continuous
 62
     7
370
    25
100
AcDbLine
 10
231.0125531112
 20
225.9636219641
 30
0.0
 11
232.2125531112
 21
225.9636219641
 31
0.0
  0
LINE
  5
13E
330
1F
100
AcDbEntity
  8
0
  6
Continuous
 62
     7
370
    25
100
AcDbLine
 10
241.2125531112
 20
225.9636219641
 30
0.0
 11
241.2125531112
 21
226.1636219641
 31
0.0
  0
LINE
  5
13F
330
1F
100
AcDbEntity
  8
0
  6
Continuous
 62
     7
370
    25
100
AcDbLine
 10
239.2125531112
 20
226.1636219641
 30
0.0
 11
239.2125531112
 21
225.9636219641
 31
0.0
  0
LINE
  5
140
330
1F
100
AcDbEntity
  8
0
  6
Continuous
 62
     7
370
    25
100
AcDbLine
 10
239.2125531112
 20
226.1636219641
 30
0.0
 11
241.2125531112
 21
226.1636219641
 31
0.0
  0
LINE
  5
141
330
1F
100
AcDbEntity
  8
0
  6
Continuous
 62
     7
370
    25
100
AcDbLine
 10
239.2125531112
 20
225.9636219641
 30
0.0
 11
241.2125531112
 21
225.9636219641
 31
0.0
  0
LINE
  5
142
330
1F
100
AcDbEntity
  8
0
  6
Continuous
 62
     7
370
    25
100
AcDbLine
 10
236.7125531112
 20
225.9636219641
 30
0.0
 11
236.7125531112
 21
226.1636219641
 31
0.0
  0
LINE
  5
143
330
1F
100
AcDbEntity
  8
0
  6
Continuous
 62
     7
370
    25
100
AcDbLine
 10
234.7125531112
 20
226.1636219641
 30
0.0
 11
234.7125531112
 21
225.9636219641
 31
0.0
  0
LINE
  5
144
330
1F
100
AcDbEntity
  8
0
  6
Continuous
 62
     7
370
    25
100
AcDbLine
 10
234.7125531112
 20
226.1636219641
 30
0.0
 11
236.7125531112
 21
226.1636219641
 31
0.0
  0
LINE
  5
145
330
1F
100
AcDbEntity
  8
0
  6
Continuous
 62
     7
370
    25
100
AcDbLine
 10
234.7125531112
 20
225.9636219641
 30
0.0
 11
236.7125531112
 21
225.9636219641
 31
0.0
  0
LINE
  5
146
330
1F
100
AcDbEntity
  8
0
  6
Continuous
 62
     7
370
    25
100
AcDbLine
 10
243.7125531112
 20
226.1636219641
 30
0.0
 11
241.2125531112
 21
226.1636219641
 31
0.0
  0
LINE
  5
147
330
1F
100
AcDbEntity
  8
0
  6
Continuous
 62
     7
370
    25
100
AcDbLine
 10
243.7125531112
 20
225.9636219641
 30
0.0
 11
241.2125531112
 21
225.9636219641
 31
0.0
  0
LINE
  5
148
330
1F
100
AcDbEntity
  8
0
  6
Continuous
 62
     7
370
    25
100
AcDbLine
 10
239.2125531112
 20
226.1636219641
 30
0.0
 11
236.7125531112
 21
226.1636219641
 31
0.0
  0
LINE
  5
149
330
1F
100
AcDbEntity
  8
0
  6
Continuous
 62
     7
370
    25
100
AcDbLine
 10
239.2125531112
 20
225.9636219641
 30
0.0
 11
236.7125531112
 21
225.9636219641
 31
0.0
  0
LINE
  5
14A
330
1F
100
AcDbEntity
  8
0
  6
Continuous
 62
     7
370
    25
100
AcDbLine
 10
234.7125531112
 20
226.1636219641
 30
0.0
 11
232.2125531112
 21
226.1636219641
 31
0.0
  0
LINE
  5
14B
330
1F
100
AcDbEntity
  8
0
  6
Continuous
 62
     7
370
    25
100
AcDbLine
 10
234.7125531112
 20
225.9636219641
 30
0.0
 11
232.2125531112
 21
225.9636219641
 31
0.0
  0
SPLINE
  5
14C
330
1F
100
AcDbEntity
  8
0
  6
Continuous
 62
     7
370
    25
100
AcDbSpline
210
0.0
220
0.0
230
1.0
 70
     8
 71
     3
 72
    13
 73
     9
 74
     0
 42
0.000000001
 43
0.00000001
 40
0.0
 40
0.0
 40
0.0
 40
0.0
 40
0.1136733573953145
 40
0.2347444985469556
 40
0.5000000000000053
 40
0.7652555014530575
 40
0.8863266426046953
 40
1.0
 40
1.0
 40
1.0
 40
1.0
 10
244.8771977721821
 20
225.7636219640977
 30
0.0
 10
244.8756285269054
 20
225.7772936674782
 30
0.0
 10
244.872387910951
 20
225.8055268192729
 30
0.0
 10
244.8439865485114
 20
225.8571014703246
 30
0.0
 10
244.7948754417117
 20
225.9082397238904
 30
0.0
 10
244.7457643349121
 20
225.9436744804843
 30
0.0
 10
244.7173629724724
 20
225.9610053313026
 30
0.0
 10
244.714122356518
 20
225.9627682723886
 30
0.0
 10
244.7125531112414
 20
225.9636219640977
 30
0.0
  0
SPLINE
  5
14D
330
1F
100
AcDbEntity
  8
0
  6
Continuous
 62
     7
370
    25
100
AcDbSpline
210
0.0
220
0.0
230
1.0
 70
     8
 71
     3
 72
    10
 73
     6
 74
     0
 42
0.000000001
 43
0.00000001
 40
0.0
 40
0.0
 40
0.0
 40
0.0
 40
0.3690453173215832
 40
0.7382470979898444
 40
1.0
 40
1.0
 40
1.0
 40
1.0
 10
244.8771977721821
 20
225.7636219640977
 30
0.0
 10
244.875634774448
 20
225.7904637749941
 30
0.0
 10
244.8725081163191
 20
225.8441587768517
 30
0.0
 10
244.8553417332438
 20
225.914830720888
 30
0.0
 10
244.8385958258456
 20
225.949315768293
 30
0.0
 10
244.8316487502813
 20
225.9636219640976
 30
0.0
  0
SPLINE
  5
14E
330
1F
100
AcDbEntity
  8
0
  6
Continuous
 62
     7
370
    25
100
AcDbSpline
210
0.0
220
0.0
230
1.0
 70
     8
 71
     3
 72
    10
 73
     6
 74
     0
 42
0.000000001
 43
0.00000001
 40
0.0
 40
0.0
 40
0.0
 40
0.0
 40
0.2617529020101568
 40
0.6309546826784187
 40
1.0
 40
1.0
 40
1.0
 40
1.0
 10
231.0934574722015
 20
225.9636219640976
 30
0.0
 10
231.0865103966371
 20
225.949315768293
 30
0.0
 10
231.069764489239
 20
225.914830720888
 30
0.0
 10
231.0525981061637
 20
225.8441587768517
 30
0.0
 10
231.0494714480348
 20
225.7904637749941
 30
0.0
 10
231.0479084503007
 20
225.7636219640977
 30
0.0
  0
SPLINE
  5
14F
330
1F
100
AcDbEntity
  8
0
  6
Continuous
 62
     7
370
    25
100
AcDbSpline
210
0.0
220
0.0
230
1.0
 70
     8
 71
     3
 72
    13
 73
     9
 74
     0
 42
0.000000001
 43
0.00000001
 40
0.0
 40
0.0
 40
0.0
 40
0.0
 40
0.1136733573953046
 40
0.2347444985469288
 40
0.4999999999999806
 40
0.7652555014530298
 40
0.8863266426046839
 40
1.0
 40
1.0
 40
1.0
 40
1.0
 10
231.2125531112414
 20
225.9636219640977
 30
0.0
 10
231.2109838659647
 20
225.9627682723886
 30
0.0
 10
231.2077432500103
 20
225.9610053313026
 30
0.0
 10
231.1793418875707
 20
225.9436744804843
 30
0.0
 10
231.130230780771
 20
225.9082397238904
 30
0.0
 10
231.0811196739714
 20
225.8571014703246
 30
0.0
 10
231.0527183115317
 20
225.8055268192729
 30
0.0
 10
231.0494776955773
 20
225.7772936674782
 30
0.0
 10
231.0479084503007
 20
225.7636219640977
 30
0.0
  0
LINE
  5
150
330
1F
100
AcDbEntity
  8
0
  6
Continuous
 62
     7
370
    25
100
AcDbLine
 10
231.0479084503
 20
225.7636219641
 30
0.0
 11
230.8125531112
 21
225.7636219641
 31
0.0
  0
LINE
  5
151
330
1F
100
AcDbEntity
  8
0
  6
Continuous
 62
     7
370
    25
100
AcDbLine
 10
245.1125531112
 20
225.7636219641
 30
0.0
 11
244.8771977722
 21
225.7636219641
 31
0.0
  0
LINE
  5
152
330
1F
100
AcDbEntity
  8
0
  6
Continuous
 62
     7
370
    25
100
AcDbLine
 10
105.2902979975
 20
226.1636219641
 30
0.0
 11
105.2902979975
 21
225.9636219641
 31
0.0
  0
LINE
  5
153
330
1F
100
AcDbEntity
  8
0
  6
Continuous
 62
     7
370
    25
100
AcDbLine
 10
106.8902979975
 20
223.6636219641
 30
0.0
 11
106.6902979975
 21
223.6636219641
 31
0.0
  0
LINE
  5
154
330
1F
100
AcDbEntity
  8
0
  6
Continuous
 62
     7
370
    25
100
AcDbLine
 10
106.8902979975
 20
223.6636219641
 30
0.0
 11
106.8902979975
 21
225.7636219641
 31
0.0
  0
LINE
  5
155
330
1F
100
AcDbEntity
  8
0
  6
Continuous
 62
     7
370
    25
100
AcDbLine
 10
106.6902979975
 20
223.6636219641
 30
0.0
 11
106.6902979975
 21
225.7636219641
 31
0.0
  0
ARC
  5
156
330
1F
100
AcDbEntity
  8
0
  6
Continuous
 62
     7
370
    25
100
AcDbCircle
 10
106.4902979975
 20
225.7636219641
 30
0.0
 40
0.2000000000000028
100
AcDbArc
 50
0.0
 51
90.0
  0
ARC
  5
157
330
1F
100
AcDbEntity
  8
0
  6
Continuous
 62
     7
370
    25
100
AcDbCircle
 10
106.4902979975
 20
225.7636219641
 30
0.0
 40
0.4000000000000057
100
AcDbArc
 50
0.0
 51
90.0
  0
LINE
  5
158
330
1F
100
AcDbEntity
  8
0
  6
Continuous
 62
     7
370
    25
100
AcDbLine
 10
105.2902979975
 20
226.1636219641
 30
0.0
 11
106.4902979975
 21
226.1636219641
 31
0.0
  0
LINE
  5
159
330
1F
100
AcDbEntity
  8
0
  6
Continuous
 62
     7
370
    25
100
AcDbLine
 10
105.2902979975
 20
225.9636219641
 30
0.0
 11
106.4902979975
 21
225.9636219641
 31
0.0
  0
LINE
  5
15A
330
1F
100
AcDbEntity
  8
0
  6
Continuous
 62
     7
370
    25
100
AcDbLine
 10
93.7902979975
 20
225.9636219641
 30
0.0
 11
93.7902979975
 21
226.1636219641
 31
0.0
  0
LINE
  5
15B
330
1F
100
AcDbEntity
  8
0
  6
Continuous
 62
     7
370
    25
100
AcDbLine
 10
92.3902979975
 20
223.6636219641
 30
0.0
 11
92.1902979975
 21
223.6636219641
 31
0.0
  0
LINE
  5
15C
330
1F
100
AcDbEntity
  8
0
  6
Continuous
 62
     7
370
    25
100
AcDbLine
 10
92.3902979975
 20
225.7636219641
 30
0.0
 11
92.3902979975
 21
223.6636219641
 31
0.0
  0
LINE
  5
15D
330
1F
100
AcDbEntity
  8
0
  6
Continuous
 62
     7
370
    25
100
AcDbLine
 10
92.1902979975
 20
225.7636219641
 30
0.0
 11
92.1902979975
 21
223.6636219641
 31
0.0
  0
ARC
  5
15E
330
1F
100
AcDbEntity
  8
0
  6
Continuous
 62
     7
370
    25
100
AcDbCircle
 10
92.5902979975
 20
225.7636219641
 30
0.0
 40
0.2000000000000028
100
AcDbArc
 50
90.0
 51
180.0
  0
ARC
  5
15F
330
1F
100
AcDbEntity
  8
0
  6
Continuous
 62
     7
370
    25
100
AcDbCircle
 10
92.5902979975
 20
225.7636219641
 30
0.0
 40
0.4000000000000057
100
AcDbArc
 50
90.0
 51
180.0
  0
LINE
  5
160
330
1F
100
AcDbEntity
  8
0
  6
Continuous
 62
     7
370
    25
100
AcDbLine
 10
92.5902979975
 20
226.1636219641
 30
0.0
 11
93.7902979975
 21
226.1636219641
 31
0.0
  0
LINE
  5
161
330
1F
100
AcDbEntity
  8
0
  6
Continuous
 62
     7
370
    25
100
AcDbLine
 10
92.5902979975
 20
225.9636219641
 30
0.0
 11
93.7902979975
 21
225.9636219641
 31
0.0
  0
LINE
  5
162
330
1F
100
AcDbEntity
  8
0
  6
Continuous
 62
     7
370
    25
100
AcDbLine
 10
96.2902979975
 20
226.1636219641
 30
0.0
 11
96.2902979975
 21
225.9636219641
 31
0.0
  0
LINE
  5
163
330
1F
100
AcDbEntity
  8
0
  6
Continuous
 62
     7
370
    25
100
AcDbLine
 10
98.2902979975
 20
225.9636219641
 30
0.0
 11
98.2902979975
 21
226.1636219641
 31
0.0
  0
LINE
  5
164
330
1F
100
AcDbEntity
  8
0
  6
Continuous
 62
     7
370
    25
100
AcDbLine
 10
96.2902979975
 20
226.1636219641
 30
0.0
 11
98.2902979975
 21
226.1636219641
 31
0.0
  0
LINE
  5
165
330
1F
100
AcDbEntity
  8
0
  6
Continuous
 62
     7
370
    25
100
AcDbLine
 10
96.2902979975
 20
225.9636219641
 30
0.0
 11
98.2902979975
 21
225.9636219641
 31
0.0
  0
LINE
  5
166
330
1F
100
AcDbEntity
  8
0
  6
Continuous
 62
     7
370
    25
100
AcDbLine
 10
102.7902979975
 20
225.9636219641
 30
0.0
 11
102.7902979975
 21
226.1636219641
 31
0.0
  0
LINE
  5
167
330
1F
100
AcDbEntity
  8
0
  6
Continuous
 62
     7
370
    25
100
AcDbLine
 10
100.7902979975
 20
226.1636219641
 30
0.0
 11
100.7902979975
 21
225.9636219641
 31
0.0
  0
LINE
  5
168
330
1F
100
AcDbEntity
  8
0
  6
Continuous
 62
     7
370
    25
100
AcDbLine
 10
100.7902979975
 20
226.1636219641
 30
0.0
 11
102.7902979975
 21
226.1636219641
 31
0.0
  0
LINE
  5
169
330
1F
100
AcDbEntity
  8
0
  6
Continuous
 62
     7
370
    25
100
AcDbLine
 10
100.7902979975
 20
225.9636219641
 30
0.0
 11
102.7902979975
 21
225.9636219641
 31
0.0
  0
LINE
  5
16A
330
1F
100
AcDbEntity
  8
0
  6
Continuous
 62
     7
370
    25
100
AcDbLine
 10
96.2902979975
 20
226.1636219641
 30
0.0
 11
93.7902979975
 21
226.1636219641
 31
0.0
  0
LINE
  5
16B
330
1F
100
AcDbEntity
  8
0
  6
Continuous
 62
     7
370
    25
100
AcDbLine
 10
96.2902979975
 20
225.9636219641
 30
0.0
 11
93.7902979975
 21
225.9636219641
 31
0.0
  0
LINE
  5
16C
330
1F
100
AcDbEntity
  8
0
  6
Continuous
 62
     7
370
    25
100
AcDbLine
 10
100.7902979975
 20
226.1636219641
 30
0.0
 11
98.2902979975
 21
226.1636219641
 31
0.0
  0
LINE
  5
16D
330
1F
100
AcDbEntity
  8
0
  6
Continuous
 62
     7
370
    25
100
AcDbLine
 10
100.7902979975
 20
225.9636219641
 30
0.0
 11
98.2902979975
 21
225.9636219641
 31
0.0
  0
LINE
  5
16E
330
1F
100
AcDbEntity
  8
0
  6
Continuous
 62
     7
370
    25
100
AcDbLine
 10
105.2902979975
 20
226.1636219641
 30
0.0
 11
102.7902979975
 21
226.1636219641
 31
0.0
  0
LINE
  5
16F
330
1F
100
AcDbEntity
  8
0
  6
Continuous
 62
     7
370
    25
100
AcDbLine
 10
105.2902979975
 20
225.9636219641
 30
0.0
 11
102.7902979975
 21
225.9636219641
 31
0.0
  0
SPLINE
  5
170
330
1F
100
AcDbEntity
  8
0
  6
Continuous
 62
     7
370
    25
100
AcDbSpline
210
0.0
220
0.0
230
1.0
 70
     8
 71
     3
 72
    10
 73
     6
 74
     0
 42
0.000000001
 43
0.00000001
 40
0.0
 40
0.0
 40
0.0
 40
0.0
 40
0.3690453173215811
 40
0.738247097989843
 40
1.0
 40
1.0
 40
1.0
 40
1.0
 10
106.4549426584646
 20
225.7636219640977
 30
0.0
 10
106.4533796607305
 20
225.7904637749941
 30
0.0
 10
106.4502530026016
 20
225.8441587768517
 30
0.0
 10
106.4330866195263
 20
225.914830720888
 30
0.0
 10
106.4163407121282
 20
225.949315768293
 30
0.0
 10
106.4093936365638
 20
225.9636219640976
 30
0.0
  0
SPLINE
  5
171
330
1F
100
AcDbEntity
  8
0
  6
Continuous
 62
     7
370
    25
100
AcDbSpline
210
0.0
220
0.0
230
1.0
 70
     8
 71
     3
 72
    10
 73
     6
 74
     0
 42
0.000000001
 43
0.00000001
 40
0.0
 40
0.0
 40
0.0
 40
0.0
 40
0.2404212890011737
 40
0.620291136674218
 40
1.0
 40
1.0
 40
1.0
 40
1.0
 10
92.6690755165195
 20
225.9588306259178
 30
0.0
 10
92.66289265100677
 20
225.9460271219269
 30
0.0
 10
92.64694074968921
 20
225.9129938573731
 30
0.0
 10
92.63036852004566
 20
225.8441151608515
 30
0.0
 10
92.62722484231477
 20
225.7904492383818
 30
0.0
 10
92.62565333658326
 20
225.7636219640977
 30
0.0
  0
SPLINE
  5
172
330
1F
100
AcDbEntity
  8
0
  6
Continuous
 62
     7
370
    25
100
AcDbSpline
210
0.0
220
0.0
230
1.0
 70
     8
 71
     3
 72
    13
 73
     9
 74
     0
 42
0.000000001
 43
0.00000001
 40
0.0
 40
0.0
 40
0.0
 40
0.0
 40
0.1136733573953048
 40
0.2347444985469425
 40
0.4999999999999948
 40
0.7652555014530444
 40
0.8863266426046855
 40
1.0
 40
1.0
 40
1.0
 40
1.0
 10
92.79029799752391
 20
225.9636219640977
 30
0.0
 10
92.78872875224728
 20
225.9627682723886
 30
0.0
 10
92.78548813629287
 20
225.9610053313026
 30
0.0
 10
92.7570867738533
 20
225.9436744804843
 30
0.0
 10
92.70797566705355
 20
225.9082397238904
 30
0.0
 10
92.65886456025387
 20
225.8571014703246
 30
0.0
 10
92.63046319781428
 20
225.8055268192729
 30
0.0
 10
92.6272225818599
 20
225.7772936674782
 30
0.0
 10
92.62565333658326
 20
225.7636219640977
 30
0.0
  0
SPLINE
  5
173
330
1F
100
AcDbEntity
  8
0
  6
Continuous
 62
     7
370
    25
100
AcDbSpline
210
0.0
220
0.0
230
1.0
 70
     8
 71
     3
 72
    13
 73
     9
 74
     0
 42
0.000000001
 43
0.00000001
 40
0.0
 40
0.0
 40
0.0
 40
0.0
 40
0.1136733573953162
 40
0.2347444985469703
 40
0.5000000000000194
 40
0.7652555014530711
 40
0.8863266426046954
 40
0.9999999999999999
 40
0.9999999999999999
 40
0.9999999999999999
 40
0.9999999999999999
 10
106.4549426584646
 20
225.7636219640977
 30
0.0
 10
106.453373413188
 20
225.7772936674782
 30
0.0
 10
106.4501327972336
 20
225.8055268192729
 30
0.0
 10
106.421731434794
 20
225.8571014703246
 30
0.0
 10
106.3726203279943
 20
225.9082397238904
 30
0.0
 10
106.3235092211946
 20
225.9436744804843
 30
0.0
 10
106.295107858755
 20
225.9610053313026
 30
0.0
 10
106.2918672428006
 20
225.9627682723886
 30
0.0
 10
106.290297997524
 20
225.9636219640977
 30
0.0
  0
LINE
  5
174
330
1F
100
AcDbEntity
  8
0
  6
Continuous
 62
     7
370
    25
100
AcDbLine
 10
92.6256533366
 20
225.7636219641
 30
0.0
 11
92.3902979975
 21
225.7636219641
 31
0.0
  0
LINE
  5
175
330
1F
100
AcDbEntity
  8
0
  6
Continuous
 62
     7
370
    25
100
AcDbLine
 10
106.6902979975
 20
225.7636219641
 30
0.0
 11
106.4549426585
 21
225.7636219641
 31
0.0
  0
LINE
  5
176
330
1F
100
AcDbEntity
  8
0
  6
Continuous
 62
     7
370
    25
100
AcDbLine
 10
79.7514255544
 20
302.2636219641
 30
0.0
 11
79.7514255544
 21
260.6636219641
 31
0.0
  0
LINE
  5
177
330
1F
100
AcDbEntity
  8
0
  6
Continuous
 62
     7
370
    25
100
AcDbLine
 10
90.7514255544
 20
259.6636219641
 30
0.0
 11
81.7514255544
 21
259.6636219641
 31
0.0
  0
LINE
  5
178
330
1F
100
AcDbEntity
  8
0
  6
Continuous
 62
     7
370
    25
100
AcDbLine
 10
81.7514255544
 20
260.6636219641
 30
0.0
 11
81.7514255544
 21
259.6636219641
 31
0.0
  0
LINE
  5
179
330
1F
100
AcDbEntity
  8
0
  6
Continuous
 62
     7
370
    25
100
AcDbLine
 10
81.7514255544
 20
260.6636219641
 30
0.0
 11
79.7514255544
 21
260.6636219641
 31
0.0
  0
LINE
  5
17A
330
1F
100
AcDbEntity
  8
0
  6
Continuous
 62
     7
370
    25
100
AcDbLine
 10
90.7514255544
 20
305.7636219641
 30
0.0
 11
90.7514255544
 21
259.6636219641
 31
0.0
  0
LINE
  5
17B
330
1F
100
AcDbEntity
  8
0
  6
Continuous
 62
     7
370
    25
100
AcDbLine
 10
84.4514255544
 20
305.7636219641
 30
0.0
 11
84.2514255544
 21
302.2636219641
 31
0.0
  0
LINE
  5
17C
330
1F
100
AcDbEntity
  8
0
  6
Continuous
 62
     7
370
    25
100
AcDbLine
 10
90.7514255544
 20
305.7636219641
 30
0.0
 11
84.4514255544
 21
305.7636219641
 31
0.0
  0
LINE
  5
17D
330
1F
100
AcDbEntity
  8
0
  6
Continuous
 62
     7
370
    25
100
AcDbLine
 10
79.7514255544
 20
302.2636219641
 30
0.0
 11
84.2514255544
 21
302.2636219641
 31
0.0
  0
LINE
  5
17E
330
1F
100
AcDbEntity
  8
0
  6
Continuous
 62
     7
370
    25
100
AcDbLine
 10
246.7514255544
 20
259.6636219641
 30
0.0
 11
255.7514255544
 21
259.6636219641
 31
0.0
  0
LINE
  5
17F
330
1F
100
AcDbEntity
  8
0
  6
Continuous
 62
     7
370
    25
100
AcDbLine
 10
253.0514255544
 20
305.7636219641
 30
0.0
 11
246.7514255544
 21
305.7636219641
 31
0.0
  0
LINE
  5
180
330
1F
100
AcDbEntity
  8
0
  6
Continuous
 62
     7
370
    25
100
AcDbLine
 10
255.7514255544
 20
259.6636219641
 30
0.0
 11
255.7514255544
 21
260.6636219641
 31
0.0
  0
LINE
  5
181
330
1F
100
AcDbEntity
  8
0
  6
Continuous
 62
     7
370
    25
100
AcDbLine
 10
253.2514255544
 20
302.2636219641
 30
0.0
 11
253.0514255544
 21
305.7636219641
 31
0.0
  0
LINE
  5
182
330
1F
100
AcDbEntity
  8
0
  6
Continuous
 62
     7
370
    25
100
AcDbLine
 10
257.7514255544
 20
260.6636219641
 30
0.0
 11
257.7514255544
 21
302.2636219641
 31
0.0
  0
LINE
  5
183
330
1F
100
AcDbEntity
  8
0
  6
Continuous
 62
     7
370
    25
100
AcDbLine
 10
246.7514255544
 20
259.6636219641
 30
0.0
 11
246.7514255544
 21
305.7636219641
 31
0.0
  0
LINE
  5
184
330
1F
100
AcDbEntity
  8
0
  6
Continuous
 62
     7
370
    25
100
AcDbLine
 10
255.7514255544
 20
260.6636219641
 30
0.0
 11
257.7514255544
 21
260.6636219641
 31
0.0
  0
LINE
  5
185
330
1F
100
AcDbEntity
  8
0
  6
Continuous
 62
     7
370
    25
100
AcDbLine
 10
253.2514255544
 20
302.2636219641
 30
0.0
 11
257.7514255544
 21
302.2636219641
 31
0.0
  0
LINE
  5
186
330
1F
100
AcDbEntity
  8
0
  6
Continuous
 62
     7
370
    25
100
AcDbLine
 10
253.9014255544
 20
223.6636219641
 30
0.0
 11
255.7514255544
 21
223.6636219641
 31
0.0
  0
LINE
  5
187
330
1F
100
AcDbEntity
  8
0
  6
Continuous
 62
     7
370
    25
100
AcDbLine
 10
253.9014255544
 20
223.6636219641
 30
0.0
 11
253.7547320912
 21
227.1636219641
 31
0.0
  0
LINE
  5
188
330
1F
100
AcDbEntity
  8
0
  6
Continuous
 62
     7
370
    25
100
AcDbLine
 10
83.7481190175
 20
227.1636219641
 30
0.0
 11
253.7547320912
 21
227.1636219641
 31
0.0
  0
LINE
  5
189
330
1F
100
AcDbEntity
  8
0
  6
Continuous
 62
     7
370
    25
100
AcDbLine
 10
83.6014255544
 20
223.6636219641
 30
0.0
 11
83.7481190175
 21
227.1636219641
 31
0.0
  0
LINE
  5
18A
330
1F
100
AcDbEntity
  8
0
  6
Continuous
 62
     7
370
    25
100
AcDbLine
 10
83.6014255544
 20
223.6636219641
 30
0.0
 11
81.7514255544
 21
223.6636219641
 31
0.0
  0
LINE
  5
18B
330
1F
100
AcDbEntity
  8
0
  6
Continuous
 62
     7
370
    25
100
AcDbLine
 10
81.7514255544
 20
223.6636219641
 30
0.0
 11
81.7514255544
 21
259.6636219641
 31
0.0
  0
LINE
  5
18C
330
1F
100
AcDbEntity
  8
0
  6
Continuous
 62
     7
370
    25
100
AcDbLine
 10
246.7514255544
 20
305.7636219641
 30
0.0
 11
90.7514255544
 21
305.7636219641
 31
0.0
  0
LINE
  5
18D
330
1F
100
AcDbEntity
  8
0
  6
Continuous
 62
     7
370
    25
100
AcDbLine
 10
255.7514255544
 20
223.6636219641
 30
0.0
 11
255.7514255544
 21
259.6636219641
 31
0.0
  0
LINE
  5
18E
330
1F
100
AcDbEntity
  8
0
  6
Continuous
 62
     7
370
    25
100
AcDbLine
 10
81.7514255544
 20
223.6636219641
 30
0.0
 11
79.7514255544
 21
223.6636219641
 31
0.0
  0
LINE
  5
18F
330
1F
100
AcDbEntity
  8
0
  6
Continuous
 62
     7
370
    25
100
AcDbLine
 10
79.7514255544
 20
223.6636219641
 30
0.0
 11
79.7514255544
 21
260.6636219641
 31
0.0
  0
LINE
  5
190
330
1F
100
AcDbEntity
  8
0
  6
Continuous
 62
     7
370
    25
100
AcDbLine
 10
255.7514255544
 20
223.6636219641
 30
0.0
 11
257.7514255544
 21
223.6636219641
 31
0.0
  0
LINE
  5
191
330
1F
100
AcDbEntity
  8
0
  6
Continuous
 62
     7
370
    25
100
AcDbLine
 10
257.7514255544
 20
223.6636219641
 30
0.0
 11
257.7514255544
 21
260.6636219641
 31
0.0
  0
LINE
  5
192
330
1F
100
AcDbEntity
  8
0
  6
Continuous
 62
     7
370
    25
100
AcDbLine
 10
83.6014255544
 20
223.6636219641
 30
0.0
 11
83.9514255544
 21
223.6636219641
 31
0.0
  0
LINE
  5
193
330
1F
100
AcDbEntity
  8
0
  6
Continuous
 62
     7
370
    25
100
AcDbLine
 10
253.5514255544
 20
223.6636219641
 30
0.0
 11
253.9014255544
 21
223.6636219641
 31
0.0
  0
LINE
  5
194
330
1F
100
AcDbEntity
  8
0
  6
Continuous
 62
     7
370
    25
100
AcDbLine
 10
230.4514255544
 20
223.6636219641
 30
0.0
 11
232.0514255544
 21
223.6636219641
 31
0.0
  0
LINE
  5
195
330
1F
100
AcDbEntity
  8
0
  6
Continuous
 62
     7
370
    25
100
AcDbLine
 10
232.0514255544
 20
223.6636219641
 30
0.0
 11
232.3014255544
 21
218.1636219641
 31
0.0
  0
LINE
  5
196
330
1F
100
AcDbEntity
  8
0
  6
Continuous
 62
     7
370
    25
100
AcDbLine
 10
232.3014255544
 20
218.1636219641
 30
0.0
 11
105.2014255544
 21
218.1636219641
 31
0.0
  0
LINE
  5
197
330
1F
100
AcDbEntity
  8
0
  6
Continuous
 62
     7
370
    25
100
AcDbLine
 10
105.2014255544
 20
218.1636219641
 30
0.0
 11
105.4514255544
 21
223.6636219641
 31
0.0
  0
LINE
  5
198
330
1F
100
AcDbEntity
  8
0
  6
Continuous
 62
     7
370
    25
100
AcDbLine
 10
105.4514255544
 20
223.6636219641
 30
0.0
 11
107.0514255544
 21
223.6636219641
 31
0.0
  0
LINE
  5
199
330
1F
100
AcDbEntity
  8
0
  6
Continuous
 62
     7
370
    25
100
AcDbLine
 10
107.0514255544
 20
223.6636219641
 30
0.0
 11
107.0514255544
 21
223.7203180357
 31
0.0
  0
LINE
  5
19A
330
1F
100
AcDbEntity
  8
0
  6
Continuous
 62
     7
370
    25
100
AcDbLine
 10
107.0514255544
 20
223.7203180357
 30
0.0
 11
107.3514255544
 21
226.1636219641
 31
0.0
  0
LINE
  5
19B
330
1F
100
AcDbEntity
  8
0
  6
Continuous
 62
     7
370
    25
100
AcDbLine
 10
107.3514255544
 20
226.1636219641
 30
0.0
 11
230.1514255544
 21
226.1636219641
 31
0.0
  0
LINE
  5
19C
330
1F
100
AcDbEntity
  8
0
  6
Continuous
 62
     7
370
    25
100
AcDbLine
 10
230.4514255544
 20
223.6636219641
 30
0.0
 11
230.4514255544
 21
223.7203180357
 31
0.0
  0
LINE
  5
19D
330
1F
100
AcDbEntity
  8
0
  6
Continuous
 62
     7
370
    25
100
AcDbLine
 10
230.4514255544
 20
223.7203180357
 30
0.0
 11
230.1514255544
 21
226.1636219641
 31
0.0
  0
LINE
  5
19E
330
1F
100
AcDbEntity
  8
0
  6
Continuous
 62
     7
370
    25
100
AcDbLine
 10
232.0514255544
 20
223.6636219641
 30
0.0
 11
243.8514255544
 21
223.6636219641
 31
0.0
  0
LINE
  5
19F
330
1F
100
AcDbEntity
  8
0
  6
Continuous
 62
     7
370
    25
100
AcDbLine
 10
243.6014255544
 20
218.1636219641
 30
0.0
 11
243.8514255544
 21
223.6636219641
 31
0.0
  0
LINE
  5
1A0
330
1F
100
AcDbEntity
  8
0
  6
Continuous
 62
     7
370
    25
100
AcDbLine
 10
232.3014255544
 20
218.1636219641
 30
0.0
 11
243.6014255544
 21
218.1636219641
 31
0.0
  0
LINE
  5
1A1
330
1F
100
AcDbEntity
  8
0
  6
Continuous
 62
     7
370
    25
100
AcDbLine
 10
93.6514255544
 20
223.6636219641
 30
0.0
 11
93.9014255544
 21
218.1636219641
 31
0.0
  0
LINE
  5
1A2
330
1F
100
AcDbEntity
  8
0
  6
Continuous
 62
     7
370
    25
100
AcDbLine
 10
105.4514255544
 20
223.6636219641
 30
0.0
 11
93.6514255544
 21
223.6636219641
 31
0.0
  0
LINE
  5
1A3
330
1F
100
AcDbEntity
  8
0
  6
Continuous
 62
     7
370
    25
100
AcDbLine
 10
105.2014255544
 20
218.1636219641
 30
0.0
 11
93.9014255544
 21
218.1636219641
 31
0.0
  0
LINE
  5
1A4
330
1F
100
AcDbEntity
  8
0
  6
Continuous
 62
     7
370
    25
100
AcDbLine
 10
91.7514255544
 20
226.1636219641
 30
0.0
 11
92.0514255544
 21
223.7203180357
 31
0.0
  0
LINE
  5
1A5
330
1F
100
AcDbEntity
  8
0
  6
Continuous
 62
     7
370
    25
100
AcDbLine
 10
92.0514255544
 20
223.7203180357
 30
0.0
 11
92.0514255544
 21
223.6636219641
 31
0.0
  0
LINE
  5
1A6
330
1F
100
AcDbEntity
  8
0
  6
Continuous
 62
     7
370
    25
100
AcDbLine
 10
92.0514255544
 20
223.6636219641
 30
0.0
 11
93.6514255544
 21
223.6636219641
 31
0.0
  0
LINE
  5
1A7
330
1F
100
AcDbEntity
  8
0
  6
Continuous
 62
     7
370
    25
100
AcDbLine
 10
79.7514255544
 20
222.6636219641
 30
0.0
 11
83.9514255544
 21
222.6636219641
 31
0.0
  0
LINE
  5
1A8
330
1F
100
AcDbEntity
  8
0
  6
Continuous
 62
     7
370
    25
100
AcDbLine
 10
83.9514255544
 20
222.6636219641
 30
0.0
 11
83.9514255544
 21
226.1636219641
 31
0.0
  0
LINE
  5
1A9
330
1F
100
AcDbEntity
  8
0
  6
Continuous
 62
     7
370
    25
100
AcDbLine
 10
93.9014255544
 20
218.1636219641
 30
0.0
 11
79.7514255544
 21
218.1636219641
 31
0.0
  0
LINE
  5
1AA
330
1F
100
AcDbEntity
  8
0
  6
Continuous
 62
     7
370
    25
100
AcDbLine
 10
83.9514255544
 20
226.1636219641
 30
0.0
 11
91.7514255544
 21
226.1636219641
 31
0.0
  0
LINE
  5
1AB
330
1F
100
AcDbEntity
  8
0
  6
Continuous
 62
     7
370
    25
100
AcDbLine
 10
79.7514255544
 20
218.1636219641
 30
0.0
 11
79.7514255544
 21
222.6636219641
 31
0.0
  0
LINE
  5
1AC
330
1F
100
AcDbEntity
  8
0
  6
Continuous
 62
     7
370
    25
100
AcDbLine
 10
253.5514255544
 20
222.6636219641
 30
0.0
 11
257.7514255544
 21
222.6636219641
 31
0.0
  0
LINE
  5
1AD
330
1F
100
AcDbEntity
  8
0
  6
Continuous
 62
     7
370
    25
100
AcDbLine
 10
245.4514255544
 20
223.7203180357
 30
0.0
 11
245.4514255544
 21
223.6636219641
 31
0.0
  0
LINE
  5
1AE
330
1F
100
AcDbEntity
  8
0
  6
Continuous
 62
     7
370
    25
100
AcDbLine
 10
257.7514255544
 20
222.6636219641
 30
0.0
 11
257.7514255544
 21
218.1636219641
 31
0.0
  0
LINE
  5
1AF
330
1F
100
AcDbEntity
  8
0
  6
Continuous
 62
     7
370
    25
100
AcDbLine
 10
253.5514255544
 20
226.1636219641
 30
0.0
 11
253.5514255544
 21
222.6636219641
 31
0.0
  0
LINE
  5
1B0
330
1F
100
AcDbEntity
  8
0
  6
Continuous
 62
     7
370
    25
100
AcDbLine
 10
257.7514255544
 20
218.1636219641
 30
0.0
 11
243.6014255544
 21
218.1636219641
 31
0.0
  0
LINE
  5
1B1
330
1F
100
AcDbEntity
  8
0
  6
Continuous
 62
     7
370
    25
100
AcDbLine
 10
245.7514255544
 20
226.1636219641
 30
0.0
 11
245.4514255544
 21
223.7203180357
 31
0.0
  0
LINE
  5
1B2
330
1F
100
AcDbEntity
  8
0
  6
Continuous
 62
     7
370
    25
100
AcDbLine
 10
243.8514255544
 20
223.6636219641
 30
0.0
 11
245.4514255544
 21
223.6636219641
 31
0.0
  0
LINE
  5
1B3
330
1F
100
AcDbEntity
  8
0
  6
Continuous
 62
     7
370
    25
100
AcDbLine
 10
245.7514255544
 20
226.1636219641
 30
0.0
 11
253.5514255544
 21
226.1636219641
 31
0.0
  0
LINE
  5
1B4
330
1F
100
AcDbEntity
  8
0
  6
Continuous
 62
     7
370
    25
100
AcDbLine
 10
107.0514255544
 20
223.7203180357
 30
0.0
 11
106.8902979975
 21
223.7203180357
 31
0.0
  0
LINE
  5
1B5
330
1F
100
AcDbEntity
  8
0
  6
Continuous
 62
     7
370
    25
100
AcDbLine
 10
92.1902979975
 20
223.7203180357
 30
0.0
 11
92.0514255544
 21
223.7203180357
 31
0.0
  0
LINE
  5
1B6
330
1F
100
AcDbEntity
  8
0
  6
Continuous
 62
     7
370
    25
100
AcDbLine
 10
245.4514255544
 20
223.7203180357
 30
0.0
 11
245.3125531112
 21
223.7203180357
 31
0.0
  0
LINE
  5
1B7
330
1F
100
AcDbEntity
  8
0
  6
Continuous
 62
     7
370
    25
100
AcDbLine
 10
230.6125531112
 20
223.7203180357
 30
0.0
 11
230.4514255544
 21
223.7203180357
 31
0.0
  0
LINE
  5
1B8
330
1F
100
AcDbEntity
  8
0
  6
Continuous
 62
     7
370
    25
100
AcDbLine
 10
245.7514255544
 20
226.1636219641
 30
0.0
 11
244.9125531112
 21
226.1636219641
 31
0.0
  0
LINE
  5
1B9
330
1F
100
AcDbEntity
  8
0
  6
Continuous
 62
     7
370
    25
100
AcDbLine
 10
231.0125531112
 20
226.1636219641
 30
0.0
 11
230.1514255544
 21
226.1636219641
 31
0.0
  0
LINE
  5
1BA
330
1F
100
AcDbEntity
  8
0
  6
Continuous
 62
     7
370
    25
100
AcDbLine
 10
91.7514255544
 20
226.1636219641
 30
0.0
 11
92.5902979975
 21
226.1636219641
 31
0.0
  0
LINE
  5
1BB
330
1F
100
AcDbEntity
  8
0
  6
Continuous
 62
     7
370
    25
100
AcDbLine
 10
106.4902979975
 20
226.1636219641
 30
0.0
 11
107.3514255544
 21
226.1636219641
 31
0.0
  0
LINE
  5
1BC
330
1F
100
AcDbEntity
  8
0
  6
PHANTOM
 62
     1
370
    18
100
AcDbLine
 10
244.8771977722
 20
225.7636219641
 30
0.0
 11
231.0479084503
 21
225.7636219641
 31
0.0
  0
LINE
  5
1BD
330
1F
100
AcDbEntity
  8
0
  6
PHANTOM
 62
     1
370
    18
100
AcDbLine
 10
106.4549426585
 20
225.7636219641
 30
0.0
 11
92.6256533366
 21
225.7636219641
 31
0.0
  0
HATCH
  5
1BE
330
1F
100
AcDbEntity
  8
O-TEKST
  6
Continuous
370
    18
100
AcDbHatch
 10
0.0
 20
0.0
 30
0.0
210
0.0
220
0.0
230
1.0
  2
ANSI34
 70
     0
 71
     0
 91
        1
 92
        0
 93
        9
 72
     1
 10
253.5514255543818
 20
222.6636219640971
 11
253.5514255543818
 21
226.1636219640971
 72
     1
 10
253.5514255543818
 20
226.1636219640971
 11
245.7514255543817
 21
226.1636219640971
 72
     1
 10
245.7514255543817
 20
226.1636219640971
 11
245.4514255543818
 21
223.7203180357047
 72
     1
 10
245.4514255543818
 20
223.7203180357047
 11
245.4514255543818
 21
223.6636219640971
 72
     1
 10
245.4514255543818
 20
223.6636219640971
 11
243.8514255543817
 21
223.6636219640971
 72
     1
 10
243.8514255543817
 20
223.6636219640971
 11
243.6014255543817
 21
218.1636219640971
 72
     1
 10
243.6014255543817
 20
218.1636219640971
 11
257.7514255543817
 21
218.1636219640971
 72
     1
 10
257.7514255543817
 20
218.1636219640971
 11
257.7514255543817
 21
222.6636219640971
 72
     1
 10
257.7514255543817
 20
222.6636219640971
 11
253.5514255543818
 21
222.6636219640971
 97
        0
 75
     0
 76
     1
 52
0.0
 41
1.0
 77
     0
 78
     4
 53
45.0
 43
0.0
 44
0.0
 45
-13.47038418160373
 46
13.47038418160373
 79
     0
 53
45.0
 43
4.49013
 44
0.0
 45
-13.47038418160373
 46
13.47038418160373
 79
     0
 53
45.0
 43
8.98026
 44
0.0
 45
-13.47038418160373
 46
13.47038418160373
 79
     0
 53
45.0
 43
13.4704
 44
0.0
 45
-13.47038418160373
 46
13.47038418160373
 79
     0
 98
        1
 10
0.0
 20
0.0
  0
HATCH
  5
1BF
330
1F
100
AcDbEntity
  8
O-TEKST
  6
Continuous
370
    18
100
AcDbHatch
 10
0.0
 20
0.0
 30
0.0
210
0.0
220
0.0
230
1.0
  2
ANSI34
 70
     0
 71
     0
 91
        1
 92
        0
 93
        9
 72
     1
 10
83.95142555438173
 20
226.1636219640971
 11
83.95142555438173
 21
222.6636219640971
 72
     1
 10
83.95142555438173
 20
222.6636219640971
 11
79.75142555438174
 21
222.6636219640971
 72
     1
 10
79.75142555438174
 20
222.6636219640971
 11
79.75142555438174
 21
218.1636219640971
 72
     1
 10
79.75142555438174
 20
218.1636219640971
 11
93.90142555438173
 21
218.1636219640971
 72
     1
 10
93.90142555438173
 20
218.1636219640971
 11
93.65142555438173
 21
223.6636219640971
 72
     1
 10
93.65142555438173
 20
223.6636219640971
 11
92.05142555438172
 21
223.6636219640971
 72
     1
 10
92.05142555438172
 20
223.6636219640971
 11
92.05142555438172
 21
223.7203180357047
 72
     1
 10
92.05142555438172
 20
223.7203180357047
 11
91.75142555438174
 21
226.1636219640971
 72
     1
 10
91.75142555438174
 20
226.1636219640971
 11
83.95142555438173
 21
226.1636219640971
 97
        0
 75
     0
 76
     1
 52
0.0
 41
1.0
 77
     0
 78
     4
 53
45.0
 43
0.0
 44
0.0
 45
-13.47038418160373
 46
13.47038418160373
 79
     0
 53
45.0
 43
4.49013
 44
0.0
 45
-13.47038418160373
 46
13.47038418160373
 79
     0
 53
45.0
 43
8.98026
 44
0.0
 45
-13.47038418160373
 46
13.47038418160373
 79
     0
 53
45.0
 43
13.4704
 44
0.0
 45
-13.47038418160373
 46
13.47038418160373
 79
     0
 98
        1
 10
0.0
 20
0.0
  0
HATCH
  5
1C0
330
1F
100
AcDbEntity
  8
O-TEKST
  6
Continuous
370
    18
100
AcDbHatch
 10
0.0
 20
0.0
 30
0.0
210
0.0
220
0.0
230
1.0
  2
ANSI34
 70
     0
 71
     0
 91
        1
 92
        0
 93
       10
 72
     1
 10
230.4514255543818
 20
223.6636219640971
 11
230.4514255543818
 21
223.7203180357048
 72
     1
 10
230.4514255543818
 20
223.7203180357048
 11
230.1514255543817
 21
226.1636219640971
 72
     1
 10
230.1514255543817
 20
226.1636219640971
 11
107.3514255543817
 21
226.1636219640971
 72
     1
 10
107.3514255543817
 20
226.1636219640971
 11
107.0514255543817
 21
223.7203180357048
 72
     1
 10
107.0514255543817
 20
223.7203180357048
 11
107.0514255543817
 21
223.6636219640971
 72
     1
 10
107.0514255543817
 20
223.6636219640971
 11
105.4514255543817
 21
223.6636219640971
 72
     1
 10
105.4514255543817
 20
223.6636219640971
 11
105.2014255543817
 21
218.1636219640971
 72
     1
 10
105.2014255543817
 20
218.1636219640971
 11
232.3014255543818
 21
218.1636219640971
 72
     1
 10
232.3014255543818
 20
218.1636219640971
 11
232.0514255543818
 21
223.6636219640971
 72
     1
 10
232.0514255543818
 20
223.6636219640971
 11
230.4514255543818
 21
223.6636219640971
 97
        0
 75
     0
 76
     1
 52
0.0
 41
1.0
 77
     0
 78
     4
 53
45.0
 43
0.0
 44
0.0
 45
-13.47038418160373
 46
13.47038418160373
 79
     0
 53
45.0
 43
4.49013
 44
0.0
 45
-13.47038418160373
 46
13.47038418160373
 79
     0
 53
45.0
 43
8.98026
 44
0.0
 45
-13.47038418160373
 46
13.47038418160373
 79
     0
 53
45.0
 43
13.4704
 44
0.0
 45
-13.47038418160373
 46
13.47038418160373
 79
     0
 98
        1
 10
0.0
 20
0.0
  0
HATCH
  5
1C1
330
1F
100
AcDbEntity
  8
O-TEKST
  6
Continuous
370
    18
100
AcDbHatch
 10
0.0
 20
0.0
 30
0.0
210
0.0
220
0.0
230
1.0
  2
ANSI34
 70
     0
 71
     0
 91
        1
 92
        0
 93
        8
 72
     1
 10
84.25142555438264
 20
302.2636219640972
 11
79.75142555438264
 21
302.2636219640971
 72
     1
 10
79.75142555438264
 20
302.2636219640971
 11
79.75142555438266
 21
260.6636219640971
 72
     1
 10
79.75142555438266
 20
260.6636219640971
 11
81.75142555438266
 21
260.6636219640971
 72
     1
 10
81.75142555438266
 20
260.6636219640971
 11
81.75142555438264
 21
259.6636219640971
 72
     1
 10
81.75142555438264
 20
259.6636219640971
 11
90.75142555438264
 21
259.6636219640971
 72
     1
 10
90.75142555438264
 20
259.6636219640971
 11
90.75142555438265
 21
305.7636219640971
 72
     1
 10
90.75142555438265
 20
305.7636219640971
 11
84.45142555438213
 21
305.7636219640971
 72
     1
 10
84.45142555438213
 20
305.7636219640971
 11
84.25142555438264
 21
302.2636219640972
 97
        0
 75
     0
 76
     1
 52
0.0
 41
1.0
 77
     0
 78
     4
 53
45.0
 43
0.0
 44
0.0
 45
-13.47038418160373
 46
13.47038418160373
 79
     0
 53
45.0
 43
4.49013
 44
0.0
 45
-13.47038418160373
 46
13.47038418160373
 79
     0
 53
45.0
 43
8.98026
 44
0.0
 45
-13.47038418160373
 46
13.47038418160373
 79
     0
 53
45.0
 43
13.4704
 44
0.0
 45
-13.47038418160373
 46
13.47038418160373
 79
     0
 98
        1
 10
0.0
 20
0.0
  0
HATCH
  5
1C2
330
1F
100
AcDbEntity
  8
O-TEKST
  6
Continuous
370
    18
100
AcDbHatch
 10
0.0
 20
0.0
 30
0.0
210
0.0
220
0.0
230
1.0
  2
ANSI34
 70
     0
 71
     0
 91
        1
 92
        0
 93
        8
 72
     1
 10
257.7514255543827
 20
302.2636219640971
 11
253.2514255543827
 21
302.2636219640971
 72
     1
 10
253.2514255543827
 20
302.2636219640971
 11
253.0514255543827
 21
305.7636219640971
 72
     1
 10
253.0514255543827
 20
305.7636219640971
 11
246.7514255543827
 21
305.7636219640971
 72
     1
 10
246.7514255543827
 20
305.7636219640971
 11
246.7514255543827
 21
259.6636219640971
 72
     1
 10
246.7514255543827
 20
259.6636219640971
 11
255.7514255543827
 21
259.6636219640971
 72
     1
 10
255.7514255543827
 20
259.6636219640971
 11
255.7514255543827
 21
260.6636219640971
 72
     1
 10
255.7514255543827
 20
260.6636219640971
 11
257.7514255543827
 21
260.6636219640971
 72
     1
 10
257.7514255543827
 20
260.6636219640971
 11
257.7514255543827
 21
302.2636219640971
 97
        0
 75
     0
 76
     1
 52
0.0
 41
1.0
 77
     0
 78
     4
 53
45.0
 43
0.0
 44
0.0
 45
-13.47038418160373
 46
13.47038418160373
 79
     0
 53
45.0
 43
4.49013
 44
0.0
 45
-13.47038418160373
 46
13.47038418160373
 79
     0
 53
45.0
 43
8.98026
 44
0.0
 45
-13.47038418160373
 46
13.47038418160373
 79
     0
 53
45.0
 43
13.4704
 44
0.0
 45
-13.47038418160373
 46
13.47038418160373
 79
     0
 98
        1
 10
0.0
 20
0.0
  0
HATCH
  5
1C3
330
1F
100
AcDbEntity
  8
O-TEKST
  6
Continuous
370
    18
100
AcDbHatch
 10
0.0
 20
0.0
 30
0.0
210
0.0
220
0.0
230
1.0
  2
ANSI34
 70
     0
 71
     0
 91
        1
 92
        0
 93
        8
 72
     1
 10
105.290297997524
 20
225.9636219640976
 11
106.490297997524
 21
225.9636219640976
 72
     2
 10
106.490297997524
 20
225.7636219640977
 40
0.2
 50
270.0000000000008
 51
360.0000000000008
 73
     0
 72
     1
 10
106.6902979975239
 20
225.7636219640977
 11
106.6902979975239
 21
223.6636219640976
 72
     1
 10
106.6902979975239
 20
223.6636219640976
 11
106.8902979975239
 21
223.6636219640976
 72
     1
 10
106.8902979975239
 20
223.6636219640976
 11
106.8902979975239
 21
225.7636219640977
 72
     2
 10
106.490297997524
 20
225.7636219640977
 40
0.4
 50
0.0
 51
90.0
 73
     1
 72
     1
 10
106.490297997524
 20
226.1636219640976
 11
105.290297997524
 21
226.1636219640976
 72
     1
 10
105.290297997524
 20
226.1636219640976
 11
105.290297997524
 21
225.9636219640976
 97
        0
 75
     0
 76
     1
 52
90.0
 41
1.0
 77
     0
 78
     4
 53
135.0000000000002
 43
0.0
 44
0.0
 45
-13.47038418160369
 46
-13.47038418160378
 79
     0
 53
135.0000000000002
 43
-0.0000000000000157
 44
4.49013
 45
-13.47038418160369
 46
-13.47038418160378
 79
     0
 53
135.0000000000002
 43
-0.0000000000000314
 44
8.98026
 45
-13.47038418160369
 46
-13.47038418160378
 79
     0
 53
135.0000000000002
 43
-0.000000000000047
 44
13.4704
 45
-13.47038418160369
 46
-13.47038418160378
 79
     0
 98
        1
 10
0.0
 20
0.0
  0
HATCH
  5
1C4
330
1F
100
AcDbEntity
  8
O-TEKST
  6
Continuous
370
    18
100
AcDbHatch
 10
0.0
 20
0.0
 30
0.0
210
0.0
220
0.0
230
1.0
  2
ANSI34
 70
     0
 71
     0
 91
        1
 92
        0
 93
        4
 72
     1
 10
96.29029799752394
 20
225.9636219640976
 11
98.29029799752394
 21
225.9636219640976
 72
     1
 10
98.29029799752394
 20
225.9636219640976
 11
98.29029799752394
 21
226.1636219640976
 72
     1
 10
98.29029799752394
 20
226.1636219640976
 11
96.29029799752394
 21
226.1636219640976
 72
     1
 10
96.29029799752394
 20
226.1636219640976
 11
96.29029799752394
 21
225.9636219640976
 97
        0
 75
     0
 76
     1
 52
90.0
 41
1.0
 77
     0
 78
     4
 53
135.0000000000002
 43
0.0
 44
0.0
 45
-13.47038418160369
 46
-13.47038418160378
 79
     0
 53
135.0000000000002
 43
-0.0000000000000157
 44
4.49013
 45
-13.47038418160369
 46
-13.47038418160378
 79
     0
 53
135.0000000000002
 43
-0.0000000000000314
 44
8.98026
 45
-13.47038418160369
 46
-13.47038418160378
 79
     0
 53
135.0000000000002
 43
-0.000000000000047
 44
13.4704
 45
-13.47038418160369
 46
-13.47038418160378
 79
     0
 98
        1
 10
0.0
 20
0.0
  0
HATCH
  5
1C5
330
1F
100
AcDbEntity
  8
O-TEKST
  6
Continuous
370
    18
100
AcDbHatch
 10
0.0
 20
0.0
 30
0.0
210
0.0
220
0.0
230
1.0
  2
ANSI34
 70
     0
 71
     0
 91
        1
 92
        0
 93
        4
 72
     1
 10
100.7902979975239
 20
225.9636219640976
 11
102.7902979975239
 21
225.9636219640976
 72
     1
 10
102.7902979975239
 20
225.9636219640976
 11
102.7902979975239
 21
226.1636219640976
 72
     1
 10
102.7902979975239
 20
226.1636219640976
 11
100.7902979975239
 21
226.1636219640976
 72
     1
 10
100.7902979975239
 20
226.1636219640976
 11
100.7902979975239
 21
225.9636219640976
 97
        0
 75
     0
 76
     1
 52
90.0
 41
1.0
 77
     0
 78
     4
 53
135.0000000000002
 43
0.0
 44
0.0
 45
-13.47038418160369
 46
-13.47038418160378
 79
     0
 53
135.0000000000002
 43
-0.0000000000000157
 44
4.49013
 45
-13.47038418160369
 46
-13.47038418160378
 79
     0
 53
135.0000000000002
 43
-0.0000000000000314
 44
8.98026
 45
-13.47038418160369
 46
-13.47038418160378
 79
     0
 53
135.0000000000002
 43
-0.000000000000047
 44
13.4704
 45
-13.47038418160369
 46
-13.47038418160378
 79
     0
 98
        1
 10
0.0
 20
0.0
  0
HATCH
  5
1C6
330
1F
100
AcDbEntity
  8
O-TEKST
  6
Continuous
370
    18
100
AcDbHatch
 10
0.0
 20
0.0
 30
0.0
210
0.0
220
0.0
230
1.0
  2
ANSI34
 70
     0
 71
     0
 91
        1
 92
        0
 93
        8
 72
     1
 10
92.19029799752393
 20
223.6636219640976
 11
92.39029799752392
 21
223.6636219640976
 72
     1
 10
92.39029799752392
 20
223.6636219640976
 11
92.39029799752392
 21
225.7636219640977
 72
     2
 10
92.59029799752393
 20
225.7636219640977
 40
0.2
 50
180.0
 51
270.0000000000008
 73
     0
 72
     1
 10
92.59029799752393
 20
225.9636219640976
 11
93.79029799752394
 21
225.9636219640976
 72
     1
 10
93.79029799752394
 20
225.9636219640976
 11
93.79029799752394
 21
226.1636219640976
 72
     1
 10
93.79029799752394
 20
226.1636219640976
 11
92.59029799752393
 21
226.1636219640976
 72
     2
 10
92.59029799752393
 20
225.7636219640977
 40
0.4
 50
90.0
 51
180.0
 73
     1
 72
     1
 10
92.19029799752393
 20
225.7636219640977
 11
92.19029799752393
 21
223.6636219640976
 97
        0
 75
     0
 76
     1
 52
90.0
 41
1.0
 77
     0
 78
     4
 53
135.0000000000002
 43
0.0
 44
0.0
 45
-13.47038418160369
 46
-13.47038418160378
 79
     0
 53
135.0000000000002
 43
-0.0000000000000157
 44
4.49013
 45
-13.47038418160369
 46
-13.47038418160378
 79
     0
 53
135.0000000000002
 43
-0.0000000000000314
 44
8.98026
 45
-13.47038418160369
 46
-13.47038418160378
 79
     0
 53
135.0000000000002
 43
-0.000000000000047
 44
13.4704
 45
-13.47038418160369
 46
-13.47038418160378
 79
     0
 98
        1
 10
0.0
 20
0.0
  0
HATCH
  5
1C7
330
1F
100
AcDbEntity
  8
O-TEKST
  6
Continuous
370
    18
100
AcDbHatch
 10
0.0
 20
0.0
 30
0.0
210
0.0
220
0.0
230
1.0
  2
ANSI34
 70
     0
 71
     0
 91
        1
 92
        0
 93
        8
 72
     1
 10
230.8125531112414
 20
223.6636219640976
 11
230.8125531112414
 21
225.7636219640977
 72
     2
 10
231.0125531112413
 20
225.7636219640977
 40
0.2
 50
180.0
 51
270.0000000000008
 73
     0
 72
     1
 10
231.0125531112413
 20
225.9636219640976
 11
232.2125531112414
 21
225.9636219640976
 72
     1
 10
232.2125531112414
 20
225.9636219640976
 11
232.2125531112414
 21
226.1636219640976
 72
     1
 10
232.2125531112414
 20
226.1636219640976
 11
231.0125531112413
 21
226.1636219640976
 72
     2
 10
231.0125531112413
 20
225.7636219640977
 40
0.4
 50
90.0
 51
180.0
 73
     1
 72
     1
 10
230.6125531112414
 20
225.7636219640977
 11
230.6125531112414
 21
223.6636219640976
 72
     1
 10
230.6125531112414
 20
223.6636219640976
 11
230.8125531112414
 21
223.6636219640976
 97
        0
 75
     0
 76
     1
 52
90.0
 41
1.0
 77
     0
 78
     4
 53
135.0000000000002
 43
0.0
 44
0.0
 45
-13.47038418160369
 46
-13.47038418160378
 79
     0
 53
135.0000000000002
 43
-0.0000000000000157
 44
4.49013
 45
-13.47038418160369
 46
-13.47038418160378
 79
     0
 53
135.0000000000002
 43
-0.0000000000000314
 44
8.98026
 45
-13.47038418160369
 46
-13.47038418160378
 79
     0
 53
135.0000000000002
 43
-0.000000000000047
 44
13.4704
 45
-13.47038418160369
 46
-13.47038418160378
 79
     0
 98
        1
 10
0.0
 20
0.0
  0
HATCH
  5
1C8
330
1F
100
AcDbEntity
  8
O-TEKST
  6
Continuous
370
    18
100
AcDbHatch
 10
0.0
 20
0.0
 30
0.0
210
0.0
220
0.0
230
1.0
  2
ANSI34
 70
     0
 71
     0
 91
        1
 92
        0
 93
        4
 72
     1
 10
241.2125531112414
 20
226.1636219640976
 11
239.2125531112414
 21
226.1636219640976
 72
     1
 10
239.2125531112414
 20
226.1636219640976
 11
239.2125531112414
 21
225.9636219640976
 72
     1
 10
239.2125531112414
 20
225.9636219640976
 11
241.2125531112414
 21
225.9636219640976
 72
     1
 10
241.2125531112414
 20
225.9636219640976
 11
241.2125531112414
 21
226.1636219640976
 97
        0
 75
     0
 76
     1
 52
90.0
 41
1.0
 77
     0
 78
     4
 53
135.0000000000002
 43
0.0
 44
0.0
 45
-13.47038418160369
 46
-13.47038418160378
 79
     0
 53
135.0000000000002
 43
-0.0000000000000157
 44
4.49013
 45
-13.47038418160369
 46
-13.47038418160378
 79
     0
 53
135.0000000000002
 43
-0.0000000000000314
 44
8.98026
 45
-13.47038418160369
 46
-13.47038418160378
 79
     0
 53
135.0000000000002
 43
-0.000000000000047
 44
13.4704
 45
-13.47038418160369
 46
-13.47038418160378
 79
     0
 98
        1
 10
0.0
 20
0.0
  0
HATCH
  5
1C9
330
1F
100
AcDbEntity
  8
O-TEKST
  6
Continuous
370
    18
100
AcDbHatch
 10
0.0
 20
0.0
 30
0.0
210
0.0
220
0.0
230
1.0
  2
ANSI34
 70
     0
 71
     0
 91
        1
 92
        0
 93
        4
 72
     1
 10
236.7125531112414
 20
226.1636219640976
 11
234.7125531112414
 21
226.1636219640976
 72
     1
 10
234.7125531112414
 20
226.1636219640976
 11
234.7125531112414
 21
225.9636219640976
 72
     1
 10
234.7125531112414
 20
225.9636219640976
 11
236.7125531112414
 21
225.9636219640976
 72
     1
 10
236.7125531112414
 20
225.9636219640976
 11
236.7125531112414
 21
226.1636219640976
 97
        0
 75
     0
 76
     1
 52
90.0
 41
1.0
 77
     0
 78
     4
 53
135.0000000000002
 43
0.0
 44
0.0
 45
-13.47038418160369
 46
-13.47038418160378
 79
     0
 53
135.0000000000002
 43
-0.0000000000000157
 44
4.49013
 45
-13.47038418160369
 46
-13.47038418160378
 79
     0
 53
135.0000000000002
 43
-0.0000000000000314
 44
8.98026
 45
-13.47038418160369
 46
-13.47038418160378
 79
     0
 53
135.0000000000002
 43
-0.000000000000047
 44
13.4704
 45
-13.47038418160369
 46
-13.47038418160378
 79
     0
 98
        1
 10
0.0
 20
0.0
  0
HATCH
  5
1CA
330
1F
100
AcDbEntity
  8
O-TEKST
  6
Continuous
370
    18
100
AcDbHatch
 10
0.0
 20
0.0
 30
0.0
210
0.0
220
0.0
230
1.0
  2
ANSI34
 70
     0
 71
     0
 91
        1
 92
        0
 93
        8
 72
     1
 10
245.1125531112414
 20
223.6636219640976
 11
245.3125531112414
 21
223.6636219640976
 72
     1
 10
245.3125531112414
 20
223.6636219640976
 11
245.3125531112414
 21
225.7636219640977
 72
     2
 10
244.9125531112414
 20
225.7636219640977
 40
0.4
 50
0.0
 51
90.0
 73
     1
 72
     1
 10
244.9125531112414
 20
226.1636219640976
 11
243.7125531112414
 21
226.1636219640976
 72
     1
 10
243.7125531112414
 20
226.1636219640976
 11
243.7125531112414
 21
225.9636219640976
 72
     1
 10
243.7125531112414
 20
225.9636219640976
 11
244.9125531112414
 21
225.9636219640976
 72
     2
 10
244.9125531112414
 20
225.7636219640977
 40
0.2
 50
270.0000000000008
 51
360.0000000000008
 73
     0
 72
     1
 10
245.1125531112414
 20
225.7636219640977
 11
245.1125531112414
 21
223.6636219640976
 97
        0
 75
     0
 76
     1
 52
90.0
 41
1.0
 77
     0
 78
     4
 53
135.0000000000002
 43
0.0
 44
0.0
 45
-13.47038418160369
 46
-13.47038418160378
 79
     0
 53
135.0000000000002
 43
-0.0000000000000157
 44
4.49013
 45
-13.47038418160369
 46
-13.47038418160378
 79
     0
 53
135.0000000000002
 43
-0.0000000000000314
 44
8.98026
 45
-13.47038418160369
 46
-13.47038418160378
 79
     0
 53
135.0000000000002
 43
-0.000000000000047
 44
13.4704
 45
-13.47038418160369
 46
-13.47038418160378
 79
     0
 98
        1
 10
0.0
 20
0.0
  0
HATCH
  5
1CB
330
1F
100
AcDbEntity
  8
O-TEKST
  6
Continuous
370
    18
100
AcDbHatch
 10
0.0
 20
0.0
 30
0.0
210
0.0
220
0.0
230
1.0
  2
ANSI34
 70
     0
 71
     0
 91
        1
 92
        0
 93
        6
 72
     1
 10
103.7514255543827
 20
306.7636219640971
 11
103.7514255543827
 21
321.2636219640971
 72
     1
 10
103.7514255543827
 20
321.2636219640971
 11
79.75142555438265
 21
321.2636219640971
 72
     1
 10
79.75142555438265
 20
321.2636219640971
 11
79.75142555438265
 21
303.2636219640971
 72
     1
 10
79.75142555438265
 20
303.2636219640971
 11
83.75142555438265
 21
303.2636219640971
 72
     1
 10
83.75142555438265
 20
303.2636219640971
 11
83.75142555438265
 21
306.7636219640971
 72
     1
 10
83.75142555438265
 20
306.7636219640971
 11
103.7514255543827
 21
306.7636219640971
 97
        0
 75
     0
 76
     1
 52
0.0
 41
1.0
 77
     0
 78
     4
 53
45.0
 43
0.0
 44
0.0
 45
-13.47038418160373
 46
13.47038418160373
 79
     0
 53
45.0
 43
4.49013
 44
0.0
 45
-13.47038418160373
 46
13.47038418160373
 79
     0
 53
45.0
 43
8.98026
 44
0.0
 45
-13.47038418160373
 46
13.47038418160373
 79
     0
 53
45.0
 43
13.4704
 44
0.0
 45
-13.47038418160373
 46
13.47038418160373
 79
     0
 98
        1
 10
0.0
 20
0.0
  0
HATCH
  5
1CC
330
1F
100
AcDbEntity
  8
O-TEKST
  6
Continuous
370
    18
100
AcDbHatch
 10
0.0
 20
0.0
 30
0.0
210
0.0
220
0.0
230
1.0
  2
ANSI34
 70
     0
 71
     0
 91
        1
 92
        0
 93
        6
 72
     1
 10
257.7514255543827
 20
303.2636219640971
 11
257.7514255543827
 21
321.2636219640971
 72
     1
 10
257.7514255543827
 20
321.2636219640971
 11
233.7514255543826
 21
321.2636219640971
 72
     1
 10
233.7514255543826
 20
321.2636219640971
 11
233.7514255543826
 21
306.7636219640971
 72
     1
 10
233.7514255543826
 20
306.7636219640971
 11
253.7514255543827
 21
306.7636219640971
 72
     1
 10
253.7514255543827
 20
306.7636219640971
 11
253.7514255543827
 21
303.2636219640971
 72
     1
 10
253.7514255543827
 20
303.2636219640971
 11
257.7514255543827
 21
303.2636219640971
 97
        0
 75
     0
 76
     1
 52
0.0
 41
1.0
 77
     0
 78
     4
 53
45.0
 43
0.0
 44
0.0
 45
-13.47038418160373
 46
13.47038418160373
 79
     0
 53
45.0
 43
4.49013
 44
0.0
 45
-13.47038418160373
 46
13.47038418160373
 79
     0
 53
45.0
 43
8.98026
 44
0.0
 45
-13.47038418160373
 46
13.47038418160373
 79
     0
 53
45.0
 43
13.4704
 44
0.0
 45
-13.47038418160373
 46
13.47038418160373
 79
     0
 98
        1
 10
0.0
 20
0.0
  0
INSERT
  5
1D2
330
1F
100
AcDbEntity
  8
O-TEKST
100
AcDbBlockReference
  2
SW_NOTE_0
 10
147.2165318926
 20
196.4677189305
 30
0.0
  0
LINE
  5
1D3
330
1F
100
AcDbEntity
  8
0
  6
Continuous
 62
     7
370
    25
100
AcDbLine
 10
459.8122211926
 20
132.1558606125
 30
0.0
 11
445.3122211926
 21
132.1558606125
 31
0.0
  0
LINE
  5
1D4
330
1F
100
AcDbEntity
  8
0
  6
Continuous
 62
     7
370
    25
100
AcDbLine
 10
445.3122211926
 20
136.1558606125
 30
0.0
 11
445.3122211926
 21
132.1558606125
 31
0.0
  0
LINE
  5
1D5
330
1F
100
AcDbEntity
  8
0
  6
Continuous
 62
     7
370
    25
100
AcDbLine
 10
445.3122211926
 20
136.1558606125
 30
0.0
 11
441.8122211926
 21
136.1558606125
 31
0.0
  0
LINE
  5
1D6
330
1F
100
AcDbEntity
  8
0
  6
Continuous
 62
     7
370
    25
100
AcDbLine
 10
459.8122211926
 20
140.1558606125
 30
0.0
 11
441.8122211926
 21
140.1558606125
 31
0.0
  0
LINE
  5
1D7
330
1F
100
AcDbEntity
  8
0
  6
Continuous
 62
     7
370
    25
100
AcDbLine
 10
459.8122211926
 20
140.1558606125
 30
0.0
 11
459.8122211926
 21
132.1558606125
 31
0.0
  0
LINE
  5
1D8
330
1F
100
AcDbEntity
  8
0
  6
Continuous
 62
     7
370
    25
100
AcDbLine
 10
441.8122211926
 20
140.1558606125
 30
0.0
 11
441.8122211926
 21
136.1558606125
 31
0.0
  0
LINE
  5
1D9
330
1F
100
AcDbEntity
  8
0
  6
Continuous
 62
     7
370
    25
100
AcDbLine
 10
441.8122211926
 20
82.1558606125
 30
0.0
 11
459.8122211926
 21
82.1558606125
 31
0.0
  0
LINE
  5
1DA
330
1F
100
AcDbEntity
  8
0
  6
Continuous
 62
     7
370
    25
100
AcDbLine
 10
441.8122211926
 20
86.1558606125
 30
0.0
 11
445.3122211926
 21
86.1558606125
 31
0.0
  0
LINE
  5
1DB
330
1F
100
AcDbEntity
  8
0
  6
Continuous
 62
     7
370
    25
100
AcDbLine
 10
445.3122211926
 20
90.1558606125
 30
0.0
 11
445.3122211926
 21
86.1558606125
 31
0.0
  0
LINE
  5
1DC
330
1F
100
AcDbEntity
  8
0
  6
Continuous
 62
     7
370
    25
100
AcDbLine
 10
445.3122211926
 20
90.1558606125
 30
0.0
 11
459.8122211926
 21
90.1558606125
 31
0.0
  0
LINE
  5
1DD
330
1F
100
AcDbEntity
  8
0
  6
Continuous
 62
     7
370
    25
100
AcDbLine
 10
459.8122211926
 20
90.1558606125
 30
0.0
 11
459.8122211926
 21
82.1558606125
 31
0.0
  0
LINE
  5
1DE
330
1F
100
AcDbEntity
  8
0
  6
Continuous
 62
     7
370
    25
100
AcDbLine
 10
441.8122211926
 20
86.1558606125
 30
0.0
 11
441.8122211926
 21
82.1558606125
 31
0.0
  0
LINE
  5
1DF
330
1F
100
AcDbEntity
  8
0
  6
Continuous
 62
     7
370
    25
100
AcDbLine
 10
459.8122211926
 20
90.1558606125
 30
0.0
 11
459.8122211926
 21
132.1558606125
 31
0.0
  0
LINE
  5
1E0
330
1F
100
AcDbEntity
  8
0
  6
Continuous
 62
     7
370
    25
100
AcDbLine
 10
445.3122211926
 20
90.1558606125
 30
0.0
 11
445.3122211926
 21
132.1558606125
 31
0.0
  0
LINE
  5
1E1
330
1F
100
AcDbEntity
  8
0
  6
Continuous
 62
     7
370
    25
100
AcDbLine
 10
441.8122211926
 20
136.1558606125
 30
0.0
 11
441.8122211926
 21
135.5987177553
 31
0.0
  0
LINE
  5
1E2
330
1F
100
AcDbEntity
  8
0
  6
Continuous
 62
     7
370
    25
100
AcDbLine
 10
441.8122211926
 20
86.7130034696
 30
0.0
 11
441.8122211926
 21
86.1558606125
 31
0.0
  0
LINE
  5
1E3
330
1F
100
AcDbEntity
  8
0
  6
Continuous
 62
     7
370
    25
100
AcDbLine
 10
362.2122211926
 20
140.1558606125
 30
0.0
 11
362.2122211926
 21
136.3058606125
 31
0.0
  0
LINE
  5
1E4
330
1F
100
AcDbEntity
  8
0
  6
Continuous
 62
     7
370
    25
100
AcDbLine
 10
440.8122211926
 20
135.6558606125
 30
0.0
 11
440.8122211926
 21
140.1558606125
 31
0.0
  0
LINE
  5
1E5
330
1F
100
AcDbEntity
  8
0
  6
Continuous
 62
     7
370
    25
100
AcDbLine
 10
440.8122211926
 20
135.6558606125
 30
0.0
 11
444.3122211926
 21
135.4558606125
 31
0.0
  0
LINE
  5
1E6
330
1F
100
AcDbEntity
  8
0
  6
Continuous
 62
     7
370
    25
100
AcDbLine
 10
444.3122211926
 20
135.4558606125
 30
0.0
 11
444.3122211926
 21
132.1558606125
 31
0.0
  0
LINE
  5
1E7
330
1F
100
AcDbEntity
  8
0
  6
Continuous
 62
     7
370
    25
100
AcDbLine
 10
365.7122211926
 20
132.1558606125
 30
0.0
 11
444.3122211926
 21
132.1558606125
 31
0.0
  0
LINE
  5
1E8
330
1F
100
AcDbEntity
  8
0
  6
Continuous
 62
     7
370
    25
100
AcDbLine
 10
365.7122211926
 20
136.1591671493
 30
0.0
 11
365.7122211926
 21
132.1558606125
 31
0.0
  0
LINE
  5
1E9
330
1F
100
AcDbEntity
  8
0
  6
Continuous
 62
     7
370
    25
100
AcDbLine
 10
365.7122211926
 20
136.1591671493
 30
0.0
 11
362.2122211926
 21
136.3058606125
 31
0.0
  0
LINE
  5
1EA
330
1F
100
AcDbEntity
  8
0
  6
Continuous
 62
     7
370
    25
100
AcDbLine
 10
362.2122211926
 20
140.1558606125
 30
0.0
 11
440.8122211926
 21
140.1558606125
 31
0.0
  0
LINE
  5
1EB
330
1F
100
AcDbEntity
  8
0
  6
Continuous
 62
     7
370
    25
100
AcDbLine
 10
365.7122211926
 20
90.1558606125
 30
0.0
 11
365.7122211926
 21
86.1525540756
 31
0.0
  0
LINE
  5
1EC
330
1F
100
AcDbEntity
  8
0
  6
Continuous
 62
     7
370
    25
100
AcDbLine
 10
444.3122211926
 20
90.1558606125
 30
0.0
 11
365.7122211926
 21
90.1558606125
 31
0.0
  0
LINE
  5
1ED
330
1F
100
AcDbEntity
  8
0
  6
Continuous
 62
     7
370
    25
100
AcDbLine
 10
444.3122211926
 20
90.1558606125
 30
0.0
 11
444.3122211926
 21
86.8558606125
 31
0.0
  0
LINE
  5
1EE
330
1F
100
AcDbEntity
  8
0
  6
Continuous
 62
     7
370
    25
100
AcDbLine
 10
444.3122211926
 20
86.8558606125
 30
0.0
 11
440.8122211926
 21
86.6558606125
 31
0.0
  0
LINE
  5
1EF
330
1F
100
AcDbEntity
  8
0
  6
Continuous
 62
     7
370
    25
100
AcDbLine
 10
440.8122211926
 20
82.1558606125
 30
0.0
 11
440.8122211926
 21
86.6558606125
 31
0.0
  0
LINE
  5
1F0
330
1F
100
AcDbEntity
  8
0
  6
Continuous
 62
     7
370
    25
100
AcDbLine
 10
440.8122211926
 20
82.1558606125
 30
0.0
 11
362.2122211926
 21
82.1558606125
 31
0.0
  0
LINE
  5
1F1
330
1F
100
AcDbEntity
  8
0
  6
Continuous
 62
     7
370
    25
100
AcDbLine
 10
362.2122211926
 20
86.0058606125
 30
0.0
 11
362.2122211926
 21
82.1558606125
 31
0.0
  0
LINE
  5
1F2
330
1F
100
AcDbEntity
  8
0
  6
Continuous
 62
     7
370
    25
100
AcDbLine
 10
362.2122211926
 20
86.0058606125
 30
0.0
 11
365.7122211926
 21
86.1525540756
 31
0.0
  0
LINE
  5
1F3
330
1F
100
AcDbEntity
  8
0
  6
Continuous
 62
     7
370
    25
100
AcDbLine
 10
398.2122211926
 20
132.1558606125
 30
0.0
 11
398.2122211926
 21
90.1558606125
 31
0.0
  0
LINE
  5
1F4
330
1F
100
AcDbEntity
  8
0
  6
Continuous
 62
     7
370
    25
100
AcDbLine
 10
444.3122211926
 20
90.1558606125
 30
0.0
 11
444.3122211926
 21
132.1558606125
 31
0.0
  0
LINE
  5
1F5
330
1F
100
AcDbEntity
  8
0
  6
Continuous
 62
     7
370
    25
100
AcDbLine
 10
362.2122211926
 20
86.3558606125
 30
0.0
 11
362.2122211926
 21
86.0058606125
 31
0.0
  0
LINE
  5
1F6
330
1F
100
AcDbEntity
  8
0
  6
Continuous
 62
     7
370
    25
100
AcDbLine
 10
365.7122211926
 20
90.1558606125
 30
0.0
 11
364.7122211926
 21
90.1558606125
 31
0.0
  0
LINE
  5
1F7
330
1F
100
AcDbEntity
  8
0
  6
Continuous
 62
     7
370
    25
100
AcDbLine
 10
364.7122211926
 20
132.1558606125
 30
0.0
 11
365.7122211926
 21
132.1558606125
 31
0.0
  0
LINE
  5
1F8
330
1F
100
AcDbEntity
  8
0
  6
Continuous
 62
     7
370
    25
100
AcDbLine
 10
362.2122211926
 20
136.3058606125
 30
0.0
 11
362.2122211926
 21
135.9558606125
 31
0.0
  0
LINE
  5
1F9
330
1F
100
AcDbEntity
  8
0
  6
Continuous
 62
     7
370
    25
100
AcDbLine
 10
364.7122211926
 20
135.9558606125
 30
0.0
 11
361.2122211926
 21
135.9558606125
 31
0.0
  0
LINE
  5
1FA
330
1F
100
AcDbEntity
  8
0
  6
Continuous
 62
     7
370
    25
100
AcDbLine
 10
364.7122211926
 20
86.3558606125
 30
0.0
 11
364.7122211926
 21
135.9558606125
 31
0.0
  0
LINE
  5
1FB
330
1F
100
AcDbEntity
  8
0
  6
Continuous
 62
     7
370
    25
100
AcDbLine
 10
361.2122211926
 20
86.3558606125
 30
0.0
 11
364.7122211926
 21
86.3558606125
 31
0.0
  0
LINE
  5
1FC
330
1F
100
AcDbEntity
  8
0
  6
Continuous
 62
     7
370
    25
100
AcDbLine
 10
361.2122211926
 20
82.1558606125
 30
0.0
 11
361.2122211926
 21
86.3558606125
 31
0.0
  0
LINE
  5
1FD
330
1F
100
AcDbEntity
  8
0
  6
Continuous
 62
     7
370
    25
100
AcDbLine
 10
361.2122211926
 20
82.1558606125
 30
0.0
 11
356.7122211926
 21
82.1558606125
 31
0.0
  0
LINE
  5
1FE
330
1F
100
AcDbEntity
  8
0
  6
Continuous
 62
     7
370
    25
100
AcDbLine
 10
361.2122211926
 20
135.9558606125
 30
0.0
 11
361.2122211926
 21
140.1558606125
 31
0.0
  0
LINE
  5
1FF
330
1F
100
AcDbEntity
  8
0
  6
Continuous
 62
     7
370
    25
100
AcDbLine
 10
361.2122211926
 20
140.1558606125
 30
0.0
 11
356.7122211926
 21
140.1558606125
 31
0.0
  0
LINE
  5
200
330
1F
100
AcDbEntity
  8
0
  6
Continuous
 62
     7
370
    25
100
AcDbLine
 10
356.7122211926
 20
140.1558606125
 30
0.0
 11
356.7122211926
 21
82.1558606125
 31
0.0
  0
HATCH
  5
201
330
1F
100
AcDbEntity
  8
O-TEKST
  6
Continuous
370
    18
100
AcDbHatch
 10
0.0
 20
0.0
 30
0.0
210
0.0
220
0.0
230
1.0
  2
ANSI34
 70
     0
 71
     0
 91
        1
 92
        0
 93
        8
 72
     1
 10
361.2122211925957
 20
135.9558606124604
 11
361.2122211925957
 21
140.1558606124604
 72
     1
 10
361.2122211925957
 20
140.1558606124604
 11
356.7122211925957
 21
140.1558606124604
 72
     1
 10
356.7122211925957
 20
140.1558606124604
 11
356.7122211925957
 21
82.15586061246037
 72
     1
 10
356.7122211925957
 20
82.15586061246037
 11
361.2122211925957
 21
82.15586061246037
 72
     1
 10
361.2122211925957
 20
82.15586061246037
 11
361.2122211925957
 21
86.35586061246036
 72
     1
 10
361.2122211925957
 20
86.35586061246036
 11
364.7122211925957
 21
86.35586061246036
 72
     1
 10
364.7122211925957
 20
86.35586061246036
 11
364.7122211925957
 21
135.9558606124604
 72
     1
 10
364.7122211925957
 20
135.9558606124604
 11
361.2122211925957
 21
135.9558606124604
 97
        0
 75
     0
 76
     1
 52
0.0
 41
1.0
 77
     0
 78
     4
 53
45.0
 43
0.0
 44
0.0
 45
-13.47038418160373
 46
13.47038418160373
 79
     0
 53
45.0
 43
4.49013
 44
0.0
 45
-13.47038418160373
 46
13.47038418160373
 79
     0
 53
45.0
 43
8.98026
 44
0.0
 45
-13.47038418160373
 46
13.47038418160373
 79
     0
 53
45.0
 43
13.4704
 44
0.0
 45
-13.47038418160373
 46
13.47038418160373
 79
     0
 98
        1
 10
0.0
 20
0.0
  0
HATCH
  5
202
330
1F
100
AcDbEntity
  8
O-TEKST
  6
Continuous
370
    18
100
AcDbHatch
 10
0.0
 20
0.0
 30
0.0
210
0.0
220
0.0
230
1.0
  2
ANSI34
 70
     0
 71
     0
 91
        1
 92
        0
 93
        8
 72
     1
 10
362.2122211925957
 20
136.3058606124604
 11
365.7122211925957
 21
136.1591671493176
 72
     1
 10
365.7122211925957
 20
136.1591671493176
 11
365.7122211925957
 21
132.1558606124604
 72
     1
 10
365.7122211925957
 20
132.1558606124604
 11
444.3122211925957
 21
132.1558606124604
 72
     1
 10
444.3122211925957
 20
132.1558606124604
 11
444.3122211925958
 21
135.4558606124604
 72
     1
 10
444.3122211925958
 20
135.4558606124604
 11
440.8122211925958
 21
135.6558606124604
 72
     1
 10
440.8122211925958
 20
135.6558606124604
 11
440.8122211925957
 21
140.1558606124603
 72
     1
 10
440.8122211925957
 20
140.1558606124603
 11
362.2122211925957
 21
140.1558606124603
 72
     1
 10
362.2122211925957
 20
140.1558606124603
 11
362.2122211925957
 21
136.3058606124604
 97
        0
 75
     0
 76
     1
 52
0.0
 41
1.0
 77
     0
 78
     4
 53
45.0
 43
0.0
 44
0.0
 45
-13.47038418160373
 46
13.47038418160373
 79
     0
 53
45.0
 43
4.49013
 44
0.0
 45
-13.47038418160373
 46
13.47038418160373
 79
     0
 53
45.0
 43
8.98026
 44
0.0
 45
-13.47038418160373
 46
13.47038418160373
 79
     0
 53
45.0
 43
13.4704
 44
0.0
 45
-13.47038418160373
 46
13.47038418160373
 79
     0
 98
        1
 10
0.0
 20
0.0
  0
HATCH
  5
203
330
1F
100
AcDbEntity
  8
O-TEKST
  6
Continuous
370
    18
100
AcDbHatch
 10
0.0
 20
0.0
 30
0.0
210
0.0
220
0.0
230
1.0
  2
ANSI34
 70
     0
 71
     0
 91
        1
 92
        0
 93
        8
 72
     1
 10
365.7122211925957
 20
86.15255407560312
 11
362.2122211925957
 21
86.00586061246037
 72
     1
 10
362.2122211925957
 20
86.00586061246037
 11
362.2122211925957
 21
82.15586061246036
 72
     1
 10
362.2122211925957
 20
82.15586061246036
 11
440.8122211925957
 21
82.15586061246036
 72
     1
 10
440.8122211925957
 20
82.15586061246036
 11
440.8122211925957
 21
86.65586061246036
 72
     1
 10
440.8122211925957
 20
86.65586061246036
 11
444.3122211925958
 21
86.85586061246036
 72
     1
 10
444.3122211925958
 20
86.85586061246036
 11
444.3122211925957
 21
90.15586061246036
 72
     1
 10
444.3122211925957
 20
90.15586061246036
 11
365.7122211925957
 21
90.15586061246036
 72
     1
 10
365.7122211925957
 20
90.15586061246036
 11
365.7122211925957
 21
86.15255407560312
 97
        0
 75
     0
 76
     1
 52
0.0
 41
1.0
 77
     0
 78
     4
 53
45.0
 43
0.0
 44
0.0
 45
-13.47038418160373
 46
13.47038418160373
 79
     0
 53
45.0
 43
4.49013
 44
0.0
 45
-13.47038418160373
 46
13.47038418160373
 79
     0
 53
45.0
 43
8.98026
 44
0.0
 45
-13.47038418160373
 46
13.47038418160373
 79
     0
 53
45.0
 43
13.4704
 44
0.0
 45
-13.47038418160373
 46
13.47038418160373
 79
     0
 98
        1
 10
0.0
 20
0.0
  0
HATCH
  5
204
330
1F
100
AcDbEntity
  8
O-TEKST
  6
Continuous
370
    18
100
AcDbHatch
 10
0.0
 20
0.0
 30
0.0
210
0.0
220
0.0
230
1.0
  2
ANSI34
 70
     0
 71
     0
 91
        1
 92
        0
 93
        6
 72
     1
 10
459.8122211925957
 20
82.15586061246037
 11
459.8122211925957
 21
90.15586061246037
 72
     1
 10
459.8122211925957
 20
90.15586061246037
 11
445.3122211925957
 21
90.15586061246037
 72
     1
 10
445.3122211925957
 20
90.15586061246037
 11
445.3122211925957
 21
86.15586061246037
 72
     1
 10
445.3122211925957
 20
86.15586061246037
 11
441.8122211925957
 21
86.15586061246037
 72
     1
 10
441.8122211925957
 20
86.15586061246037
 11
441.8122211925957
 21
82.15586061246037
 72
     1
 10
441.8122211925957
 20
82.15586061246037
 11
459.8122211925957
 21
82.15586061246037
 97
        0
 75
     0
 76
     1
 52
0.0
 41
1.0
 77
     0
 78
     4
 53
45.0
 43
0.0
 44
0.0
 45
-13.47038418160373
 46
13.47038418160373
 79
     0
 53
45.0
 43
4.49013
 44
0.0
 45
-13.47038418160373
 46
13.47038418160373
 79
     0
 53
45.0
 43
8.98026
 44
0.0
 45
-13.47038418160373
 46
13.47038418160373
 79
     0
 53
45.0
 43
13.4704
 44
0.0
 45
-13.47038418160373
 46
13.47038418160373
 79
     0
 98
        1
 10
0.0
 20
0.0
  0
HATCH
  5
205
330
1F
100
AcDbEntity
  8
O-TEKST
  6
Continuous
370
    18
100
AcDbHatch
 10
0.0
 20
0.0
 30
0.0
210
0.0
220
0.0
230
1.0
  2
ANSI34
 70
     0
 71
     0
 91
        1
 92
        0
 93
        6
 72
     1
 10
459.8122211925957
 20
132.1558606124604
 11
459.8122211925957
 21
140.1558606124604
 72
     1
 10
459.8122211925957
 20
140.1558606124604
 11
441.8122211925957
 21
140.1558606124604
 72
     1
 10
441.8122211925957
 20
140.1558606124604
 11
441.8122211925957
 21
136.1558606124604
 72
     1
 10
441.8122211925957
 20
136.1558606124604
 11
445.3122211925957
 21
136.1558606124604
 72
     1
 10
445.3122211925957
 20
136.1558606124604
 11
445.3122211925957
 21
132.1558606124604
 72
     1
 10
445.3122211925957
 20
132.1558606124604
 11
459.8122211925957
 21
132.1558606124604
 97
        0
 75
     0
 76
     1
 52
0.0
 41
1.0
 77
     0
 78
     4
 53
45.0
 43
0.0
 44
0.0
 45
-13.47038418160373
 46
13.47038418160373
 79
     0
 53
45.0
 43
4.49013
 44
0.0
 45
-13.47038418160373
 46
13.47038418160373
 79
     0
 53
45.0
 43
8.98026
 44
0.0
 45
-13.47038418160373
 46
13.47038418160373
 79
     0
 53
45.0
 43
13.4704
 44
0.0
 45
-13.47038418160373
 46
13.47038418160373
 79
     0
 98
        1
 10
0.0
 20
0.0
  0
INSERT
  5
20B
330
1F
100
AcDbEntity
  8
O-TEKST
100
AcDbBlockReference
  2
SW_NOTE_1
 10
387.5002433114
 20
64.1088642066
 30
0.0
  0
LINE
  5
20C
330
1F
100
AcDbEntity
  8
0
  6
Continuous
 62
     7
370
    25
100
AcDbLine
 10
657.9607425817
 20
140.1558606125
 30
0.0
 11
657.9607425817
 21
82.1558606125
 31
0.0
  0
LINE
  5
20D
330
1F
100
AcDbEntity
  8
0
  6
Continuous
 62
     7
370
    25
100
AcDbLine
 10
657.9607425817
 20
140.1558606125
 30
0.0
 11
675.9607425817
 21
140.1558606125
 31
0.0
  0
LINE
  5
20E
330
1F
100
AcDbEntity
  8
0
  6
Continuous
 62
     7
370
    25
100
AcDbLine
 10
675.9607425817
 20
140.1558606125
 30
0.0
 11
675.9607425817
 21
82.1558606125
 31
0.0
  0
LINE
  5
20F
330
1F
100
AcDbEntity
  8
0
  6
Continuous
 62
     7
370
    25
100
AcDbLine
 10
657.9607425817
 20
82.1558606125
 30
0.0
 11
675.9607425817
 21
82.1558606125
 31
0.0
  0
LINE
  5
210
330
1F
100
AcDbEntity
  8
0
  6
Continuous
 62
     7
370
    25
100
AcDbLine
 10
615.3607425817
 20
133.1558606125
 30
0.0
 11
615.3607425817
 21
89.1558606125
 31
0.0
  0
LINE
  5
211
330
1F
100
AcDbEntity
  8
0
  6
Continuous
 62
     7
370
    25
100
AcDbLine
 10
578.3607425817
 20
133.1558606125
 30
0.0
 11
615.3607425817
 21
133.1558606125
 31
0.0
  0
LINE
  5
212
330
1F
100
AcDbEntity
  8
0
  6
Continuous
 62
     7
370
    25
100
AcDbLine
 10
578.3607425817
 20
140.1558606125
 30
0.0
 11
578.3607425817
 21
133.1558606125
 31
0.0
  0
LINE
  5
213
330
1F
100
AcDbEntity
  8
0
  6
Continuous
 62
     7
370
    25
100
AcDbLine
 10
656.9607425817
 20
140.1558606125
 30
0.0
 11
578.3607425817
 21
140.1558606125
 31
0.0
  0
LINE
  5
214
330
1F
100
AcDbEntity
  8
0
  6
Continuous
 62
     7
370
    25
100
AcDbLine
 10
656.9607425817
 20
140.1558606125
 30
0.0
 11
656.9607425817
 21
82.1558606125
 31
0.0
  0
LINE
  5
215
330
1F
100
AcDbEntity
  8
0
  6
Continuous
 62
     7
370
    25
100
AcDbLine
 10
656.9607425817
 20
82.1558606125
 30
0.0
 11
578.3607425817
 21
82.1558606125
 31
0.0
  0
LINE
  5
216
330
1F
100
AcDbEntity
  8
0
  6
Continuous
 62
     7
370
    25
100
AcDbLine
 10
578.3607425817
 20
89.1558606125
 30
0.0
 11
578.3607425817
 21
82.1558606125
 31
0.0
  0
LINE
  5
217
330
1F
100
AcDbEntity
  8
0
  6
Continuous
 62
     7
370
    25
100
AcDbLine
 10
615.3607425817
 20
89.1558606125
 30
0.0
 11
578.3607425817
 21
89.1558606125
 31
0.0
  0
LINE
  5
218
330
1F
100
AcDbEntity
  8
0
  6
Continuous
 62
     7
370
    25
100
AcDbLine
 10
614.3607425817
 20
132.1558606125
 30
0.0
 11
614.3607425817
 21
90.1558606125
 31
0.0
  0
LINE
  5
219
330
1F
100
AcDbEntity
  8
0
  6
Continuous
 62
     7
370
    25
100
AcDbLine
 10
578.3607425817
 20
132.1558606125
 30
0.0
 11
614.3607425817
 21
132.1558606125
 31
0.0
  0
LINE
  5
21A
330
1F
100
AcDbEntity
  8
0
  6
Continuous
 62
     7
370
    25
100
AcDbLine
 10
614.3607425817
 20
90.1558606125
 30
0.0
 11
578.3607425817
 21
90.1558606125
 31
0.0
  0
LINE
  5
21B
330
1F
100
AcDbEntity
  8
0
  6
Continuous
 62
     7
370
    25
100
AcDbLine
 10
578.3607425817
 20
89.1558606125
 30
0.0
 11
578.3607425817
 21
90.1558606125
 31
0.0
  0
LINE
  5
21C
330
1F
100
AcDbEntity
  8
0
  6
Continuous
 62
     7
370
    25
100
AcDbLine
 10
578.3607425817
 20
132.1558606125
 30
0.0
 11
578.3607425817
 21
133.1558606125
 31
0.0
  0
LINE
  5
21D
330
1F
100
AcDbEntity
  8
0
  6
Continuous
 62
     7
370
    25
100
AcDbLine
 10
656.9607425817
 20
135.6558606125
 30
0.0
 11
657.9607425817
 21
135.5987177553
 31
0.0
  0
LINE
  5
21E
330
1F
100
AcDbEntity
  8
0
  6
Continuous
 62
     7
370
    25
100
AcDbLine
 10
657.9607425817
 20
86.7130034696
 30
0.0
 11
656.9607425817
 21
86.6558606125
 31
0.0
  0
LINE
  5
21F
330
1F
100
AcDbEntity
  8
0
  6
Continuous
 62
     7
370
    25
100
AcDbLine
 10
577.3607425817
 20
140.1558606125
 30
0.0
 11
572.8607425817
 21
140.1558606125
 31
0.0
  0
LINE
  5
220
330
1F
100
AcDbEntity
  8
0
  6
Continuous
 62
     7
370
    25
100
AcDbLine
 10
577.3607425817
 20
82.1558606125
 30
0.0
 11
577.3607425817
 21
140.1558606125
 31
0.0
  0
LINE
  5
221
330
1F
100
AcDbEntity
  8
0
  6
Continuous
 62
     7
370
    25
100
AcDbLine
 10
577.3607425817
 20
82.1558606125
 30
0.0
 11
572.8607425817
 21
82.1558606125
 31
0.0
  0
LINE
  5
222
330
1F
100
AcDbEntity
  8
0
  6
Continuous
 62
     7
370
    25
100
AcDbLine
 10
572.8607425817
 20
140.1558606125
 30
0.0
 11
572.8607425817
 21
82.1558606125
 31
0.0
  0
LINE
  5
223
330
1F
100
AcDbEntity
  8
0
  6
Continuous
 62
     7
370
    25
100
AcDbLine
 10
577.3607425817
 20
86.3558606125
 30
0.0
 11
578.3607425817
 21
86.3558606125
 31
0.0
  0
LINE
  5
224
330
1F
100
AcDbEntity
  8
0
  6
Continuous
 62
     7
370
    25
100
AcDbLine
 10
580.8607425817
 20
132.1558606125
 30
0.0
 11
580.8607425817
 21
90.1558606125
 31
0.0
  0
LINE
  5
225
330
1F
100
AcDbEntity
  8
0
  6
Continuous
 62
     7
370
    25
100
AcDbLine
 10
577.3607425817
 20
135.9558606125
 30
0.0
 11
578.3607425817
 21
135.9558606125
 31
0.0
  0
LINE
  5
226
330
1F
100
AcDbEntity
  8
0
  6
Continuous
 62
     7
370
    25
100
AcDbLine
 10
79.7514255544
 20
484.8642109213
 30
0.0
 11
79.7514255544
 21
502.8642109213
 31
0.0
  0
LINE
  5
227
330
1F
100
AcDbEntity
  8
0
  6
Continuous
 62
     7
370
    25
100
AcDbLine
 10
79.7514255544
 20
502.8642109213
 30
0.0
 11
257.7514255544
 21
502.8642109213
 31
0.0
  0
LINE
  5
228
330
1F
100
AcDbEntity
  8
0
  6
Continuous
 62
     7
370
    25
100
AcDbLine
 10
79.7514255544
 20
484.8642109213
 30
0.0
 11
257.7514255544
 21
484.8642109213
 31
0.0
  0
LINE
  5
229
330
1F
100
AcDbEntity
  8
0
  6
Continuous
 62
     7
370
    25
100
AcDbLine
 10
257.7514255544
 20
484.8642109213
 30
0.0
 11
257.7514255544
 21
502.8642109213
 31
0.0
  0
LINE
  5
22A
330
1F
100
AcDbEntity
  8
0
  6
Continuous
 62
     7
370
    25
100
AcDbLine
 10
257.7514255544
 20
483.8642109213
 30
0.0
 11
257.7514255544
 21
405.2642109213
 31
0.0
  0
LINE
  5
22B
330
1F
100
AcDbEntity
  8
0
  6
Continuous
 62
     7
370
    25
100
AcDbLine
 10
79.7514255544
 20
405.2642109213
 30
0.0
 11
257.7514255544
 21
405.2642109213
 31
0.0
  0
LINE
  5
22C
330
1F
100
AcDbEntity
  8
0
  6
Continuous
 62
     7
370
    25
100
AcDbLine
 10
79.7514255544
 20
483.8642109213
 30
0.0
 11
79.7514255544
 21
405.2642109213
 31
0.0
  0
LINE
  5
22D
330
1F
100
AcDbEntity
  8
0
  6
Continuous
 62
     7
370
    25
100
AcDbLine
 10
79.7514255544
 20
483.8642109213
 30
0.0
 11
257.7514255544
 21
483.8642109213
 31
0.0
  0
LINE
  5
22E
330
1F
100
AcDbEntity
  8
0
  6
Continuous
 62
     7
370
    25
100
AcDbLine
 10
120.7514255544
 20
407.2642109213
 30
0.0
 11
120.7514255544
 21
423.2642109213
 31
0.0
  0
LINE
  5
22F
330
1F
100
AcDbEntity
  8
0
  6
Continuous
 62
     7
370
    25
100
AcDbLine
 10
120.7514255544
 20
423.2642109213
 30
0.0
 11
90.7514255544
 21
423.2642109213
 31
0.0
  0
LINE
  5
230
330
1F
100
AcDbEntity
  8
0
  6
Continuous
 62
     7
370
    25
100
AcDbLine
 10
90.7514255544
 20
423.2642109213
 30
0.0
 11
90.7514255544
 21
407.2642109213
 31
0.0
  0
LINE
  5
231
330
1F
100
AcDbEntity
  8
0
  6
Continuous
 62
     7
370
    25
100
AcDbLine
 10
216.7514255544
 20
407.2642109213
 30
0.0
 11
246.7514255544
 21
407.2642109213
 31
0.0
  0
LINE
  5
232
330
1F
100
AcDbEntity
  8
0
  6
Continuous
 62
     7
370
    25
100
AcDbLine
 10
246.7514255544
 20
407.2642109213
 30
0.0
 11
246.7514255544
 21
423.2642109213
 31
0.0
  0
LINE
  5
233
330
1F
100
AcDbEntity
  8
0
  6
Continuous
 62
     7
370
    25
100
AcDbLine
 10
246.7514255544
 20
423.2642109213
 30
0.0
 11
216.7514255544
 21
423.2642109213
 31
0.0
  0
LINE
  5
234
330
1F
100
AcDbEntity
  8
0
  6
Continuous
 62
     7
370
    25
100
AcDbLine
 10
216.7514255544
 20
423.2642109213
 30
0.0
 11
216.7514255544
 21
407.2642109213
 31
0.0
  0
LINE
  5
235
330
1F
100
AcDbEntity
  8
0
  6
Continuous
 62
     7
370
    25
100
AcDbLine
 10
90.7514255544
 20
407.2642109213
 30
0.0
 11
120.7514255544
 21
407.2642109213
 31
0.0
  0
CIRCLE
  5
236
330
1F
100
AcDbEntity
  8
0
  6
Continuous
 62
     7
370
    25
100
AcDbCircle
 10
124.2514255544
 20
473.8642109213
 30
0.0
 40
2.000000000000014
  0
CIRCLE
  5
237
330
1F
100
AcDbEntity
  8
0
  6
Continuous
 62
     7
370
    25
100
AcDbCircle
 10
213.2514255544
 20
473.8642109213
 30
0.0
 40
2.0
  0
LINE
  5
238
330
1F
100
AcDbEntity
  8
0
  6
Continuous
 62
     7
370
    25
100
AcDbLine
 10
91.7514255544
 20
408.2642109213
 30
0.0
 11
119.7514255544
 21
408.2642109213
 31
0.0
  0
LINE
  5
239
330
1F
100
AcDbEntity
  8
0
  6
Continuous
 62
     7
370
    25
100
AcDbLine
 10
119.7514255544
 20
422.2642109213
 30
0.0
 11
119.7514255544
 21
408.2642109213
 31
0.0
  0
LINE
  5
23A
330
1F
100
AcDbEntity
  8
0
  6
Continuous
 62
     7
370
    25
100
AcDbLine
 10
91.7514255544
 20
422.2642109213
 30
0.0
 11
119.7514255544
 21
422.2642109213
 31
0.0
  0
LINE
  5
23B
330
1F
100
AcDbEntity
  8
0
  6
Continuous
 62
     7
370
    25
100
AcDbLine
 10
91.7514255544
 20
422.2642109213
 30
0.0
 11
91.7514255544
 21
408.2642109213
 31
0.0
  0
LINE
  5
23C
330
1F
100
AcDbEntity
  8
0
  6
Continuous
 62
     7
370
    25
100
AcDbLine
 10
217.7514255544
 20
422.2642109213
 30
0.0
 11
245.7514255544
 21
422.2642109213
 31
0.0
  0
LINE
  5
23D
330
1F
100
AcDbEntity
  8
0
  6
Continuous
 62
     7
370
    25
100
AcDbLine
 10
217.7514255544
 20
422.2642109213
 30
0.0
 11
217.7514255544
 21
408.2642109213
 31
0.0
  0
LINE
  5
23E
330
1F
100
AcDbEntity
  8
0
  6
Continuous
 62
     7
370
    25
100
AcDbLine
 10
245.7514255544
 20
422.2642109213
 30
0.0
 11
245.7514255544
 21
408.2642109213
 31
0.0
  0
LINE
  5
23F
330
1F
100
AcDbEntity
  8
0
  6
Continuous
 62
     7
370
    25
100
AcDbLine
 10
217.7514255544
 20
408.2642109213
 30
0.0
 11
245.7514255544
 21
408.2642109213
 31
0.0
  0
LINE
  5
240
330
1F
100
AcDbEntity
  8
0
  6
Continuous
 62
     7
370
    25
100
AcDbLine
 10
84.3085684115
 20
484.8642109213
 30
0.0
 11
84.2514255544
 21
483.8642109213
 31
0.0
  0
LINE
  5
241
330
1F
100
AcDbEntity
  8
0
  6
Continuous
 62
     7
370
    25
100
AcDbLine
 10
253.1942826972
 20
484.8642109213
 30
0.0
 11
253.2514255544
 21
483.8642109213
 31
0.0
  0
CIRCLE
  5
242
330
1F
100
AcDbEntity
  8
0
  6
Continuous
 62
     7
370
    25
100
AcDbCircle
 10
124.2514255544
 20
473.8642109213
 30
0.0
 40
0.4999999999999858
  0
CIRCLE
  5
243
330
1F
100
AcDbEntity
  8
0
  6
Continuous
 62
     7
370
    25
100
AcDbCircle
 10
213.2514255544
 20
473.8642109213
 30
0.0
 40
0.5
  0
LINE
  5
244
330
1F
100
AcDbEntity
  8
0
  6
Continuous
 62
     7
370
    25
100
AcDbLine
 10
257.7514255544
 20
399.7642109213
 30
0.0
 11
257.7514255544
 21
404.2642109213
 31
0.0
  0
LINE
  5
245
330
1F
100
AcDbEntity
  8
0
  6
Continuous
 62
     7
370
    25
100
AcDbLine
 10
79.7514255544
 20
404.2642109213
 30
0.0
 11
79.7514255544
 21
399.7642109213
 31
0.0
  0
LINE
  5
246
330
1F
100
AcDbEntity
  8
0
  6
Continuous
 62
     7
370
    25
100
AcDbLine
 10
79.7514255544
 20
404.2642109213
 30
0.0
 11
257.7514255544
 21
404.2642109213
 31
0.0
  0
LINE
  5
247
330
1F
100
AcDbEntity
  8
0
  6
Continuous
 62
     7
370
    25
100
AcDbLine
 10
79.7514255544
 20
399.7642109213
 30
0.0
 11
257.7514255544
 21
399.7642109213
 31
0.0
  0
LINE
  5
248
330
1F
100
AcDbEntity
  8
0
  6
Continuous
 62
     7
370
    25
100
AcDbLine
 10
83.9514255544
 20
404.2642109213
 30
0.0
 11
83.9514255544
 21
405.2642109213
 31
0.0
  0
LINE
  5
249
330
1F
100
AcDbEntity
  8
0
  6
Continuous
 62
     7
370
    25
100
AcDbLine
 10
253.5514255544
 20
404.2642109213
 30
0.0
 11
253.5514255544
 21
405.2642109213
 31
0.0
  0
LINE
  5
24A
330
1F
100
AcDbEntity
  8
0
  6
Continuous
 62
     7
370
    25
100
AcDbLine
 10
506.6880439562
 20
239.0066435197
 30
0.0
 11
497.0256976707
 21
244.5845973002
 31
0.0
  0
LINE
  5
24B
330
1F
100
AcDbEntity
  8
0
  6
Continuous
 62
     7
370
    25
100
AcDbLine
 10
496.4592922047
 20
244.5845973002
 30
0.0
 11
495.1847106402
 21
243.848797025
 31
0.0
  0
LINE
  5
24C
330
1F
100
AcDbEntity
  8
0
  6
Continuous
 62
     7
370
    25
100
AcDbLine
 10
396.0861875666
 20
327.061849589
 30
0.0
 11
396.1568982447
 21
327.1026699946
 31
0.0
  0
LINE
  5
24D
330
1F
100
AcDbEntity
  8
0
  6
Continuous
 62
     7
370
    25
100
AcDbLine
 10
395.6569388784
 20
327.968718857
 30
0.0
 11
395.5862282003
 21
327.9278984514
 31
0.0
  0
LINE
  5
24E
330
1F
100
AcDbEntity
  8
0
  6
Continuous
 62
     7
370
    25
100
AcDbLine
 10
396.2600117242
 20
327.3526828668
 30
0.0
 11
396.2923557485
 21
327.4223520292
 31
0.0
  0
LINE
  5
24F
330
1F
100
AcDbEntity
  8
0
  6
Continuous
 62
     7
370
    25
100
AcDbLine
 10
396.0015164008
 20
327.9261551444
 30
0.0
 11
395.9250097648
 21
327.9329861581
 31
0.0
  0
LINE
  5
250
330
1F
100
AcDbEntity
  8
0
  6
Continuous
 62
     7
370
    25
100
AcDbLine
 10
396.0092008545
 20
327.9302352119
 30
0.0
 11
396.0005669174
 21
327.9268412314
 31
0.0
  0
SPLINE
  5
251
330
1F
100
AcDbEntity
  8
0
  6
Continuous
 62
     7
370
    25
100
AcDbSpline
210
0.0
220
0.0
230
1.0
 70
     8
 71
     3
 72
     9
 73
     5
 74
     0
 42
0.000000001
 43
0.00000001
 40
0.0
 40
0.0
 40
0.0
 40
0.0
 40
0.4007275832063
 40
1.0
 40
1.0
 40
1.0
 40
1.0
 10
396.2926816175051
 20
327.4224248090635
 30
0.0
 10
396.2922958828875
 20
327.4218919503481
 30
0.0
 10
396.2913332972463
 20
327.4205622222789
 30
0.0
 10
396.2968786605393
 20
327.4242212099965
 30
0.0
 10
396.3002018438018
 20
327.426413940409
 30
0.0
  0
LINE
  5
252
330
1F
100
AcDbEntity
  8
0
  6
Continuous
 62
     7
370
    25
100
AcDbLine
 10
396.2995426819
 20
327.4269348994
 30
0.0
 11
396.7052216484
 21
327.6611283818
 31
0.0
  0
LINE
  5
253
330
1F
100
AcDbEntity
  8
0
  6
Continuous
 62
     7
370
    25
100
AcDbLine
 10
396.4170522187
 20
328.1656049241
 30
0.0
 11
396.0090791186
 21
327.9300870665
 31
0.0
  0
LINE
  5
254
330
1F
100
AcDbEntity
  8
0
  6
Continuous
 62
     7
370
    25
100
AcDbLine
 10
459.0186910922
 20
290.7316886129
 30
0.0
 11
459.0894017703
 21
290.7725090185
 31
0.0
  0
LINE
  5
255
330
1F
100
AcDbEntity
  8
0
  6
Continuous
 62
     7
370
    25
100
AcDbLine
 10
458.589442404
 20
291.6385578808
 30
0.0
 11
458.5187317259
 21
291.5977374753
 31
0.0
  0
LINE
  5
256
330
1F
100
AcDbEntity
  8
0
  6
Continuous
 62
     7
370
    25
100
AcDbLine
 10
459.1925152498
 20
291.0225218907
 30
0.0
 11
459.2248592741
 21
291.0921910531
 31
0.0
  0
LINE
  5
257
330
1F
100
AcDbEntity
  8
0
  6
Continuous
 62
     7
370
    25
100
AcDbLine
 10
458.9340199264
 20
291.5959941682
 30
0.0
 11
458.8575132904
 21
291.602825182
 31
0.0
  0
LINE
  5
258
330
1F
100
AcDbEntity
  8
0
  6
Continuous
 62
     7
370
    25
100
AcDbLine
 10
458.9417043801
 20
291.6000742358
 30
0.0
 11
458.933070443
 21
291.5966802552
 31
0.0
  0
SPLINE
  5
259
330
1F
100
AcDbEntity
  8
0
  6
Continuous
 62
     7
370
    25
100
AcDbSpline
210
0.0
220
0.0
230
1.0
 70
     8
 71
     3
 72
     9
 73
     5
 74
     0
 42
0.000000001
 43
0.00000001
 40
0.0
 40
0.0
 40
0.0
 40
0.0
 40
0.2103026528078331
 40
1.0
 40
1.0
 40
1.0
 40
1.0
 10
459.2251176628939
 20
291.0917839546839
 30
0.0
 10
459.2250299686467
 20
291.0916222779306
 30
0.0
 10
459.2246129779617
 20
291.0908534965994
 30
0.0
 10
459.2291346315561
 20
291.0938704691101
 30
0.0
 10
459.2327053694045
 20
291.0962529642983
 30
0.0
  0
LINE
  5
25A
330
1F
100
AcDbEntity
  8
0
  6
Continuous
 62
     7
370
    25
100
AcDbLine
 10
459.2320462075
 20
291.0967739233
 30
0.0
 11
459.637725174
 21
291.3309674057
 31
0.0
  0
LINE
  5
25B
330
1F
100
AcDbEntity
  8
0
  6
Continuous
 62
     7
370
    25
100
AcDbLine
 10
459.3495557443
 20
291.8354439479
 30
0.0
 11
458.9415826442
 21
291.5999260904
 31
0.0
  0
LINE
  5
25C
330
1F
100
AcDbEntity
  8
0
  6
Continuous
 62
     7
370
    25
100
AcDbLine
 10
513.069486951
 20
242.7021201332
 30
0.0
 11
513.069486951
 21
242.620466052
 31
0.0
  0
LINE
  5
25D
330
1F
100
AcDbEntity
  8
0
  6
Continuous
 62
     7
370
    25
100
AcDbLine
 10
514.069486951
 20
242.620466052
 30
0.0
 11
514.069486951
 21
242.7021201332
 31
0.0
  0
LINE
  5
25E
330
1F
100
AcDbEntity
  8
0
  6
Continuous
 62
     7
370
    25
100
AcDbLine
 10
513.2344210554
 20
242.4062224209
 30
0.0
 11
513.278612293
 21
242.3433359079
 31
0.0
  0
LINE
  5
25F
330
1F
100
AcDbEntity
  8
0
  6
Continuous
 62
     7
370
    25
100
AcDbLine
 10
513.8603616091
 20
242.3433359079
 30
0.0
 11
513.9045528466
 21
242.4062224209
 31
0.0
  0
SPLINE
  5
260
330
1F
100
AcDbEntity
  8
0
  6
Continuous
 62
     7
370
    25
100
AcDbSpline
210
0.0
220
0.0
230
1.0
 70
     8
 71
     3
 72
     9
 73
     5
 74
     0
 42
0.000000001
 43
0.00000001
 40
0.0
 40
0.0
 40
0.0
 40
0.0
 40
0.6241669163619433
 40
1.0
 40
1.0
 40
1.0
 40
1.0
 10
513.2779611552868
 20
242.3434736923287
 30
0.0
 10
513.2782467246079
 20
242.3432383948493
 30
0.0
 10
513.2787042453666
 20
242.342861416395
 30
0.0
 10
513.2783360567819
 20
242.3373452851762
 30
0.0
 10
513.2781976793307
 20
242.3352721405705
 30
0.0
  0
SPLINE
  5
261
330
1F
100
AcDbEntity
  8
0
  6
Continuous
 62
     7
370
    25
100
AcDbSpline
210
0.0
220
0.0
230
1.0
 70
     8
 71
     3
 72
     9
 73
     5
 74
     0
 42
0.000000001
 43
0.00000001
 40
0.0
 40
0.0
 40
0.0
 40
0.0
 40
0.9519167765459475
 40
1.0
 40
1.0
 40
1.0
 40
1.0
 10
513.8606336534442
 20
242.333854051974
 30
0.0
 10
513.8624630755177
 20
242.3412701835956
 30
0.0
 10
513.8643849053649
 20
242.3490609188829
 30
0.0
 10
513.8615838359844
 20
242.3453569940123
 30
0.0
 10
513.8614491515395
 20
242.3451788973651
 30
0.0
  0
LINE
  5
262
330
1F
100
AcDbEntity
  8
0
  6
Continuous
 62
     7
370
    25
100
AcDbLine
 10
513.2789997805
 20
242.3347865105
 30
0.0
 11
513.2789997805
 21
241.8908196708
 31
0.0
  0
LINE
  5
263
330
1F
100
AcDbEntity
  8
0
  6
Continuous
 62
     7
370
    25
100
AcDbLine
 10
513.8599741215
 20
241.8881704271
 30
0.0
 11
513.8599741215
 21
242.3347865105
 31
0.0
  0
LINE
  5
264
330
1F
100
AcDbEntity
  8
0
  6
Continuous
 62
     7
370
    25
100
AcDbLine
 10
490.2349631719
 20
281.9815814868
 30
0.0
 11
490.2349631719
 21
296.6793161007
 31
0.0
  0
LINE
  5
265
330
1F
100
AcDbEntity
  8
0
  6
Continuous
 62
     7
370
    25
100
AcDbLine
 10
364.3699561207
 20
354.641903439
 30
0.0
 11
490.2349631719
 21
281.9815814868
 31
0.0
  0
LINE
  5
266
330
1F
100
AcDbEntity
  8
0
  6
Continuous
 62
     7
370
    25
100
AcDbLine
 10
364.3699561207
 20
354.641903439
 30
0.0
 11
364.3699561207
 21
369.3396380529
 31
0.0
  0
LINE
  5
267
330
1F
100
AcDbEntity
  8
0
  6
Continuous
 62
     7
370
    25
100
AcDbLine
 10
364.3699561207
 20
369.3396380529
 30
0.0
 11
490.2349631719
 21
296.6793161007
 31
0.0
  0
LINE
  5
268
330
1F
100
AcDbEntity
  8
0
  6
Continuous
 62
     7
370
    25
100
AcDbLine
 10
531.2471564807
 20
305.6574167296
 30
0.0
 11
531.2471564807
 21
320.3551513436
 31
0.0
  0
LINE
  5
269
330
1F
100
AcDbEntity
  8
0
  6
Continuous
 62
     7
370
    25
100
AcDbLine
 10
490.2349631719
 20
281.9815814868
 30
0.0
 11
531.2471564807
 21
305.6574167296
 31
0.0
  0
LINE
  5
26A
330
1F
100
AcDbEntity
  8
0
  6
Continuous
 62
     7
370
    25
100
AcDbLine
 10
490.2349631719
 20
296.6793161007
 30
0.0
 11
531.2471564807
 21
320.3551513436
 31
0.0
  0
LINE
  5
26B
330
1F
100
AcDbEntity
  8
0
  6
Continuous
 62
     7
370
    25
100
AcDbLine
 10
531.2471564807
 20
320.3551513436
 30
0.0
 11
405.3821494295
 21
393.0154732958
 31
0.0
  0
LINE
  5
26C
330
1F
100
AcDbEntity
  8
0
  6
Continuous
 62
     7
370
    25
100
AcDbLine
 10
405.3821494295
 20
393.0154732958
 30
0.0
 11
364.3699561207
 21
369.3396380529
 31
0.0
  0
LINE
  5
26D
330
1F
100
AcDbEntity
  8
0
  6
Continuous
 62
     7
370
    25
100
AcDbLine
 10
508.6197394827
 20
326.8864162381
 30
0.0
 11
416.6958579285
 21
379.9529435066
 31
0.0
  0
LINE
  5
26E
330
1F
100
AcDbEntity
  8
0
  6
Continuous
 62
     7
370
    25
100
AcDbLine
 10
416.6958579285
 20
379.9529435066
 30
0.0
 11
386.9973731186
 21
362.8083731583
 31
0.0
  0
LINE
  5
26F
330
1F
100
AcDbEntity
  8
0
  6
Continuous
 62
     7
370
    25
100
AcDbLine
 10
386.9973731186
 20
362.8083731583
 30
0.0
 11
478.9212546729
 21
309.7418458899
 31
0.0
  0
LINE
  5
270
330
1F
100
AcDbEntity
  8
0
  6
Continuous
 62
     7
370
    25
100
AcDbLine
 10
478.9212546729
 20
309.7418458899
 30
0.0
 11
508.6197394827
 21
326.8864162381
 31
0.0
  0
LINE
  5
271
330
1F
100
AcDbEntity
  8
0
  6
Continuous
 62
     7
370
    25
100
AcDbLine
 10
416.6958579285
 20
368.1131017343
 30
0.0
 11
416.6958579285
 21
379.9529435066
 31
0.0
  0
LINE
  5
272
330
1F
100
AcDbEntity
  8
0
  6
Continuous
 62
     7
370
    25
100
AcDbLine
 10
498.3650246114
 20
320.966495352
 30
0.0
 11
416.6958579285
 21
368.1131017343
 31
0.0
  0
LINE
  5
273
330
1F
100
AcDbEntity
  8
0
  6
Continuous
 62
     7
370
    25
100
AcDbLine
 10
416.6958579285
 20
368.1131017343
 30
0.0
 11
397.25208799
 21
356.8884522722
 31
0.0
  0
LINE
  5
274
330
1F
100
AcDbEntity
  8
0
  6
Continuous
 62
     7
370
    25
100
AcDbLine
 10
496.7424949377
 20
232.6115830545
 30
0.0
 11
496.8839162939
 21
232.6932238657
 31
0.0
  0
LINE
  5
275
330
1F
100
AcDbEntity
  8
0
  6
Continuous
 62
     7
370
    25
100
AcDbLine
 10
496.4346522252
 20
232.7892968697
 30
0.0
 11
496.7424949377
 21
232.6115830545
 31
0.0
  0
LINE
  5
276
330
1F
100
AcDbEntity
  8
0
  6
Continuous
 62
     7
370
    25
100
AcDbLine
 10
496.4346522252
 20
232.7892968697
 30
0.0
 11
496.5760735814
 21
232.8709376809
 31
0.0
  0
LINE
  5
277
330
1F
100
AcDbEntity
  8
0
  6
Continuous
 62
     7
370
    25
100
AcDbLine
 10
496.5760735814
 20
232.8709376809
 30
0.0
 11
496.8839162939
 21
232.6932238657
 31
0.0
  0
LINE
  5
278
330
1F
100
AcDbEntity
  8
0
  6
Continuous
 62
     7
370
    25
100
AcDbLine
 10
496.7424949377
 20
232.6115830545
 30
0.0
 11
496.7424949377
 21
232.5799003566
 31
0.0
  0
LINE
  5
279
330
1F
100
AcDbEntity
  8
0
  6
Continuous
 62
     7
370
    25
100
AcDbLine
 10
496.8839162939
 20
232.6932238657
 30
0.0
 11
496.8839162939
 21
232.6615411678
 31
0.0
  0
SPLINE
  5
27A
330
1F
100
AcDbEntity
  8
0
  6
Continuous
 62
     7
370
    25
100
AcDbSpline
210
0.0
220
0.0
230
1.0
 70
     8
 71
     3
 72
    13
 73
     9
 74
     0
 42
0.000000001
 43
0.00000001
 40
0.0
 40
0.0
 40
0.0
 40
0.0
 40
0.1242103284963933
 40
0.2484733181776741
 40
0.5000000000000008
 40
0.7515266818223257
 40
0.8757896715036163
 40
1.0
 40
1.0
 40
1.0
 40
1.0
 10
497.0503376501481
 20
232.7892968696926
 30
0.0
 10
497.0502501818874
 20
232.8126258126354
 30
0.0
 10
497.0500752082824
 20
232.8592935892425
 30
0.0
 10
497.0459329812145
 20
232.9665209333773
 30
0.0
 10
497.0306716863582
 20
233.104545660389
 30
0.0
 10
496.9906392836793
 20
233.2282656825396
 30
0.0
 10
496.9380937406625
 20
233.3075413034851
 30
0.0
 10
496.9019728910225
 20
233.3334512217301
 30
0.0
 10
496.8839162939108
 20
233.3464034351916
 30
0.0
  0
SPLINE
  5
27B
330
1F
100
AcDbEntity
  8
0
  6
Continuous
 62
     7
370
    25
100
AcDbSpline
210
0.0
220
0.0
230
1.0
 70
     8
 71
     3
 72
    13
 73
     9
 74
     0
 42
0.000000001
 43
0.00000001
 40
0.0
 40
0.0
 40
0.0
 40
0.0
 40
0.1242103284964
 40
0.2484733181776743
 40
0.499999999999998
 40
0.7515266818223247
 40
0.8757896715036108
 40
1.0
 40
1.0
 40
1.0
 40
1.0
 10
506.4298578399292
 20
238.8571581899949
 30
0.0
 10
506.4500166465633
 20
238.8454195562589
 30
0.0
 10
506.4903428065172
 20
238.8219373119837
 30
0.0
 10
506.5811317109367
 20
238.7647391136448
 30
0.0
 10
506.6930345886139
 20
238.6825090335725
 30
0.0
 10
506.7801663584686
 20
238.585974248639
 30
0.0
 10
506.8225519469391
 20
238.5008243271108
 30
0.0
 10
506.8269322308582
 20
238.4565842244735
 30
0.0
 10
506.8291219086411
 20
238.4344688612562
 30
0.0
  0
SPLINE
  5
27C
330
1F
100
AcDbEntity
  8
0
  6
Continuous
 62
     7
370
    25
100
AcDbSpline
210
0.0
220
0.0
230
1.0
 70
     8
 71
     3
 72
    13
 73
     9
 74
     0
 42
0.000000001
 43
0.00000001
 40
0.0
 40
0.0
 40
0.0
 40
0.0
 40
0.1136733573953203
 40
0.2347444985469413
 40
0.5000000000000058
 40
0.7652555014530475
 40
0.886326642604685
 40
1.0
 40
1.0
 40
1.0
 40
1.0
 10
496.6010735814363
 20
233.1830952728145
 30
0.0
 10
496.5925158512418
 20
233.1761767816355
 30
0.0
 10
496.5748434596702
 20
233.1618895486397
 30
0.0
 10
496.5584574701501
 20
233.1150916685592
 30
0.0
 10
496.5570240609254
 20
233.0452355481373
 30
0.0
 10
496.5666947008978
 20
232.9689671127045
 30
0.0
 10
496.5745227347364
 20
232.9081862303243
 30
0.0
 10
496.5755676086562
 20
232.8830902373579
 30
0.0
 10
496.5760735814362
 20
232.8709376808749
 30
0.0
  0
SPLINE
  5
27D
330
1F
100
AcDbEntity
  8
0
  6
Continuous
 62
     7
370
    25
100
AcDbSpline
210
0.0
220
0.0
230
1.0
 70
     8
 71
     3
 72
    13
 73
     9
 74
     0
 42
0.000000001
 43
0.00000001
 40
0.0
 40
0.0
 40
0.0
 40
0.0
 40
0.1242103284963927
 40
0.2484733181776729
 40
0.5000000000000014
 40
0.7515266818223246
 40
0.8757896715036088
 40
1.0
 40
1.0
 40
1.0
 40
1.0
 10
496.6010735814363
 20
233.3464034351916
 30
0.0
 10
496.5830169843245
 20
233.3334512217301
 30
0.0
 10
496.5468961346846
 20
233.3075413034851
 30
0.0
 10
496.4943505916677
 20
233.2282656825396
 30
0.0
 10
496.4543181889889
 20
233.104545660389
 30
0.0
 10
496.4390568941325
 20
232.9665209333773
 30
0.0
 10
496.4349146670646
 20
232.8592935892424
 30
0.0
 10
496.4347396934596
 20
232.8126258126354
 30
0.0
 10
496.4346522251989
 20
232.7892968696926
 30
0.0
  0
SPLINE
  5
27E
330
1F
100
AcDbEntity
  8
0
  6
Continuous
 62
     7
370
    25
100
AcDbSpline
210
0.0
220
0.0
230
1.0
 70
     8
 71
     3
 72
    13
 73
     9
 74
     0
 42
0.000000001
 43
0.00000001
 40
0.0
 40
0.0
 40
0.0
 40
0.0
 40
0.1136733573953121
 40
0.2347444985469475
 40
0.5000000000000043
 40
0.7652555014530424
 40
0.886326642604671
 40
1.0
 40
1.0
 40
1.0
 40
1.0
 10
496.9089162939108
 20
232.8709376808749
 30
0.0
 10
496.9094222666908
 20
232.8830902373579
 30
0.0
 10
496.9104671406105
 20
232.9081862303243
 30
0.0
 10
496.9182951744493
 20
232.9689671127045
 30
0.0
 10
496.9279658144216
 20
233.0452355481373
 30
0.0
 10
496.9265324051968
 20
233.1150916685592
 30
0.0
 10
496.9101464156769
 20
233.1618895486397
 30
0.0
 10
496.8924740241051
 20
233.1761767816355
 30
0.0
 10
496.8839162939108
 20
233.1830952728145
 30
0.0
  0
LINE
  5
27F
330
1F
100
AcDbEntity
  8
0
  6
Continuous
 62
     7
370
    25
100
AcDbLine
 10
496.9089162939
 20
232.8709376809
 30
0.0
 11
497.0503376501
 21
232.7892968697
 31
0.0
  0
LINE
  5
280
330
1F
100
AcDbEntity
  8
0
  6
Continuous
 62
     7
370
    25
100
AcDbLine
 10
506.9601879258
 20
238.5101316624
 30
0.0
 11
506.8291219086
 21
238.4344688613
 31
0.0
  0
LINE
  5
281
330
1F
100
AcDbEntity
  8
0
  6
Continuous
 62
     7
370
    25
100
AcDbLine
 10
506.9601879258
 20
238.4784489646
 30
0.0
 11
506.9601879258
 21
238.5101316624
 31
0.0
  0
LINE
  5
282
330
1F
100
AcDbEntity
  8
0
  6
Continuous
 62
     7
370
    25
100
AcDbLine
 10
496.919271633
 20
232.7136340685
 30
0.0
 11
496.919271633
 21
232.6819513706
 31
0.0
  0
LINE
  5
283
330
1F
100
AcDbEntity
  8
0
  6
Continuous
 62
     7
370
    25
100
AcDbLine
 10
497.0503376501
 20
232.7892968697
 30
0.0
 11
496.919271633
 21
232.7136340685
 31
0.0
  0
LINE
  5
284
330
1F
100
AcDbEntity
  8
0
  6
Continuous
 62
     7
370
    25
100
AcDbLine
 10
496.7778502767
 20
232.7952748797
 30
0.0
 11
496.919271633
 21
232.7136340685
 31
0.0
  0
LINE
  5
285
330
1F
100
AcDbEntity
  8
0
  6
Continuous
 62
     7
370
    25
100
AcDbLine
 10
496.9089162939
 20
232.8709376809
 30
0.0
 11
496.7778502767
 21
232.7952748797
 31
0.0
  0
LINE
  5
286
330
1F
100
AcDbEntity
  8
0
  6
Continuous
 62
     7
370
    25
100
AcDbLine
 10
496.7778502767
 20
232.7952748797
 30
0.0
 11
496.7778502767
 21
232.7544544741
 31
0.0
  0
LINE
  5
287
330
1F
100
AcDbEntity
  8
0
  6
Continuous
 62
     7
370
    25
100
AcDbLine
 10
495.1847106402
 20
242.4914150976
 30
0.0
 11
496.7424949377
 21
241.5921253646
 31
0.0
  0
LINE
  5
288
330
1F
100
AcDbEntity
  8
0
  6
Continuous
 62
     7
370
    25
100
AcDbLine
 10
496.7424949377
 20
241.5921253646
 30
0.0
 11
498.5102618906
 21
242.6126355044
 31
0.0
  0
LINE
  5
289
330
1F
100
AcDbEntity
  8
0
  6
Continuous
 62
     7
370
    25
100
AcDbLine
 10
498.5102618906
 20
242.6126355044
 30
0.0
 11
496.7424949377
 21
243.6331456442
 31
0.0
  0
LINE
  5
28A
330
1F
100
AcDbEntity
  8
0
  6
Continuous
 62
     7
370
    25
100
AcDbLine
 10
496.7424949377
 20
243.6331456442
 30
0.0
 11
495.1847106402
 21
242.7338559111
 31
0.0
  0
LINE
  5
28B
330
1F
100
AcDbEntity
  8
0
  6
Continuous
 62
     7
370
    25
100
AcDbLine
 10
495.1847106402
 20
240.6928356316
 30
0.0
 11
495.3282813753
 21
240.7757172528
 31
0.0
  0
LINE
  5
28C
330
1F
100
AcDbEntity
  8
0
  6
Continuous
 62
     7
370
    25
100
AcDbLine
 10
495.3282813753
 20
240.7757172528
 30
0.0
 11
495.1847106402
 21
240.858598874
 31
0.0
  0
LINE
  5
28D
330
1F
100
AcDbEntity
  8
0
  6
Continuous
 62
     7
370
    25
100
AcDbLine
 10
496.8839162939
 20
233.3464034352
 30
0.0
 11
496.7424949377
 21
233.4280442464
 31
0.0
  0
LINE
  5
28E
330
1F
100
AcDbEntity
  8
0
  6
Continuous
 62
     7
370
    25
100
AcDbLine
 10
496.7424949377
 20
233.4280442464
 30
0.0
 11
496.6010735814
 21
233.3464034352
 31
0.0
  0
LINE
  5
28F
330
1F
100
AcDbEntity
  8
0
  6
Continuous
 62
     7
370
    25
100
AcDbLine
 10
496.7424949377
 20
244.449553756
 30
0.0
 11
496.6010735814
 21
244.5311945672
 31
0.0
  0
LINE
  5
290
330
1F
100
AcDbEntity
  8
0
  6
Continuous
 62
     7
370
    25
100
AcDbLine
 10
496.8839162939
 20
244.5311945672
 30
0.0
 11
496.7424949377
 21
244.449553756
 31
0.0
  0
LINE
  5
291
330
1F
100
AcDbEntity
  8
0
  6
Continuous
 62
     7
370
    25
100
AcDbLine
 10
506.4298578399
 20
239.0204398124
 30
0.0
 11
506.2884364837
 21
238.9387990012
 31
0.0
  0
LINE
  5
292
330
1F
100
AcDbEntity
  8
0
  6
Continuous
 62
     7
370
    25
100
AcDbLine
 10
506.2884364837
 20
238.9387990012
 30
0.0
 11
506.4298578399
 21
238.85715819
 31
0.0
  0
LINE
  5
293
330
1F
100
AcDbEntity
  8
0
  6
Continuous
 62
     7
370
    25
100
AcDbLine
 10
495.1847106402
 20
238.8175785944
 30
0.0
 11
496.7424949377
 21
237.9182888614
 31
0.0
  0
LINE
  5
294
330
1F
100
AcDbEntity
  8
0
  6
Continuous
 62
     7
370
    25
100
AcDbLine
 10
496.7424949377
 20
237.9182888614
 30
0.0
 11
498.5102618906
 21
238.9387990012
 31
0.0
  0
LINE
  5
295
330
1F
100
AcDbEntity
  8
0
  6
Continuous
 62
     7
370
    25
100
AcDbLine
 10
498.5102618906
 20
238.9387990012
 30
0.0
 11
496.7424949377
 21
239.959309141
 31
0.0
  0
LINE
  5
296
330
1F
100
AcDbEntity
  8
0
  6
Continuous
 62
     7
370
    25
100
AcDbLine
 10
496.7424949377
 20
239.959309141
 30
0.0
 11
495.1847106402
 21
239.0600194079
 31
0.0
  0
LINE
  5
297
330
1F
100
AcDbEntity
  8
0
  6
Continuous
 62
     7
370
    25
100
AcDbLine
 10
498.1567085
 20
240.7757172528
 30
0.0
 11
499.924475453
 21
239.755207113
 31
0.0
  0
LINE
  5
298
330
1F
100
AcDbEntity
  8
0
  6
Continuous
 62
     7
370
    25
100
AcDbLine
 10
499.924475453
 20
239.755207113
 30
0.0
 11
501.692242406
 21
240.7757172528
 31
0.0
  0
LINE
  5
299
330
1F
100
AcDbEntity
  8
0
  6
Continuous
 62
     7
370
    25
100
AcDbLine
 10
501.692242406
 20
240.7757172528
 30
0.0
 11
499.924475453
 21
241.7962273926
 31
0.0
  0
LINE
  5
29A
330
1F
100
AcDbEntity
  8
0
  6
Continuous
 62
     7
370
    25
100
AcDbLine
 10
499.924475453
 20
241.7962273926
 30
0.0
 11
498.1567085
 21
240.7757172528
 31
0.0
  0
LINE
  5
29B
330
1F
100
AcDbEntity
  8
0
  6
Continuous
 62
     7
370
    25
100
AcDbLine
 10
495.1847106402
 20
237.0189991284
 30
0.0
 11
495.3282813753
 21
237.1018807496
 31
0.0
  0
LINE
  5
29C
330
1F
100
AcDbEntity
  8
0
  6
Continuous
 62
     7
370
    25
100
AcDbLine
 10
495.3282813753
 20
237.1018807496
 30
0.0
 11
495.1847106402
 21
237.1847623708
 31
0.0
  0
LINE
  5
29D
330
1F
100
AcDbEntity
  8
0
  6
Continuous
 62
     7
370
    25
100
AcDbLine
 10
498.1567085
 20
237.1018807496
 30
0.0
 11
499.924475453
 21
236.0813706098
 31
0.0
  0
LINE
  5
29E
330
1F
100
AcDbEntity
  8
0
  6
Continuous
 62
     7
370
    25
100
AcDbLine
 10
499.924475453
 20
236.0813706098
 30
0.0
 11
501.692242406
 21
237.1018807496
 31
0.0
  0
LINE
  5
29F
330
1F
100
AcDbEntity
  8
0
  6
Continuous
 62
     7
370
    25
100
AcDbLine
 10
501.692242406
 20
237.1018807496
 30
0.0
 11
499.924475453
 21
238.1223908894
 31
0.0
  0
LINE
  5
2A0
330
1F
100
AcDbEntity
  8
0
  6
Continuous
 62
     7
370
    25
100
AcDbLine
 10
499.924475453
 20
238.1223908894
 30
0.0
 11
498.1567085
 21
237.1018807496
 31
0.0
  0
LINE
  5
2A1
330
1F
100
AcDbEntity
  8
0
  6
Continuous
 62
     7
370
    25
100
AcDbLine
 10
501.3386890154
 20
238.9387990012
 30
0.0
 11
503.1064559684
 21
237.9182888614
 31
0.0
  0
LINE
  5
2A2
330
1F
100
AcDbEntity
  8
0
  6
Continuous
 62
     7
370
    25
100
AcDbLine
 10
503.1064559684
 20
237.9182888614
 30
0.0
 11
504.8742229213
 21
238.9387990012
 31
0.0
  0
LINE
  5
2A3
330
1F
100
AcDbEntity
  8
0
  6
Continuous
 62
     7
370
    25
100
AcDbLine
 10
504.8742229213
 20
238.9387990012
 30
0.0
 11
503.1064559684
 21
239.959309141
 31
0.0
  0
LINE
  5
2A4
330
1F
100
AcDbEntity
  8
0
  6
Continuous
 62
     7
370
    25
100
AcDbLine
 10
503.1064559684
 20
239.959309141
 30
0.0
 11
501.3386890154
 21
238.9387990012
 31
0.0
  0
LINE
  5
2A5
330
1F
100
AcDbEntity
  8
0
  6
Continuous
 62
     7
370
    25
100
AcDbLine
 10
495.1847106402
 20
235.1437420912
 30
0.0
 11
496.7424949377
 21
234.2444523582
 31
0.0
  0
LINE
  5
2A6
330
1F
100
AcDbEntity
  8
0
  6
Continuous
 62
     7
370
    25
100
AcDbLine
 10
496.7424949377
 20
234.2444523582
 30
0.0
 11
498.5102618906
 21
235.264962498
 31
0.0
  0
LINE
  5
2A7
330
1F
100
AcDbEntity
  8
0
  6
Continuous
 62
     7
370
    25
100
AcDbLine
 10
498.5102618906
 20
235.264962498
 30
0.0
 11
496.7424949377
 21
236.2854726378
 31
0.0
  0
LINE
  5
2A8
330
1F
100
AcDbEntity
  8
0
  6
Continuous
 62
     7
370
    25
100
AcDbLine
 10
496.7424949377
 20
236.2854726378
 30
0.0
 11
495.1847106402
 21
235.3861829047
 31
0.0
  0
LINE
  5
2A9
330
1F
100
AcDbEntity
  8
0
  6
Continuous
 62
     7
370
    25
100
AcDbLine
 10
496.7424949377
 20
233.4280442464
 30
0.0
 11
496.7424949377
 21
233.264736084
 31
0.0
  0
LINE
  5
2AA
330
1F
100
AcDbEntity
  8
0
  6
Continuous
 62
     7
370
    25
100
AcDbLine
 10
496.7424949377
 20
233.264736084
 30
0.0
 11
496.6010735814
 21
233.1830952728
 31
0.0
  0
LINE
  5
2AB
330
1F
100
AcDbEntity
  8
0
  6
Continuous
 62
     7
370
    25
100
AcDbLine
 10
496.8839162939
 20
233.1830952728
 30
0.0
 11
496.7424949377
 21
233.264736084
 31
0.0
  0
LINE
  5
2AC
330
1F
100
AcDbEntity
  8
0
  6
Continuous
 62
     7
370
    25
100
AcDbLine
 10
496.7424949377
 20
236.1221644754
 30
0.0
 11
496.7424949377
 21
236.2854726378
 31
0.0
  0
LINE
  5
2AD
330
1F
100
AcDbEntity
  8
0
  6
Continuous
 62
     7
370
    25
100
AcDbLine
 10
498.3688175476
 20
235.1833084168
 30
0.0
 11
496.7424949377
 21
236.1221644754
 31
0.0
  0
LINE
  5
2AE
330
1F
100
AcDbEntity
  8
0
  6
Continuous
 62
     7
370
    25
100
AcDbLine
 10
496.7424949377
 20
236.1221644754
 30
0.0
 11
495.1847106402
 21
235.2228747423
 31
0.0
  0
LINE
  5
2AF
330
1F
100
AcDbEntity
  8
0
  6
Continuous
 62
     7
370
    25
100
AcDbLine
 10
499.924475453
 20
237.959082727
 30
0.0
 11
499.924475453
 21
238.1223908894
 31
0.0
  0
LINE
  5
2B0
330
1F
100
AcDbEntity
  8
0
  6
Continuous
 62
     7
370
    25
100
AcDbLine
 10
501.5507980629
 20
237.0202266684
 30
0.0
 11
499.924475453
 21
237.959082727
 31
0.0
  0
LINE
  5
2B1
330
1F
100
AcDbEntity
  8
0
  6
Continuous
 62
     7
370
    25
100
AcDbLine
 10
499.924475453
 20
237.959082727
 30
0.0
 11
498.2981528431
 21
237.0202266684
 31
0.0
  0
LINE
  5
2B2
330
1F
100
AcDbEntity
  8
0
  6
Continuous
 62
     7
370
    25
100
AcDbLine
 10
495.1868370322
 20
237.0202266684
 30
0.0
 11
495.1847106402
 21
237.0214542084
 31
0.0
  0
LINE
  5
2B3
330
1F
100
AcDbEntity
  8
0
  6
Continuous
 62
     7
370
    25
100
AcDbLine
 10
506.8187665696
 20
238.5917724736
 30
0.0
 11
506.9601879258
 21
238.5101316624
 31
0.0
  0
LINE
  5
2B4
330
1F
100
AcDbEntity
  8
0
  6
Continuous
 62
     7
370
    25
100
AcDbLine
 10
506.8187665696
 20
238.5917724736
 30
0.0
 11
506.7824835018
 21
238.5708267044
 31
0.0
  0
LINE
  5
2B5
330
1F
100
AcDbEntity
  8
0
  6
Continuous
 62
     7
370
    25
100
AcDbLine
 10
503.1064559684
 20
239.7960009786
 30
0.0
 11
503.1064559684
 21
239.959309141
 31
0.0
  0
LINE
  5
2B6
330
1F
100
AcDbEntity
  8
0
  6
Continuous
 62
     7
370
    25
100
AcDbLine
 10
504.7327785783
 20
238.85714492
 30
0.0
 11
503.1064559684
 21
239.7960009786
 31
0.0
  0
LINE
  5
2B7
330
1F
100
AcDbEntity
  8
0
  6
Continuous
 62
     7
370
    25
100
AcDbLine
 10
503.1064559684
 20
239.7960009786
 30
0.0
 11
501.4801333584
 21
238.85714492
 31
0.0
  0
LINE
  5
2B8
330
1F
100
AcDbEntity
  8
0
  6
Continuous
 62
     7
370
    25
100
AcDbLine
 10
496.7424949377
 20
239.7960009786
 30
0.0
 11
496.7424949377
 21
239.959309141
 31
0.0
  0
LINE
  5
2B9
330
1F
100
AcDbEntity
  8
0
  6
Continuous
 62
     7
370
    25
100
AcDbLine
 10
498.3688175476
 20
238.85714492
 30
0.0
 11
496.7424949377
 21
239.7960009786
 31
0.0
  0
LINE
  5
2BA
330
1F
100
AcDbEntity
  8
0
  6
Continuous
 62
     7
370
    25
100
AcDbLine
 10
496.7424949377
 20
239.7960009786
 30
0.0
 11
495.1847106402
 21
238.8967112455
 31
0.0
  0
LINE
  5
2BB
330
1F
100
AcDbEntity
  8
0
  6
Continuous
 62
     7
370
    25
100
AcDbLine
 10
506.8291219086
 20
238.7898964916
 30
0.0
 11
506.6877005524
 21
238.7082556804
 31
0.0
  0
SPLINE
  5
2BC
330
1F
100
AcDbEntity
  8
0
  6
Continuous
 62
     7
370
    25
100
AcDbSpline
210
0.0
220
0.0
230
1.0
 70
     8
 71
     3
 72
    13
 73
     9
 74
     0
 42
0.000000001
 43
0.00000001
 40
0.0
 40
0.0
 40
0.0
 40
0.0
 40
0.1136733573953124
 40
0.2347444985469511
 40
0.4999999999999958
 40
0.765255501453043
 40
0.8863266426046784
 40
1.0
 40
1.0
 40
1.0
 40
1.0
 10
506.6877005524038
 20
238.7082556804073
 30
0.0
 10
506.6859872772309
 20
238.7197112760541
 30
0.0
 10
506.6824492281175
 20
238.7433679896172
 30
0.0
 10
506.6501116700042
 20
238.7899998248045
 30
0.0
 10
506.5903287166773
 20
238.8373390375136
 30
0.0
 10
506.5194417141533
 20
238.8654454728999
 30
0.0
 10
506.4628901326813
 20
238.8701373894975
 30
0.0
 10
506.4406348180764
 20
238.8613748483457
 30
0.0
 10
506.4298578399292
 20
238.8571316499823
 30
0.0
  0
SPLINE
  5
2BD
330
1F
100
AcDbEntity
  8
0
  6
Continuous
 62
     7
370
    25
100
AcDbSpline
210
0.0
220
0.0
230
1.0
 70
     8
 71
     3
 72
    13
 73
     9
 74
     0
 42
0.000000001
 43
0.00000001
 40
0.0
 40
0.0
 40
0.0
 40
0.0
 40
0.1242103284963935
 40
0.2484733181776778
 40
0.5000000000000001
 40
0.7515266818223231
 40
0.8757896715036073
 40
1.0
 40
1.0
 40
1.0
 40
1.0
 10
506.8291219086411
 20
238.7898964915896
 30
0.0
 10
506.8269322308581
 20
238.8119108661027
 30
0.0
 10
506.8225519469391
 20
238.8559489485157
 30
0.0
 10
506.7801663584686
 20
238.93631635647
 30
0.0
 10
506.6930345886139
 20
239.0152308254213
 30
0.0
 10
506.5811317109367
 20
239.0512404771901
 30
0.0
 10
506.4903428065172
 20
239.047770882912
 30
0.0
 10
506.4500166465633
 20
239.0295488818928
 30
0.0
 10
506.4298578399292
 20
239.0204398123595
 30
0.0
  0
SPLINE
  5
2BE
330
1F
100
AcDbEntity
  8
0
  6
Continuous
 62
     7
370
    25
100
AcDbSpline
210
0.0
220
0.0
230
1.0
 70
     8
 71
     3
 72
    10
 73
     6
 74
     0
 42
0.000000001
 43
0.00000001
 40
0.0
 40
0.0
 40
0.0
 40
0.0
 40
0.2484466039207062
 40
0.4969985412118508
 40
1.0
 40
1.0
 40
1.0
 40
1.0
 10
496.8839162939108
 20
244.5311945671628
 30
0.0
 10
496.9019376269856
 20
244.541456151771
 30
0.0
 10
496.9379879336008
 20
244.5619836715693
 30
0.0
 10
496.99123785993
 20
244.5887572620916
 30
0.0
 10
497.0118798718937
 20
244.5862618105737
 30
0.0
 10
497.0256952071502
 20
244.584591648799
 30
0.0
  0
SPLINE
  5
2BF
330
1F
100
AcDbEntity
  8
0
  6
Continuous
 62
     7
370
    25
100
AcDbSpline
210
0.0
220
0.0
230
1.0
 70
     8
 71
     3
 72
    10
 73
     6
 74
     0
 42
0.000000001
 43
0.00000001
 40
0.0
 40
0.0
 40
0.0
 40
0.0
 40
0.5030014587881411
 40
0.751553396079309
 40
1.0
 40
1.0
 40
1.0
 40
1.0
 10
496.4592946681969
 20
244.584591648799
 30
0.0
 10
496.4731100034534
 20
244.5862618105737
 30
0.0
 10
496.493752015417
 20
244.5887572620916
 30
0.0
 10
496.5470019417463
 20
244.5619836715693
 30
0.0
 10
496.5830522483615
 20
244.541456151771
 30
0.0
 10
496.6010735814363
 20
244.5311945671628
 30
0.0
  0
LINE
  5
2C0
330
1F
100
AcDbEntity
  8
0
  6
Continuous
 62
     7
370
    25
100
AcDbLine
 10
507.1369646211
 20
238.6121826764
 30
0.0
 11
506.8291219086
 21
238.7898964916
 31
0.0
  0
LINE
  5
2C1
330
1F
100
AcDbEntity
  8
0
  6
Continuous
 62
     7
370
    25
100
AcDbLine
 10
507.1369646211
 20
238.6121826764
 30
0.0
 11
506.9955432649
 21
238.5305418652
 31
0.0
  0
LINE
  5
2C2
330
1F
100
AcDbEntity
  8
0
  6
Continuous
 62
     7
370
    25
100
AcDbLine
 10
506.9955432649
 20
238.5305418652
 30
0.0
 11
506.6877005524
 21
238.7082556804
 31
0.0
  0
LINE
  5
2C3
330
1F
100
AcDbEntity
  8
0
  6
Continuous
 62
     7
370
    25
100
AcDbLine
 10
506.9955432649
 20
238.4988591674
 30
0.0
 11
506.9955432649
 21
238.5305418652
 31
0.0
  0
LINE
  5
2C4
330
1F
100
AcDbEntity
  8
0
  6
Continuous
 62
     7
370
    25
100
AcDbLine
 10
496.7071395986
 20
242.7551751738
 30
0.0
 11
497.7321570961
 21
242.1634451678
 31
0.0
  0
LINE
  5
2C5
330
1F
100
AcDbEntity
  8
0
  6
Continuous
 62
     7
370
    25
100
AcDbLine
 10
499.2878150016
 20
241.2653829748
 30
0.0
 11
500.9141376115
 21
240.3265269162
 31
0.0
  0
LINE
  5
2C6
330
1F
100
AcDbEntity
  8
0
  6
Continuous
 62
     7
370
    25
100
AcDbLine
 10
502.4697955169
 20
239.4284647232
 30
0.0
 11
504.0961181268
 21
238.4896086646
 31
0.0
  0
LINE
  5
2C7
330
1F
100
AcDbEntity
  8
0
  6
Continuous
 62
     7
370
    25
100
AcDbLine
 10
507.1369646211
 20
238.5804999785
 30
0.0
 11
507.1369646211
 21
238.6121826764
 31
0.0
  0
LINE
  5
2C8
330
1F
100
AcDbEntity
  8
0
  6
Continuous
 62
     7
370
    25
100
AcDbLine
 10
496.7071395986
 20
243.449427279
 30
0.0
 11
496.7071395986
 21
242.7143547682
 31
0.0
  0
LINE
  5
2C9
330
1F
100
AcDbEntity
  8
0
  6
Continuous
 62
     7
370
    25
100
AcDbLine
 10
495.7528327792
 20
242.1634451678
 30
0.0
 11
496.7071395986
 21
242.7143547682
 31
0.0
  0
LINE
  5
2CA
330
1F
100
AcDbEntity
  8
0
  6
Continuous
 62
     7
370
    25
100
AcDbLine
 10
499.924475453
 20
241.6329192302
 30
0.0
 11
499.924475453
 21
241.7962273926
 31
0.0
  0
LINE
  5
2CB
330
1F
100
AcDbEntity
  8
0
  6
Continuous
 62
     7
370
    25
100
AcDbLine
 10
501.5507980629
 20
240.6940631716
 30
0.0
 11
499.924475453
 21
241.6329192302
 31
0.0
  0
LINE
  5
2CC
330
1F
100
AcDbEntity
  8
0
  6
Continuous
 62
     7
370
    25
100
AcDbLine
 10
499.924475453
 20
241.6329192302
 30
0.0
 11
498.2981528431
 21
240.6940631716
 31
0.0
  0
LINE
  5
2CD
330
1F
100
AcDbEntity
  8
0
  6
Continuous
 62
     7
370
    25
100
AcDbLine
 10
495.1868370322
 20
240.6940631716
 30
0.0
 11
495.1847106402
 21
240.6952907116
 31
0.0
  0
LINE
  5
2CE
330
1F
100
AcDbEntity
  8
0
  6
Continuous
 62
     7
370
    25
100
AcDbLine
 10
496.7424949377
 20
243.4698374818
 30
0.0
 11
496.7424949377
 21
243.6331456442
 31
0.0
  0
LINE
  5
2CF
330
1F
100
AcDbEntity
  8
0
  6
Continuous
 62
     7
370
    25
100
AcDbLine
 10
498.3688175476
 20
242.5309814232
 30
0.0
 11
496.7424949377
 21
243.4698374818
 31
0.0
  0
LINE
  5
2D0
330
1F
100
AcDbEntity
  8
0
  6
Continuous
 62
     7
370
    25
100
AcDbLine
 10
496.7424949377
 20
243.4698374818
 30
0.0
 11
495.1847106402
 21
242.5705477488
 31
0.0
  0
LINE
  5
2D1
330
1F
100
AcDbEntity
  8
0
  6
Continuous
 62
     7
370
    25
100
AcDbLine
 10
496.7424949377
 20
244.6127822983
 30
0.0
 11
496.6010735814
 21
244.5311414871
 31
0.0
  0
LINE
  5
2D2
330
1F
100
AcDbEntity
  8
0
  6
Continuous
 62
     7
370
    25
100
AcDbLine
 10
496.8838703203
 20
244.5311680272
 30
0.0
 11
496.7424949377
 21
244.6127822983
 31
0.0
  0
LINE
  5
2D3
330
1F
100
AcDbEntity
  8
0
  6
Continuous
 62
     7
370
    25
100
AcDbLine
 10
364.3699561207
 20
353.8253626271
 30
0.0
 11
490.2349631719
 21
281.1650406749
 31
0.0
  0
LINE
  5
2D4
330
1F
100
AcDbEntity
  8
0
  6
Continuous
 62
     7
370
    25
100
AcDbLine
 10
365.0771778359
 20
354.233633033
 30
0.0
 11
364.3699561207
 21
353.8253626271
 31
0.0
  0
LINE
  5
2D5
330
1F
100
AcDbEntity
  8
0
  6
Continuous
 62
     7
370
    25
100
AcDbLine
 10
531.2471564807
 20
304.8408759177
 30
0.0
 11
530.5399347654
 21
305.2491463237
 31
0.0
  0
LINE
  5
2D6
330
1F
100
AcDbEntity
  8
0
  6
Continuous
 62
     7
370
    25
100
AcDbLine
 10
490.2349631719
 20
281.1650406749
 30
0.0
 11
531.2471564807
 21
304.8408759177
 31
0.0
  0
LINE
  5
2D7
330
1F
100
AcDbEntity
  8
0
  6
Continuous
 62
     7
370
    25
100
AcDbLine
 10
490.2349631719
 20
281.1650406749
 30
0.0
 11
490.2349631719
 21
216.9849328606
 31
0.0
  0
LINE
  5
2D8
330
1F
100
AcDbEntity
  8
0
  6
Continuous
 62
     7
370
    25
100
AcDbLine
 10
531.2471564807
 20
304.8408759177
 30
0.0
 11
531.2471564807
 21
240.6607681035
 31
0.0
  0
LINE
  5
2D9
330
1F
100
AcDbEntity
  8
0
  6
Continuous
 62
     7
370
    25
100
AcDbLine
 10
526.2974090124
 20
237.8033397121
 30
0.0
 11
531.2471564807
 21
240.6607681035
 31
0.0
  0
LINE
  5
2DA
330
1F
100
AcDbEntity
  8
0
  6
Continuous
 62
     7
370
    25
100
AcDbLine
 10
526.2974090124
 20
237.8033397121
 30
0.0
 11
526.2974090124
 21
268.0153497519
 31
0.0
  0
LINE
  5
2DB
330
1F
100
AcDbEntity
  8
0
  6
Continuous
 62
     7
370
    25
100
AcDbLine
 10
526.2974090124
 20
268.0153497519
 30
0.0
 11
495.1847106402
 21
250.0543712918
 31
0.0
  0
LINE
  5
2DC
330
1F
100
AcDbEntity
  8
0
  6
Continuous
 62
     7
370
    25
100
AcDbLine
 10
495.1847106402
 20
250.0543712918
 30
0.0
 11
495.1847106402
 21
219.842361252
 31
0.0
  0
LINE
  5
2DD
330
1F
100
AcDbEntity
  8
0
  6
Continuous
 62
     7
370
    25
100
AcDbLine
 10
490.2349631719
 20
216.9849328606
 30
0.0
 11
495.1847106402
 21
219.842361252
 31
0.0
  0
LINE
  5
2DE
330
1F
100
AcDbEntity
  8
0
  6
Continuous
 62
     7
370
    25
100
AcDbLine
 10
364.3699561207
 20
289.6452548129
 30
0.0
 11
490.2349631719
 21
216.9849328606
 31
0.0
  0
LINE
  5
2DF
330
1F
100
AcDbEntity
  8
0
  6
Continuous
 62
     7
370
    25
100
AcDbLine
 10
364.3699561207
 20
353.8253626271
 30
0.0
 11
364.3699561207
 21
289.6452548129
 31
0.0
  0
LWPOLYLINE
  5
2E0
330
1F
100
AcDbEntity
  8
0
  6
Continuous
 62
     7
370
    25
100
AcDbPolyline
 90
       48
 70
   128
 43
0.0
 10
397.2504214458
 20
326.6784659084
 10
397.2378031086
 20
326.9034187969
 10
397.2001732713
 20
327.1389262179
 10
397.1382034394
 20
327.3807855359
 10
397.0529994659
 20
327.6246807656
 10
396.9460818179
 20
327.8662595909
 10
396.8193584431
 20
328.1012110318
 10
396.6750907234
 20
328.3253423744
 10
396.5158531195
 20
328.5346539896
 10
396.3444872302
 20
328.7254107065
 10
396.164051084
 20
328.8942084672
 10
395.9777645681
 20
329.0380350715
 10
395.7889519698
 20
329.1543239302
 10
395.6009826544
 20
329.240999866
 10
395.4172109388
 20
329.2965161448
 10
395.2409162336
 20
329.3198820771
 10
395.0752445219
 20
329.3106806974
 10
394.9231522195
 20
329.2690762045
 10
394.7873534171
 20
329.1958110317
 10
394.6702714474
 20
329.0921925975
 10
394.5739956411
 20
328.9600699756
 10
394.5002440422
 20
328.801800897
 10
394.4503327496
 20
328.6202096774
 10
394.4251524316
 20
328.4185368164
 10
394.4251524316
 20
328.2003811708
 10
394.4503327496
 20
327.9696357335
 10
394.5002440422
 20
327.7304181621
 10
394.5739956411
 20
327.4869972999
 10
394.6702714474
 20
327.243716998
 10
394.7873534171
 20
327.0049185991
 10
394.9231522195
 20
326.7748634663
 10
395.0752445219
 20
326.5576569389
 10
395.2409162336
 20
326.3571750725
 10
395.4172109388
 20
326.1769954707
 10
395.6009826544
 20
326.020333443
 10
395.7889519698
 20
325.8899846267
 10
395.9777645681
 20
325.7882750997
 10
396.164051084
 20
325.7170198709
 10
396.3444872302
 20
325.6774904914
 10
396.5158531195
 20
325.6703923641
 10
396.6750907234
 20
325.6958521552
 10
396.8193584431
 20
325.7534155341
 10
396.9460818179
 20
325.8420552809
 10
397.0529994659
 20
325.9601896173
 10
397.1382034394
 20
326.1057104332
 10
397.2001732713
 20
326.2760209062
 10
397.2378031086
 20
326.4680818419
 10
397.2504214458
 20
326.6784659084
  0
LWPOLYLINE
  5
2E1
330
1F
100
AcDbEntity
  8
0
  6
Continuous
 62
     7
370
    25
100
AcDbPolyline
 90
       48
 70
   128
 43
0.0
 10
460.1829249714
 20
290.3483049322
 10
460.1703066342
 20
290.5732578208
 10
460.1326767969
 20
290.8087652418
 10
460.070706965
 20
291.0506245598
 10
459.9855029915
 20
291.2945197895
 10
459.8785853435
 20
291.5360986148
 10
459.7518619687
 20
291.7710500557
 10
459.607594249
 20
291.9951813983
 10
459.4483566451
 20
292.2044930135
 10
459.2769907558
 20
292.3952497304
 10
459.0965546096
 20
292.5640474911
 10
458.9102680937
 20
292.7078740953
 10
458.7214554954
 20
292.8241629541
 10
458.53348618
 20
292.9108388899
 10
458.3497144644
 20
292.9663551686
 10
458.1734197592
 20
292.989721101
 10
458.0077480475
 20
292.9805197213
 10
457.8556557451
 20
292.9389152284
 10
457.7198569427
 20
292.8656500556
 10
457.602774973
 20
292.7620316214
 10
457.5064991667
 20
292.6299089994
 10
457.4327475678
 20
292.4716399209
 10
457.3828362752
 20
292.2900487013
 10
457.3576559572
 20
292.0883758403
 10
457.3576559572
 20
291.8702201947
 10
457.3828362752
 20
291.6394747573
 10
457.4327475678
 20
291.400257186
 10
457.5064991667
 20
291.1568363238
 10
457.602774973
 20
290.9135560219
 10
457.7198569427
 20
290.674757623
 10
457.8556557451
 20
290.4447024902
 10
458.0077480475
 20
290.2274959627
 10
458.1734197592
 20
290.0270140964
 10
458.3497144644
 20
289.8468344946
 10
458.53348618
 20
289.6901724668
 10
458.7214554954
 20
289.5598236506
 10
458.9102680937
 20
289.4581141236
 10
459.0965546096
 20
289.3868588947
 10
459.2769907558
 20
289.3473295153
 10
459.4483566451
 20
289.340231388
 10
459.607594249
 20
289.3656911791
 10
459.7518619687
 20
289.423254558
 10
459.8785853435
 20
289.5118943048
 10
459.9855029915
 20
289.6300286411
 10
460.070706965
 20
289.775549457
 10
460.1326767969
 20
289.9458599301
 10
460.1703066342
 20
290.1379208658
 10
460.1829249714
 20
290.3483049322
  0
LINE
  5
2E2
330
1F
100
AcDbEntity
  8
0
  6
Continuous
 62
     7
370
    25
100
AcDbLine
 10
393.3613341493
 20
274.5419701443
 30
0.0
 11
393.3613341493
 21
287.6066231344
 31
0.0
  0
LINE
  5
2E3
330
1F
100
AcDbEntity
  8
0
  6
Continuous
 62
     7
370
    25
100
AcDbLine
 10
393.3613341493
 20
287.6066231344
 30
0.0
 11
372.1481307137
 21
299.8527448118
 31
0.0
  0
LINE
  5
2E4
330
1F
100
AcDbEntity
  8
0
  6
Continuous
 62
     7
370
    25
100
AcDbLine
 10
372.1481307137
 20
299.8527448118
 30
0.0
 11
372.1481307137
 21
286.7880918216
 31
0.0
  0
LINE
  5
2E5
330
1F
100
AcDbEntity
  8
0
  6
Continuous
 62
     7
370
    25
100
AcDbLine
 10
372.1481307137
 20
286.7880918216
 30
0.0
 11
393.3613341493
 21
274.5419701443
 31
0.0
  0
LINE
  5
2E6
330
1F
100
AcDbEntity
  8
0
  6
Continuous
 62
     7
370
    25
100
AcDbLine
 10
461.2435851432
 20
248.419033767
 30
0.0
 11
461.2435851432
 21
235.3543807768
 31
0.0
  0
LINE
  5
2E7
330
1F
100
AcDbEntity
  8
0
  6
Continuous
 62
     7
370
    25
100
AcDbLine
 10
461.2435851432
 20
235.3543807768
 30
0.0
 11
482.4567885788
 21
223.1082590994
 31
0.0
  0
LINE
  5
2E8
330
1F
100
AcDbEntity
  8
0
  6
Continuous
 62
     7
370
    25
100
AcDbLine
 10
482.4567885788
 20
223.1082590994
 30
0.0
 11
482.4567885788
 21
236.1729120896
 31
0.0
  0
LINE
  5
2E9
330
1F
100
AcDbEntity
  8
0
  6
Continuous
 62
     7
370
    25
100
AcDbLine
 10
482.4567885788
 20
236.1729120896
 30
0.0
 11
461.2435851432
 21
248.419033767
 31
0.0
  0
LINE
  5
2EA
330
1F
100
AcDbEntity
  8
0
  6
Continuous
 62
     7
370
    25
100
AcDbLine
 10
497.6578028961
 20
320.558224946
 30
0.0
 11
415.9886362132
 21
367.7048313283
 31
0.0
  0
LINE
  5
2EB
330
1F
100
AcDbEntity
  8
0
  6
Continuous
 62
     7
370
    25
100
AcDbLine
 10
524.1760886688
 20
238.211543768
 30
0.0
 11
524.1760886688
 21
266.7907375842
 31
0.0
  0
LINE
  5
2EC
330
1F
100
AcDbEntity
  8
0
  6
Continuous
 62
     7
370
    25
100
AcDbLine
 10
522.8679411236
 20
238.9667212715
 30
0.0
 11
524.1760886688
 21
238.211543768
 31
0.0
  0
LINE
  5
2ED
330
1F
100
AcDbEntity
  8
0
  6
Continuous
 62
     7
370
    25
100
AcDbLine
 10
522.8679411236
 20
238.9667212715
 30
0.0
 11
522.7642131811
 21
241.8844949797
 31
0.0
  0
LINE
  5
2EE
330
1F
100
AcDbEntity
  8
0
  6
Continuous
 62
     7
370
    25
100
AcDbLine
 10
501.8983747698
 20
253.9300870969
 30
0.0
 11
522.7642131811
 21
241.8844949797
 31
0.0
  0
LINE
  5
2EF
330
1F
100
AcDbEntity
  8
0
  6
Continuous
 62
     7
370
    25
100
AcDbLine
 10
407.503469773
 20
362.8064490074
 30
0.0
 11
407.503469773
 21
350.9704555369
 31
0.0
  0
SPLINE
  5
2F0
330
1F
100
AcDbEntity
  8
0
  6
Continuous
 62
     7
370
    25
100
AcDbSpline
210
0.0
220
0.0
230
1.0
 70
     8
 71
     3
 72
    21
 73
    17
 74
     0
 42
0.000000001
 43
0.00000001
 40
0.0
 40
0.0
 40
0.0
 40
0.0
 40
0.0705707130893723
 40
0.143187980498135
 40
0.2137586938640328
 40
0.286375965494792
 40
0.3569466559940713
 40
0.4295639053749692
 40
0.5001345638742988
 40
0.5727517768608515
 40
0.6433224416424337
 40
0.7159396584507888
 40
0.7865103486990389
 40
0.8591275909609567
 40
0.9296983020865175
 40
1.0
 40
1.0
 40
1.0
 40
1.0
 10
457.3899045464074
 20
292.0015610085661
 30
0.0
 10
457.3936709618109
 20
291.9088671972085
 30
0.0
 10
457.401313018859
 20
291.720791449183
 30
0.0
 10
457.4628870797035
 20
291.4186308460824
 30
0.0
 10
457.5604827921812
 20
291.1087918998578
 30
0.0
 10
457.6931664923127
 20
290.803507344669
 30
0.0
 10
457.8584592572348
 20
290.5064049403244
 30
0.0
 10
458.0489382968456
 20
290.2310751227038
 30
0.0
 10
458.2626928512309
 20
289.9804640189529
 30
0.0
 10
458.489917323192
 20
289.7662161307279
 30
0.0
 10
458.7281994864711
 20
289.5904712911381
 30
0.0
 10
458.96635027882
 20
289.4614002008656
 30
0.0
 10
459.2021486243648
 20
289.380001806462
 30
0.0
 10
459.4240349716395
 20
289.3514127598735
 30
0.0
 10
459.6303148243392
 20
289.3708506791638
 30
0.0
 10
459.745929189012
 20
289.426224950496
 30
0.0
 10
459.8036259814153
 20
289.453859214167
 30
0.0
  0
SPLINE
  5
2F1
330
1F
100
AcDbEntity
  8
0
  6
Continuous
 62
     7
370
    25
100
AcDbSpline
210
0.0
220
0.0
230
1.0
 70
     8
 71
     3
 72
    12
 73
     8
 74
     0
 42
0.000000001
 43
0.00000001
 40
0.0
 40
0.0
 40
0.0
 40
0.0
 40
0.0846115407886772
 40
0.30247909995051
 40
0.5142064013551261
 40
0.7320738180231584
 40
1.0
 40
1.0
 40
1.0
 40
1.0
 10
457.8074540546988
 20
292.9114758608863
 30
0.0
 10
457.7845003502666
 20
292.9001230106871
 30
0.0
 10
457.7024427988681
 20
292.8595375317076
 30
0.0
 10
457.5932150420369
 20
292.7398157341906
 30
0.0
 10
457.4846879410301
 20
292.5557289385786
 30
0.0
 10
457.4067466956843
 20
292.3141459095709
 30
0.0
 10
457.3958914567527
 20
292.1126761487322
 30
0.0
 10
457.3899045464074
 20
292.0015610085661
 30
0.0
  0
LINE
  5
2F2
330
1F
100
AcDbEntity
  8
0
  6
Continuous
 62
     7
370
    25
100
AcDbLine
 10
524.88319545
 20
238.619747824
 30
0.0
 11
524.88319545
 21
267.1989416401
 31
0.0
  0
LINE
  5
2F3
330
1F
100
AcDbEntity
  8
0
  6
Continuous
 62
     7
370
    25
100
AcDbLine
 10
524.1760886688
 20
238.211543768
 30
0.0
 11
524.88319545
 21
238.619747824
 31
0.0
  0
LINE
  5
2F4
330
1F
100
AcDbEntity
  8
0
  6
Continuous
 62
     7
370
    25
100
AcDbLine
 10
462.6577987056
 20
236.1707888886
 30
0.0
 11
482.4567885788
 21
224.7410753231
 31
0.0
  0
LINE
  5
2F5
330
1F
100
AcDbEntity
  8
0
  6
Continuous
 62
     7
370
    25
100
AcDbLine
 10
462.6577987056
 20
247.6026256551
 30
0.0
 11
462.6577987056
 21
236.1707888886
 31
0.0
  0
LINE
  5
2F6
330
1F
100
AcDbEntity
  8
0
  6
Continuous
 62
     7
370
    25
100
AcDbLine
 10
463.3649054868
 20
236.5791256446
 30
0.0
 11
482.4567885788
 21
225.557616135
 31
0.0
  0
LINE
  5
2F7
330
1F
100
AcDbEntity
  8
0
  6
Continuous
 62
     7
370
    25
100
AcDbLine
 10
463.3649054868
 20
247.1944215992
 30
0.0
 11
463.3649054868
 21
236.5791256446
 31
0.0
  0
LINE
  5
2F8
330
1F
100
AcDbEntity
  8
0
  6
Continuous
 62
     7
370
    25
100
AcDbLine
 10
464.072012268
 20
236.9873297005
 30
0.0
 11
482.4567885788
 21
226.3740242468
 31
0.0
  0
LINE
  5
2F9
330
1F
100
AcDbEntity
  8
0
  6
Continuous
 62
     7
370
    25
100
AcDbLine
 10
464.072012268
 20
246.7862175433
 30
0.0
 11
464.072012268
 21
236.9873297005
 31
0.0
  0
LINE
  5
2FA
330
1F
100
AcDbEntity
  8
0
  6
Continuous
 62
     7
370
    25
100
AcDbLine
 10
462.6577987056
 20
236.1707888886
 30
0.0
 11
461.2435851432
 21
235.3543807768
 31
0.0
  0
LINE
  5
2FB
330
1F
100
AcDbEntity
  8
0
  6
Continuous
 62
     7
370
    25
100
AcDbLine
 10
464.072012268
 20
236.9873297005
 30
0.0
 11
463.3649054868
 21
236.5791256446
 31
0.0
  0
LINE
  5
2FC
330
1F
100
AcDbEntity
  8
0
  6
Continuous
 62
     7
370
    25
100
AcDbLine
 10
524.88319545
 20
238.619747824
 30
0.0
 11
526.2974090124
 21
237.8033397121
 31
0.0
  0
SPLINE
  5
2FD
330
1F
100
AcDbEntity
  8
0
  6
Continuous
 62
     7
370
    25
100
AcDbSpline
210
0.0
220
0.0
230
1.0
 70
     8
 71
     3
 72
    21
 73
    17
 74
     0
 42
0.000000001
 43
0.00000001
 40
0.0
 40
0.0
 40
0.0
 40
0.0
 40
0.0705707130893587
 40
0.1431879804981439
 40
0.213758693864025
 40
0.286375965494803
 40
0.3569466559940484
 40
0.4295639053749404
 40
0.5001345638742994
 40
0.5727517768608309
 40
0.6433224416424246
 40
0.7159396584507645
 40
0.7865103486989828
 40
0.8591275909608914
 40
0.9296983020864616
 40
0.9999999999999999
 40
0.9999999999999999
 40
0.9999999999999999
 40
0.9999999999999999
 10
394.4574010208048
 20
328.3317219846768
 30
0.0
 10
394.4611674362083
 20
328.2390281733192
 30
0.0
 10
394.4688094932561
 20
328.0509524252938
 30
0.0
 10
394.5303835541009
 20
327.7487918221932
 30
0.0
 10
394.6279792665784
 20
327.4389528759686
 30
0.0
 10
394.7606629667101
 20
327.1336683207799
 30
0.0
 10
394.9259557316319
 20
326.8365659164351
 30
0.0
 10
395.1164347712427
 20
326.5612360988146
 30
0.0
 10
395.3301893256281
 20
326.3106249950637
 30
0.0
 10
395.5574137975893
 20
326.0963771068386
 30
0.0
 10
395.7956959608682
 20
325.9206322672488
 30
0.0
 10
396.0338467532171
 20
325.7915611769764
 30
0.0
 10
396.2696450987618
 20
325.7101627825726
 30
0.0
 10
396.4915314460366
 20
325.6815737359844
 30
0.0
 10
396.6978112987366
 20
325.7010116552746
 30
0.0
 10
396.8134256634092
 20
325.7563859266065
 30
0.0
 10
396.8711224558126
 20
325.7840201902777
 30
0.0
  0
SPLINE
  5
2FE
330
1F
100
AcDbEntity
  8
0
  6
Continuous
 62
     7
370
    25
100
AcDbSpline
210
0.0
220
0.0
230
1.0
 70
     8
 71
     3
 72
    12
 73
     8
 74
     0
 42
0.000000001
 43
0.00000001
 40
0.0
 40
0.0
 40
0.0
 40
0.0
 40
0.0846115407885406
 40
0.3024790999503759
 40
0.5142064013550482
 40
0.7320738180230698
 40
1.0
 40
1.0
 40
1.0
 40
1.0
 10
394.8749505290963
 20
329.2416368369969
 30
0.0
 10
394.8519968246641
 20
329.2302839867978
 30
0.0
 10
394.7699392732657
 20
329.1896985078183
 30
0.0
 10
394.6607115164341
 20
329.0699767103015
 30
0.0
 10
394.5521844154277
 20
328.8858899146894
 30
0.0
 10
394.4742431700817
 20
328.6443068856818
 30
0.0
 10
394.4633879311501
 20
328.4428371248431
 30
0.0
 10
394.4574010208048
 20
328.3317219846768
 30
0.0
  0
LINE
  5
2FF
330
1F
100
AcDbEntity
  8
0
  6
Continuous
 62
     7
370
    25
100
AcDbLine
 10
374.2694510573
 20
288.0128366894
 30
0.0
 11
393.3613341493
 21
276.9913271798
 31
0.0
  0
LINE
  5
300
330
1F
100
AcDbEntity
  8
0
  6
Continuous
 62
     7
370
    25
100
AcDbLine
 10
374.2694510573
 20
298.6281326441
 30
0.0
 11
374.2694510573
 21
288.0128366894
 31
0.0
  0
LINE
  5
301
330
1F
100
AcDbEntity
  8
0
  6
Continuous
 62
     7
370
    25
100
AcDbLine
 10
373.5623442761
 20
287.6044999334
 30
0.0
 11
393.3613341493
 21
276.1747863679
 31
0.0
  0
LINE
  5
302
330
1F
100
AcDbEntity
  8
0
  6
Continuous
 62
     7
370
    25
100
AcDbLine
 10
373.5623442761
 20
299.0363367
 30
0.0
 11
373.5623442761
 21
287.6044999334
 31
0.0
  0
LINE
  5
303
330
1F
100
AcDbEntity
  8
0
  6
Continuous
 62
     7
370
    25
100
AcDbLine
 10
374.9765578385
 20
288.4210407453
 30
0.0
 11
393.3613341493
 21
277.8077352916
 31
0.0
  0
LINE
  5
304
330
1F
100
AcDbEntity
  8
0
  6
Continuous
 62
     7
370
    25
100
AcDbLine
 10
374.9765578385
 20
298.2199285881
 30
0.0
 11
374.9765578385
 21
288.4210407453
 31
0.0
  0
LINE
  5
305
330
1F
100
AcDbEntity
  8
0
  6
Continuous
 62
     7
370
    25
100
AcDbLine
 10
373.5623442761
 20
287.6044999334
 30
0.0
 11
372.1481307137
 21
286.7880918216
 31
0.0
  0
LINE
  5
306
330
1F
100
AcDbEntity
  8
0
  6
Continuous
 62
     7
370
    25
100
AcDbLine
 10
374.9765578385
 20
288.4210407453
 30
0.0
 11
374.2694510573
 21
288.0128366894
 31
0.0
  0
LWPOLYLINE
  5
307
330
1F
100
AcDbEntity
  8
0
  6
Continuous
 62
     7
370
    25
100
AcDbPolyline
 90
       24
 70
   128
 43
0.0
 10
396.1897612741
 20
327.2907719922
 10
396.1766505553
 20
327.1881906118
 10
396.1382907609
 20
327.1083545368
 10
396.0775268615
 20
327.0571848436
 10
395.9988654374
 20
327.0384765544
 10
395.9081404467
 20
327.0536171774
 10
395.8120805468
 20
327.1014838017
 10
395.7178100611
 20
327.178526379
 10
395.6323206003
 20
327.2790310135
 10
395.5619525265
 20
327.3955437365
 10
395.5119247179
 20
327.5194233322
 10
395.4859475082
 20
327.6414822177
 10
395.4859475082
 20
327.7526678439
 10
395.5119247179
 20
327.8447340816
 10
395.5619525265
 20
327.9108527989
 10
395.6323206003
 20
327.9461202733
 10
395.7178100611
 20
327.9479208773
 10
395.8120805468
 20
327.9161210685
 10
395.9081404467
 20
327.8530792932
 10
395.9988654374
 20
327.7634710715
 10
396.0775268615
 20
327.6539422353
 10
396.1382907609
 20
327.5326160372
 10
396.1766505553
 20
327.4084906864
 10
396.1897612741
 20
327.2907719922
  0
ARC
  5
308
330
1F
100
AcDbEntity
  8
0
  6
Continuous
 62
     7
370
    25
100
AcDbCircle
 10
396.012625826
 20
327.3058363008
 30
0.0
 40
0.2491808154353841
100
AcDbArc
 50
305.3793155066
 51
5.9328648868
  0
LWPOLYLINE
  5
309
330
1F
100
AcDbEntity
  8
0
  6
Continuous
 62
     7
370
    25
100
AcDbPolyline
 90
       10
 70
   128
 43
0.0
 10
395.6569388784
 20
327.968718857
 10
395.7030312784
 20
327.9869406789
 10
395.7885207393
 20
327.9887412829
 10
395.882791225
 20
327.9569414741
 10
395.9788511248
 20
327.8938996988
 10
396.0695761156
 20
327.8042914771
 10
396.1482375396
 20
327.6947626409
 10
396.209001439
 20
327.5734364428
 10
396.2473612334
 20
327.4493110919
 10
396.2604719522
 20
327.3315923978
  0
LWPOLYLINE
  5
30A
330
1F
100
AcDbEntity
  8
0
  6
Continuous
 62
     7
370
    25
100
AcDbPolyline
 90
       24
 70
   128
 43
0.0
 10
459.1222647997
 20
290.9606110161
 10
459.1091540809
 20
290.8580296357
 10
459.0707942865
 20
290.7781935607
 10
459.0100303871
 20
290.7270238675
 10
458.931368963
 20
290.7083155783
 10
458.8406439723
 20
290.7234562013
 10
458.7445840724
 20
290.7713228256
 10
458.6503135867
 20
290.8483654029
 10
458.5648241259
 20
290.9488700374
 10
458.4944560521
 20
291.0653827604
 10
458.4444282435
 20
291.1892623561
 10
458.4184510338
 20
291.3113212416
 10
458.4184510338
 20
291.4225068678
 10
458.4444282435
 20
291.5145731054
 10
458.4944560521
 20
291.5806918228
 10
458.5648241259
 20
291.6159592972
 10
458.6503135867
 20
291.6177599012
 10
458.7445840724
 20
291.5859600924
 10
458.8406439723
 20
291.5229183171
 10
458.931368963
 20
291.4333100954
 10
459.0100303871
 20
291.3237812592
 10
459.0707942865
 20
291.2024550611
 10
459.1091540809
 20
291.0783297102
 10
459.1222647997
 20
290.9606110161
  0
ARC
  5
30B
330
1F
100
AcDbEntity
  8
0
  6
Continuous
 62
     7
370
    25
100
AcDbCircle
 10
458.9451293516
 20
290.9756753247
 30
0.0
 40
0.2491808154350059
100
AcDbArc
 50
305.3793155066
 51
5.9328648868
  0
LWPOLYLINE
  5
30C
330
1F
100
AcDbEntity
  8
0
  6
Continuous
 62
     7
370
    25
100
AcDbPolyline
 90
       10
 70
   128
 43
0.0
 10
458.589442404
 20
291.6385578808
 10
458.635534804
 20
291.6567797027
 10
458.7210242649
 20
291.6585803068
 10
458.8152947506
 20
291.626780498
 10
458.9113546504
 20
291.5637387227
 10
459.0020796412
 20
291.474130501
 10
459.0807410652
 20
291.3646016648
 10
459.1415049646
 20
291.2432754667
 10
459.179864759
 20
291.1191501158
 10
459.1929754778
 20
291.0014314217
  0
LINE
  5
30D
330
1F
100
AcDbEntity
  8
0
  6
Continuous
 62
     7
370
    25
100
AcDbLine
 10
495.1847106402
 20
222.4547345098
 30
0.0
 11
523.3276754655
 21
238.7013222851
 31
0.0
  0
LINE
  5
30E
330
1F
100
AcDbEntity
  8
0
  6
Continuous
 62
     7
370
    25
100
AcDbLine
 10
530.5399347654
 20
240.2524976976
 30
0.0
 11
531.2471564807
 21
239.8442272916
 31
0.0
  0
LINE
  5
30F
330
1F
100
AcDbEntity
  8
0
  6
Continuous
 62
     7
370
    25
100
AcDbLine
 10
531.2471564807
 20
239.8442272916
 30
0.0
 11
490.2349631719
 21
216.1683920488
 31
0.0
  0
LINE
  5
310
330
1F
100
AcDbEntity
  8
0
  6
Continuous
 62
     7
370
    25
100
AcDbLine
 10
364.3699561207
 20
288.828714001
 30
0.0
 11
490.2349631719
 21
216.1683920488
 31
0.0
  0
LINE
  5
311
330
1F
100
AcDbEntity
  8
0
  6
Continuous
 62
     7
370
    25
100
AcDbLine
 10
364.3699561207
 20
288.828714001
 30
0.0
 11
365.0771778359
 21
289.2369844069
 31
0.0
  0
LINE
  5
312
330
1F
100
AcDbEntity
  8
0
  6
Continuous
 62
     7
370
    25
100
AcDbLine
 10
490.2349631719
 20
212.4939583953
 30
0.0
 11
490.2349631719
 21
216.1683920488
 31
0.0
  0
LINE
  5
313
330
1F
100
AcDbEntity
  8
0
  6
Continuous
 62
     7
370
    25
100
AcDbLine
 10
364.3699561207
 20
285.1542803475
 30
0.0
 11
490.2349631719
 21
212.4939583953
 31
0.0
  0
LINE
  5
314
330
1F
100
AcDbEntity
  8
0
  6
Continuous
 62
     7
370
    25
100
AcDbLine
 10
364.3699561207
 20
288.828714001
 30
0.0
 11
364.3699561207
 21
285.1542803475
 31
0.0
  0
LINE
  5
315
330
1F
100
AcDbEntity
  8
0
  6
Continuous
 62
     7
370
    25
100
AcDbLine
 10
531.2471564807
 20
236.1697936381
 30
0.0
 11
490.2349631719
 21
212.4939583953
 31
0.0
  0
LINE
  5
316
330
1F
100
AcDbEntity
  8
0
  6
Continuous
 62
     7
370
    25
100
AcDbLine
 10
531.2471564807
 20
236.1697936381
 30
0.0
 11
531.2471564807
 21
239.8442272916
 31
0.0
  0
LINE
  5
317
330
1F
100
AcDbEntity
  8
0
  6
Continuous
 62
     7
370
    25
100
AcDbLine
 10
507.7712113453
 20
238.9466428188
 30
0.0
 11
496.7403455588
 21
245.3146260911
 31
0.0
  0
LINE
  5
318
330
1F
100
AcDbEntity
  8
0
  6
Continuous
 62
     7
370
    25
100
AcDbLine
 10
496.7403455588
 20
245.3146260911
 30
0.0
 11
495.1847106402
 21
244.416577168
 31
0.0
  0
LINE
  5
319
330
1F
100
AcDbEntity
  8
0
  6
Continuous
 62
     7
370
    25
100
AcDbLine
 10
495.1847106402
 20
233.4767084696
 30
0.0
 11
496.7403455588
 21
232.5786595466
 31
0.0
  0
LINE
  5
31A
330
1F
100
AcDbEntity
  8
0
  6
Continuous
 62
     7
370
    25
100
AcDbLine
 10
496.7403455588
 20
232.5786595466
 30
0.0
 11
507.7712113453
 21
238.9466428188
 31
0.0
  0
LWPOLYLINE
  5
31B
330
1F
100
AcDbEntity
  8
0
  6
Continuous
 62
     7
370
    25
100
AcDbPolyline
 90
       48
 70
   128
 43
0.0
 10
512.1552733886
 20
241.8857120214
 10
512.3563879459
 20
241.7841798809
 10
512.5791502836
 20
241.6990284059
 10
512.8195852026
 20
241.6317771266
 10
513.0734021361
 20
241.5836261436
 10
513.3360717149
 20
241.5554347123
 10
513.602906594
 20
241.5477059095
 10
513.8691450989
 20
241.5605776559
 10
514.130036197
 20
241.5938202548
 10
514.3809242805
 20
241.6468404914
 10
514.6173322457
 20
241.7186922181
 10
514.8350413867
 20
241.8080932393
 10
515.0301666789
 20
241.9134481916
 10
515.1992261067
 20
242.0328770134
 10
515.3392028007
 20
242.1642484944
 10
515.4475988734
 20
242.3052183077
 10
515.5224799944
 20
242.4532708434
 10
515.5625099082
 20
242.6057641006
 10
515.5669742802
 20
242.7599768335
 10
515.5357934434
 20
242.9131571121
 10
515.4695238207
 20
243.0625714309
 10
515.3693479951
 20
243.2055534878
 10
515.2370536065
 20
243.3395517645
 10
515.0750014514
 20
243.4621750586
 10
514.8860833543
 20
243.5712351546
 10
514.6736705633
 20
243.6647858725
 10
514.4415535896
 20
243.7411577974
 10
514.193874566
 20
243.7989880706
 10
513.9350533307
 20
243.8372447095
 10
513.6697085546
 20
243.8552450234
 10
513.4025753216
 20
243.8526677963
 10
513.1384206307
 20
243.829559019
 10
512.8819583284
 20
243.7863310679
 10
512.6377649907
 20
243.7237553471
 10
512.4101982534
 20
243.6429485217
 10
512.2033190505
 20
243.5453525914
 10
512.020819146
 20
243.4327091579
 10
511.8659552553
 20
243.307028346
 10
511.741490928
 20
243.1705529327
 10
511.649647233
 20
243.0257183249
 10
511.5920631233
 20
242.8751090998
 10
511.5697661886
 20
242.7214128825
 10
511.5831543184
 20
242.5673723856
 10
511.631988601
 20
242.4157364654
 10
511.7153975875
 20
242.2692110686
 10
511.8318928427
 20
242.1304109443
 10
511.9793955059
 20
242.001812984
 10
512.1552733886
 20
241.8857120214
  0
LINE
  5
31C
330
1F
100
AcDbEntity
  8
0
  6
Continuous
 62
     7
370
    25
100
AcDbLine
 10
495.1847106402
 20
225.3126273514
 30
0.0
 11
522.7868757224
 21
241.2470180803
 31
0.0
  0
LINE
  5
31D
330
1F
100
AcDbEntity
  8
0
  6
Continuous
 62
     7
370
    25
100
AcDbLine
 10
501.5359464185
 20
238.8893651138
 30
0.0
 11
501.7588432636
 21
238.6962491165
 31
0.0
  0
LINE
  5
31E
330
1F
100
AcDbEntity
  8
0
  6
Continuous
 62
     7
370
    25
100
AcDbLine
 10
499.8427125239
 20
239.8024078473
 30
0.0
 11
499.9429025214
 21
239.7658448331
 31
0.0
  0
ARC
  5
31F
330
1F
100
AcDbEntity
  8
0
  6
Continuous
 62
     7
370
    25
100
AcDbCircle
 10
496.7403380412
 20
225.9316872445
 30
0.0
 40
9.74433045748224
100
AcDbArc
 50
85.0698456457
 51
94.900239693
  0
LINE
  5
320
330
1F
100
AcDbEntity
  8
0
  6
Continuous
 62
     7
370
    25
100
AcDbLine
 10
496.7403455588
 20
244.6115414883
 30
0.0
 11
496.7403455588
 21
245.3146260911
 31
0.0
  0
SPLINE
  5
321
330
1F
100
AcDbEntity
  8
0
  6
Continuous
 62
     7
370
    25
100
AcDbSpline
210
0.0
220
0.0
230
1.0
 70
     8
 71
     3
 72
    21
 73
    17
 74
     0
 42
0.000000001
 43
0.00000001
 40
0.0
 40
0.0
 40
0.0
 40
0.0
 40
0.0705682840783456
 40
0.1431830520346663
 40
0.21375133638957
 40
0.2863661085677017
 40
0.3569343700567661
 40
0.4295491199858348
 40
0.5001173494760214
 40
0.5727320630119966
 40
0.6433002987842257
 40
0.7159150161418676
 40
0.7864832773798845
 40
0.8590980201902324
 40
0.9296663023048343
 40
1.0
 40
1.0
 40
1.0
 40
1.0
 10
514.9837005133953
 20
243.5021381194109
 30
0.0
 10
514.9015461509009
 20
243.5452162147175
 30
0.0
 10
514.7348549451625
 20
243.6326216723165
 30
0.0
 10
514.4423983135281
 20
243.7303614112286
 30
0.0
 10
514.1252786673033
 20
243.8007490706279
 30
0.0
 10
513.7945561919126
 20
243.8384777350026
 30
0.0
 10
513.4546120898436
 20
243.8438803194942
 30
0.0
 10
513.1209273789036
 20
243.8165899991575
 30
0.0
 10
512.797008899277
 20
243.7567884129694
 30
0.0
 10
512.4978441383525
 20
243.6671447507443
 30
0.0
 10
512.2264924748322
 20
243.5486779996264
 30
0.0
 10
511.9956248585424
 20
243.4069919498394
 30
0.0
 10
511.8072175412865
 20
243.2435103610736
 30
0.0
 10
511.6714977557174
 20
243.0656746609686
 30
0.0
 10
511.5851639255324
 20
242.877312040946
 30
0.0
 10
511.5752996553809
 20
242.7494893368222
 30
0.0
 10
511.5703757317019
 20
242.6856843892795
 30
0.0
  0
SPLINE
  5
322
330
1F
100
AcDbEntity
  8
0
  6
Continuous
 62
     7
370
    25
100
AcDbSpline
210
0.0
220
0.0
230
1.0
 70
     8
 71
     3
 72
    12
 73
     8
 74
     0
 42
0.000000001
 43
0.00000001
 40
0.0
 40
0.0
 40
0.0
 40
0.0
 40
0.0845167081422235
 40
0.3024068380028444
 40
0.5141560739864347
 40
0.7320460613385396
 40
1.0
 40
1.0
 40
1.0
 40
1.0
 10
515.5628612436876
 20
242.6857987134651
 30
0.0
 10
515.5645058555865
 20
242.7113181838604
 30
0.0
 10
515.5703903948101
 20
242.8026286776004
 30
0.0
 10
515.5213396741452
 20
242.9570273017223
 30
0.0
 10
515.4161990813291
 20
243.1430277396278
 30
0.0
 10
515.2459697091862
 20
243.3312877220766
 30
0.0
 10
515.0769298355983
 20
243.4414056087035
 30
0.0
 10
514.9837005133953
 20
243.5021381194109
 30
0.0
  0
LWPOLYLINE
  5
323
330
1F
100
AcDbEntity
  8
0
  6
Continuous
 62
     7
370
    25
100
AcDbPolyline
 90
       24
 70
   128
 43
0.0
 10
514.058844881
 20
242.7613556373
 10
514.0683820138
 20
242.68294135
 10
514.040918382
 20
242.6059494653
 10
513.9784908377
 20
242.5360901191
 10
513.8857293462
 20
242.4785444595
 10
513.7695136029
 20
242.4375803848
 10
513.6384627979
 20
242.4162360131
 10
513.5022963699
 20
242.4160943588
 10
513.3711131599
 20
242.4371659276
 10
513.2546424265
 20
242.4778879378
 10
513.1615222712
 20
242.5352402241
 10
513.0986589899
 20
242.6049692299
 10
513.0707148645
 20
242.6819034738
 10
513.0797623831
 20
242.7603370947
 10
513.1251305325
 20
242.83445303
 10
513.2034545647
 20
242.8987544397
 10
513.3089255445
 20
242.9484723824
 10
513.4337211718
 20
242.9799195058
 10
513.5685859259
 20
242.9907635206
 10
513.7035175049
 20
242.9802001758
 10
513.8285086509
 20
242.9490129063
 10
513.9342893423
 20
242.8995147294
 10
514.0130143093
 20
242.8353766982
 10
514.058844881
 20
242.7613556373
  0
LWPOLYLINE
  5
324
330
1F
100
AcDbEntity
  8
0
  6
Continuous
 62
     7
370
    25
100
AcDbPolyline
 90
       14
 70
   128
 43
0.0
 10
514.069486951
 20
242.620466052
 10
514.0683820138
 20
242.6012872688
 10
514.040918382
 20
242.5242953841
 10
513.9784908377
 20
242.4544360379
 10
513.8857293462
 20
242.3968903783
 10
513.7695136029
 20
242.3559263036
 10
513.6384627979
 20
242.3345819319
 10
513.5022963699
 20
242.3344402776
 10
513.3711131599
 20
242.3555118464
 10
513.2546424265
 20
242.3962338566
 10
513.1615222712
 20
242.453586143
 10
513.0986589899
 20
242.5233151487
 10
513.0707148645
 20
242.6002493926
 10
513.069486951
 20
242.620466052
  0
LINE
  5
325
330
1F
100
AcDbEntity
  8
0
  6
PHANTOM
 62
     1
370
    18
100
AcDbLine
 10
495.1847106402
 20
233.5108727876
 30
0.0
 11
496.4346522252
 21
232.7892968697
 31
0.0
  0
LINE
  5
326
330
1F
100
AcDbEntity
  8
0
  6
PHANTOM
 62
     1
370
    18
100
AcDbLine
 10
497.0503376501
 20
232.7892968697
 30
0.0
 11
506.8291219086
 21
238.4344688613
 31
0.0
  0
LINE
  5
327
330
1F
100
AcDbEntity
  8
0
  6
PHANTOM
 62
     1
370
    18
100
AcDbLine
 10
506.4298578399
 20
238.85715819
 30
0.0
 11
496.8839162939
 21
233.3464034352
 31
0.0
  0
LINE
  5
328
330
1F
100
AcDbEntity
  8
0
  6
PHANTOM
 62
     1
370
    18
100
AcDbLine
 10
496.6010735814
 20
233.3464034352
 30
0.0
 11
496.6010735814
 21
233.1830952728
 31
0.0
  0
LINE
  5
329
330
1F
100
AcDbEntity
  8
0
  6
PHANTOM
 62
     1
370
    18
100
AcDbLine
 10
496.6010735814
 20
233.3464034352
 30
0.0
 11
495.1847106402
 21
234.164052357
 31
0.0
  0
LINE
  5
32A
330
1F
100
AcDbEntity
  8
0
  6
PHANTOM
 62
     1
370
    18
100
AcDbLine
 10
496.8839162939
 20
233.3464034352
 30
0.0
 11
496.8839162939
 21
233.1830952728
 31
0.0
  0
LINE
  5
32B
330
1F
100
AcDbEntity
  8
0
  6
PHANTOM
 62
     1
370
    18
100
AcDbLine
 10
495.1847106402
 20
243.7135456453
 30
0.0
 11
496.6010735814
 21
244.5311945672
 31
0.0
  0
LINE
  5
32C
330
1F
100
AcDbEntity
  8
0
  6
PHANTOM
 62
     1
370
    18
100
AcDbLine
 10
496.8839162939
 20
244.5311945672
 30
0.0
 11
506.4298578399
 21
239.0204398124
 31
0.0
  0
LINE
  5
32D
330
1F
100
AcDbEntity
  8
0
  6
PHANTOM
 62
     1
370
    18
100
AcDbLine
 10
506.4298578399
 20
239.0204398124
 30
0.0
 11
506.4298578399
 21
238.85713165
 31
0.0
  0
ARC
  5
32E
330
1F
100
AcDbEntity
  8
0
  6
PHANTOM
 62
     1
370
    18
100
AcDbCircle
 10
395.6519887331
 20
327.3884770945
 30
0.0
 40
0.6032343429473267
100
AcDbArc
 50
1.8773350773
 51
58.2398454179
  0
ARC
  5
32F
330
1F
100
AcDbEntity
  8
0
  6
PHANTOM
 62
     1
370
    18
100
AcDbCircle
 10
395.8969531182
 20
327.5299414977
 30
0.0
 40
0.4097788840945691
100
AcDbArc
 50
344.7782828417
 51
75.2163406256
  0
ARC
  5
330
330
1F
100
AcDbEntity
  8
0
  6
PHANTOM
 62
     1
370
    18
100
AcDbCircle
 10
396.2226653344
 20
327.5418342178
 30
0.0
 40
0.1382408920060688
100
AcDbArc
 50
303.7534253928
 51
7.5228534775
  0
LWPOLYLINE
  5
331
330
1F
100
AcDbEntity
  8
0
  6
PHANTOM
 62
     1
370
    18
100
AcDbPolyline
 90
        8
 70
   128
 43
0.0
 10
396.0096304305
 20
327.9304029253
 10
396.0516081762
 20
327.9432165788
 10
396.1186426185
 20
327.9326929543
 10
396.189979182
 20
327.8915112328
 10
396.2570136243
 20
327.8246385376
 10
396.3116606024
 20
327.7401407027
 10
396.3473288841
 20
327.648209414
 10
396.3597163484
 20
327.5599329418
  0
ARC
  5
332
330
1F
100
AcDbEntity
  8
0
  6
PHANTOM
 62
     1
370
    18
100
AcDbCircle
 10
458.5844918697
 20
291.0583159536
 30
0.0
 40
0.6032347371072142
100
AcDbArc
 50
1.8773495081
 51
58.2396838478
  0
ARC
  5
333
330
1F
100
AcDbEntity
  8
0
  6
PHANTOM
 62
     1
370
    18
100
AcDbCircle
 10
458.8294566438
 20
291.1997805216
 30
0.0
 40
0.4097788840944892
100
AcDbArc
 50
344.7782828416
 51
75.2163406257
  0
ARC
  5
334
330
1F
100
AcDbEntity
  8
0
  6
PHANTOM
 62
     1
370
    18
100
AcDbCircle
 10
459.1551688601
 20
291.2116732416
 30
0.0
 40
0.138240892005971
100
AcDbArc
 50
303.7534253928
 51
7.5228534776
  0
LWPOLYLINE
  5
335
330
1F
100
AcDbEntity
  8
0
  6
PHANTOM
 62
     1
370
    18
100
AcDbPolyline
 90
        8
 70
   128
 43
0.0
 10
458.9421339561
 20
291.6002419492
 10
458.9841117018
 20
291.6130556027
 10
459.0511461441
 20
291.6025319782
 10
459.1224827076
 20
291.5613502567
 10
459.1895171499
 20
291.4944775615
 10
459.244164128
 20
291.4099797266
 10
459.2798324097
 20
291.3180484379
 10
459.292219874
 20
291.2297719656
  0
ARC
  5
336
330
1F
100
AcDbEntity
  8
0
  6
PHANTOM
 62
     1
370
    18
100
AcDbCircle
 10
513.5694869508
 20
242.9159062499
 30
0.0
 40
0.6041223208463157
100
AcDbArc
 50
241.7967290814
 51
298.2032714046
  0
ARC
  5
337
330
1F
100
AcDbEntity
  8
0
  6
PHANTOM
 62
     1
370
    18
100
AcDbCircle
 10
513.569486951
 20
242.6325129513
 30
0.0
 40
0.410160248128436
100
AcDbArc
 50
224.8323151622
 51
315.1676848378
  0
LWPOLYLINE
  5
338
330
1F
100
AcDbEntity
  8
0
  6
PHANTOM
 62
     1
370
    18
100
AcDbPolyline
 90
       11
 70
   128
 43
0.0
 10
513.8599700174
 20
242.333895099
 10
513.8570348153
 20
242.3109911762
 10
513.8255957625
 20
242.2556516024
 10
513.7632662073
 20
242.2098568665
 10
513.6775640139
 20
242.1791304894
 10
513.5788261316
 20
242.1671785257
 10
513.4789618064
 20
242.1754425586
 10
513.3900161496
 20
242.2029258237
 10
513.3227173201
 20
242.2463134337
 10
513.2851825501
 20
242.3003722026
 10
513.278999788
 20
242.3348246739
  0
ENDSEC
  0
SECTION
  2
OBJECTS
  0
DICTIONARY
  5
C
330
0
100
AcDbDictionary
281
     1
  3
ACAD_DETAILVIEWSTYLE
350
340
  3
ACAD_GROUP
350
D
  3
ACAD_LAYOUT
350
1A
  3
ACAD_MATERIAL
350
43
  3
ACAD_MLEADERSTYLE
350
6B
  3
ACAD_MLINESTYLE
350
17
  3
ACAD_PLOTSETTINGS
350
19
  3
ACAD_PLOTSTYLENAME
350
E
  3
ACAD_SCALELIST
350
47
  3
ACAD_SECTIONVIEWSTYLE
350
341
  3
ACAD_TABLESTYLE
350
69
  3
ACAD_VISUALSTYLE
350
2A
  3
ACDB_RECOMPOSE_DATA
350
33D
  3
AcDbVariableDictionary
350
339
  0
SUN
  5
6D
330
29
100
AcDbSun
 90
        1
290
     0
 63
     7
421
 16777215
 40
1.0
291
     1
 91
  2455826
 92
 54000000
292
     0
 70
     2
 71
   256
280
     1
  0
DICTIONARY
  5
340
102
{ACAD_REACTORS
330
C
102
}
330
C
100
AcDbDictionary
281
     1
  0
DICTIONARY
  5
D
102
{ACAD_REACTORS
330
C
102
}
330
C
100
AcDbDictionary
281
     1
  0
DICTIONARY
  5
1A
102
{ACAD_REACTORS
330
C
102
}
330
C
100
AcDbDictionary
281
     1
  3
Layout1
350
1E
  3
Layout2
350
26
  3
Model
350
22
  0
DICTIONARY
  5
43
102
{ACAD_REACTORS
330
C
102
}
330
C
100
AcDbDictionary
281
     1
  3
ByBlock
350
45
  3
ByLayer
350
44
  3
Global
350
46
  0
DICTIONARY
  5
6B
102
{ACAD_REACTORS
330
C
102
}
330
C
100
AcDbDictionary
281
     1
  3
Standard
350
6C
  0
DICTIONARY
  5
17
102
{ACAD_REACTORS
330
C
102
}
330
C
100
AcDbDictionary
281
     1
  3
Standard
350
18
  0
DICTIONARY
  5
19
102
{ACAD_REACTORS
330
C
102
}
330
C
100
AcDbDictionary
281
     1
  0
ACDBDICTIONARYWDFLT
  5
E
102
{ACAD_REACTORS
330
C
102
}
330
C
100
AcDbDictionary
281
     1
  3
Normal
350
F
100
AcDbDictionaryWithDefault
340
F
  0
DICTIONARY
  5
47
102
{ACAD_REACTORS
330
C
102
}
330
C
100
AcDbDictionary
281
     1
  3
A0
350
48
  3
A1
350
49
  3
A2
350
4A
  3
A3
350
4B
  3
A4
350
4C
  3
A5
350
4D
  3
A6
350
4E
  3
A7
350
4F
  3
A8
350
50
  3
A9
350
51
  3
B0
350
52
  3
B1
350
53
  3
B2
350
54
  3
B3
350
55
  3
B4
350
56
  3
B5
350
57
  3
B6
350
58
  3
B7
350
59
  3
B8
350
5A
  3
B9
350
5B
  3
C0
350
5C
  3
C1
350
5D
  3
C2
350
5E
  3
C3
350
5F
  3
C4
350
60
  3
C5
350
61
  3
C6
350
62
  3
C7
350
63
  3
C8
350
64
  3
C9
350
65
  3
D0
350
66
  3
D1
350
67
  3
D2
350
68
  0
DICTIONARY
  5
341
102
{ACAD_REACTORS
330
C
102
}
330
C
100
AcDbDictionary
281
     1
  0
DICTIONARY
  5
69
102
{ACAD_REACTORS
330
C
102
}
330
C
100
AcDbDictionary
281
     1
  3
Standard
350
6A
  0
DICTIONARY
  5
2A
102
{ACAD_REACTORS
330
C
102
}
330
C
100
AcDbDictionary
281
     1
  3
2dWireframe
350
2F
  3
Basic
350
32
  3
Brighten
350
36
  3
ColorChange
350
3A
  3
Conceptual
350
34
  3
Dim
350
35
  3
EdgeColorOff
350
3D
  3
Facepattern
350
39
  3
Flat
350
2B
  3
FlatWithEdges
350
2C
  3
Gouraud
350
2D
  3
GouraudWithEdges
350
2E
  3
Hidden
350
31
  3
JitterOff
350
3B
  3
Linepattern
350
38
  3
OverhangOff
350
3C
  3
Realistic
350
33
  3
Shaded
350
42
  3
Shaded with edges
350
41
  3
Shades of Gray
350
3E
  3
Sketchy
350
3F
  3
Thicken
350
37
  3
Wireframe
350
30
  3
X-Ray
350
40
  0
XRECORD
  5
33D
102
{ACAD_REACTORS
330
C
102
}
330
C
100
AcDbXrecord
280
     1
 90
        1
330
6A
  0
DICTIONARY
  5
339
102
{ACAD_REACTORS
330
C
102
}
330
C
100
AcDbDictionary
281
     1
  3
CANNOSCALE
350
33A
  3
CMLEADERSTYLE
350
33F
  3
CTABLESTYLE
350
33E
  3
SECTIONTHICKNESSINC
350
342
  0
LAYOUT
  5
1E
102
{ACAD_REACTORS
330
1A
102
}
330
1A
100
AcDbPlotSettings
  1

  2
none_device
  4

  6

 40
0.0
 41
0.0
 42
0.0
 43
0.0
 44
0.0
 45
0.0
 46
0.0
 47
0.0
 48
0.0
 49
0.0
140
0.0
141
0.0
142
1.0
143
1.0
 70
   688
 72
     1
 73
     0
 74
     5
  7

 75
    16
 76
     0
 77
     2
 78
   300
147
1.0
148
0.0
149
0.0
100
AcDbLayout
  1
Layout1
 70
     1
 71
     1
 10
0.0
 20
0.0
 11
420.0
 21
297.0
 12
0.0
 22
0.0
 32
0.0
 14
1.0000000000E+20
 24
1.0000000000E+20
 34
1.0000000000E+20
 15
-1.0000000000E+20
 25
-1.0000000000E+20
 35
-1.0000000000E+20
146
0.0
 13
0.0
 23
0.0
 33
0.0
 16
1.0
 26
0.0
 36
0.0
 17
0.0
 27
1.0
 37
0.0
 76
     0
330
1B
  0
LAYOUT
  5
26
102
{ACAD_REACTORS
330
1A
102
}
330
1A
100
AcDbPlotSettings
  1

  2
none_device
  4

  6

 40
0.0
 41
0.0
 42
0.0
 43
0.0
 44
0.0
 45
0.0
 46
0.0
 47
0.0
 48
0.0
 49
0.0
140
0.0
141
0.0
142
1.0
143
1.0
 70
   688
 72
     1
 73
     0
 74
     5
  7

 75
    16
 76
     0
 77
     2
 78
   300
147
1.0
148
0.0
149
0.0
100
AcDbLayout
  1
Layout2
 70
     1
 71
     2
 10
0.0
 20
0.0
 11
0.0
 21
0.0
 12
0.0
 22
0.0
 32
0.0
 14
0.0
 24
0.0
 34
0.0
 15
0.0
 25
0.0
 35
0.0
146
0.0
 13
0.0
 23
0.0
 33
0.0
 16
1.0
 26
0.0
 36
0.0
 17
0.0
 27
1.0
 37
0.0
 76
     0
330
23
  0
LAYOUT
  5
22
102
{ACAD_REACTORS
330
1A
102
}
330
1A
100
AcDbPlotSettings
  1

  2
none_device
  4
Letter_(8.50_x_11.00_Inches)
  6

 40
6.35
 41
6.35
 42
6.35000508
 43
6.35000508
 44
215.9
 45
279.4
 46
0.0
 47
0.0
 48
0.0
 49
0.0
140
0.0
141
0.0
142
1.0
143
1.0
 70
  1712
 72
     1
 73
     0
 74
     0
  7

 75
     0
 76
     0
 77
     2
 78
   300
147
1.0
148
0.0
149
0.0
100
AcDbLayout
  1
Model
 70
     1
 71
     0
 10
0.0
 20
0.0
 11
594.0
 21
420.0
 12
0.0
 22
0.0
 32
0.0
 14
0.0
 24
0.0
 34
0.0
 15
594.0
 25
420.0
 35
0.0
146
0.0
 13
0.0
 23
0.0
 33
0.0
 16
1.0
 26
0.0
 36
0.0
 17
0.0
 27
1.0
 37
0.0
 76
     0
330
1F
331
29
  0
MATERIAL
  5
45
102
{ACAD_REACTORS
330
43
102
}
330
43
100
AcDbMaterial
  1
ByBlock
 72
     1
 94
      127
  0
MATERIAL
  5
44
102
{ACAD_REACTORS
330
43
102
}
330
43
100
AcDbMaterial
  1
ByLayer
 72
     1
 94
      127
  0
MATERIAL
  5
46
102
{ACAD_REACTORS
330
43
102
}
330
43
100
AcDbMaterial
  1
Global
 72
     1
 94
      127
  0
MLEADERSTYLE
  5
6C
102
{ACAD_REACTORS
330
6B
102
}
330
6B
100
AcDbMLeaderStyle
179
     2
170
     2
171
     1
172
     0
 90
        2
 40
0.0
 41
0.0
173
     1
 91
-1056964608
340
14
 92
       -2
290
     1
 42
2.0
291
     1
 43
8.0
  3
Standard
341
0
 44
4.0
300

342
11
174
     1
178
     6
175
     1
176
     0
 93
-1056964608
 45
4.0
292
     0
297
     0
 46
4.0
343
0
 94
-1056964608
 47
1.0
 49
1.0
140
1.0
293
     1
141
0.0
294
     1
177
     0
142
1.0
295
     0
296
     0
143
3.75
271
     0
272
     9
273
     9
298
     0
  0
MLINESTYLE
  5
18
102
{ACAD_REACTORS
330
17
102
}
330
17
100
AcDbMlineStyle
  2
Standard
 70
     0
  3

 62
   256
 51
90.0
 52
90.0
 71
     2
 49
0.5
 62
   256
  6
BYLAYER
 49
-0.5
 62
   256
  6
BYLAYER
  0
ACDBPLACEHOLDER
  5
F
102
{ACAD_REACTORS
330
E
102
}
330
E
  0
SCALE
  5
48
102
{ACAD_REACTORS
330
47
102
}
330
47
100
AcDbScale
 70
     0
300
1:1
140
1.0
141
1.0
290
     1
  0
SCALE
  5
49
102
{ACAD_REACTORS
330
47
102
}
330
47
100
AcDbScale
 70
     0
300
1:2
140
1.0
141
2.0
290
     0
  0
SCALE
  5
4A
102
{ACAD_REACTORS
330
47
102
}
330
47
100
AcDbScale
 70
     0
300
1:4
140
1.0
141
4.0
290
     0
  0
SCALE
  5
4B
102
{ACAD_REACTORS
330
47
102
}
330
47
100
AcDbScale
 70
     0
300
1:5
140
1.0
141
5.0
290
     0
  0
SCALE
  5
4C
102
{ACAD_REACTORS
330
47
102
}
330
47
100
AcDbScale
 70
     0
300
1:8
140
1.0
141
8.0
290
     0
  0
SCALE
  5
4D
102
{ACAD_REACTORS
330
47
102
}
330
47
100
AcDbScale
 70
     0
300
1:10
140
1.0
141
10.0
290
     0
  0
SCALE
  5
4E
102
{ACAD_REACTORS
330
47
102
}
330
47
100
AcDbScale
 70
     0
300
1:16
140
1.0
141
16.0
290
     0
  0
SCALE
  5
4F
102
{ACAD_REACTORS
330
47
102
}
330
47
100
AcDbScale
 70
     0
300
1:20
140
1.0
141
20.0
290
     0
  0
SCALE
  5
50
102
{ACAD_REACTORS
330
47
102
}
330
47
100
AcDbScale
 70
     0
300
1:30
140
1.0
141
30.0
290
     0
  0
SCALE
  5
51
102
{ACAD_REACTORS
330
47
102
}
330
47
100
AcDbScale
 70
     0
300
1:40
140
1.0
141
40.0
290
     0
  0
SCALE
  5
52
102
{ACAD_REACTORS
330
47
102
}
330
47
100
AcDbScale
 70
     0
300
1:50
140
1.0
141
50.0
290
     0
  0
SCALE
  5
53
102
{ACAD_REACTORS
330
47
102
}
330
47
100
AcDbScale
 70
     0
300
1:100
140
1.0
141
100.0
290
     0
  0
SCALE
  5
54
102
{ACAD_REACTORS
330
47
102
}
330
47
100
AcDbScale
 70
     0
300
2:1
140
2.0
141
1.0
290
     0
  0
SCALE
  5
55
102
{ACAD_REACTORS
330
47
102
}
330
47
100
AcDbScale
 70
     0
300
4:1
140
4.0
141
1.0
290
     0
  0
SCALE
  5
56
102
{ACAD_REACTORS
330
47
102
}
330
47
100
AcDbScale
 70
     0
300
8:1
140
8.0
141
1.0
290
     0
  0
SCALE
  5
57
102
{ACAD_REACTORS
330
47
102
}
330
47
100
AcDbScale
 70
     0
300
10:1
140
10.0
141
1.0
290
     0
  0
SCALE
  5
58
102
{ACAD_REACTORS
330
47
102
}
330
47
100
AcDbScale
 70
     0
300
100:1
140
100.0
141
1.0
290
     0
  0
SCALE
  5
59
102
{ACAD_REACTORS
330
47
102
}
330
47
100
AcDbScale
 70
     0
300
1/128" = 1'-0"
140
0.0078125
141
12.0
290
     0
  0
SCALE
  5
5A
102
{ACAD_REACTORS
330
47
102
}
330
47
100
AcDbScale
 70
     0
300
1/64" = 1'-0"
140
0.015625
141
12.0
290
     0
  0
SCALE
  5
5B
102
{ACAD_REACTORS
330
47
102
}
330
47
100
AcDbScale
 70
     0
300
1/32" = 1'-0"
140
0.03125
141
12.0
290
     0
  0
SCALE
  5
5C
102
{ACAD_REACTORS
330
47
102
}
330
47
100
AcDbScale
 70
     0
300
1/16" = 1'-0"
140
0.0625
141
12.0
290
     0
  0
SCALE
  5
5D
102
{ACAD_REACTORS
330
47
102
}
330
47
100
AcDbScale
 70
     0
300
3/32" = 1'-0"
140
0.09375
141
12.0
290
     0
  0
SCALE
  5
5E
102
{ACAD_REACTORS
330
47
102
}
330
47
100
AcDbScale
 70
     0
300
1/8" = 1'-0"
140
0.125
141
12.0
290
     0
  0
SCALE
  5
5F
102
{ACAD_REACTORS
330
47
102
}
330
47
100
AcDbScale
 70
     0
300
3/16" = 1'-0"
140
0.1875
141
12.0
290
     0
  0
SCALE
  5
60
102
{ACAD_REACTORS
330
47
102
}
330
47
100
AcDbScale
 70
     0
300
1/4" = 1'-0"
140
0.25
141
12.0
290
     0
  0
SCALE
  5
61
102
{ACAD_REACTORS
330
47
102
}
330
47
100
AcDbScale
 70
     0
300
3/8" = 1'-0"
140
0.375
141
12.0
290
     0
  0
SCALE
  5
62
102
{ACAD_REACTORS
330
47
102
}
330
47
100
AcDbScale
 70
     0
300
1/2" = 1'-0"
140
0.5
141
12.0
290
     0
  0
SCALE
  5
63
102
{ACAD_REACTORS
330
47
102
}
330
47
100
AcDbScale
 70
     0
300
3/4" = 1'-0"
140
0.75
141
12.0
290
     0
  0
SCALE
  5
64
102
{ACAD_REACTORS
330
47
102
}
330
47
100
AcDbScale
 70
     0
300
1" = 1'-0"
140
1.0
141
12.0
290
     0
  0
SCALE
  5
65
102
{ACAD_REACTORS
330
47
102
}
330
47
100
AcDbScale
 70
     0
300
1-1/2" = 1'-0"
140
1.5
141
12.0
290
     0
  0
SCALE
  5
66
102
{ACAD_REACTORS
330
47
102
}
330
47
100
AcDbScale
 70
     0
300
3" = 1'-0"
140
3.0
141
12.0
290
     0
  0
SCALE
  5
67
102
{ACAD_REACTORS
330
47
102
}
330
47
100
AcDbScale
 70
     0
300
6" = 1'-0"
140
6.0
141
12.0
290
     0
  0
SCALE
  5
68
102
{ACAD_REACTORS
330
47
102
}
330
47
100
AcDbScale
 70
     0
300
1'-0" = 1'-0"
140
12.0
141
12.0
290
     0
  0
TABLESTYLE
  5
6A
102
{ACAD_REACTORS
330
69
102
}
102
{ACAD_XDICTIONARY
360
33B
102
}
330
69
100
AcDbTableStyle
  3
Standard
 70
     0
 71
     0
 40
0.06
 41
0.06
280
     0
281
     0
  7
Standard
140
4.5
170
     2
 62
     0
 63
   257
283
     0
 90
        4
 91
        0
  1

274
    -2
284
     1
 64
     0
275
    -2
285
     1
 65
     0
276
    -2
286
     1
 66
     0
277
    -2
287
     1
 67
     0
278
    -2
288
     1
 68
     0
279
    -2
289
     1
 69
     0
  7
Standard
140
6.0
170
     5
 62
     0
 63
   257
283
     0
 90
        4
 91
        0
  1

274
    -2
284
     1
 64
     0
275
    -2
285
     1
 65
     0
276
    -2
286
     1
 66
     0
277
    -2
287
     1
 67
     0
278
    -2
288
     1
 68
     0
279
    -2
289
     1
 69
     0
  7
Standard
140
4.5
170
     5
 62
     0
 63
   257
283
     0
 90
        4
 91
        0
  1

274
    -2
284
     1
 64
     0
275
    -2
285
     1
 65
     0
276
    -2
286
     1
 66
     0
277
    -2
287
     1
 67
     0
278
    -2
288
     1
 68
     0
279
    -2
289
     1
 69
     0
  0
VISUALSTYLE
  5
2F
102
{ACAD_REACTORS
330
2A
102
}
330
2A
100
AcDbVisualStyle
  2
2dWireframe
 70
     4
177
     3
291
     0
 70
    58
 90
        0
176
     1
 90
        2
176
     1
 90
        0
176
     1
 90
        0
176
     1
 40
0.6
176
     1
 40
30.0
176
     1
 62
     7
420
 16777215
176
     1
 90
        1
176
     1
 90
        4
176
     1
 62
     7
176
     1
 62
   257
176
     1
 90
        1
176
     1
 90
        1
176
     1
 40
1.0
176
     1
 90
        0
176
     1
 62
   257
176
     1
 40
1.0
176
     1
 90
        1
176
     1
 90
        6
176
     1
 90
        2
176
     1
 62
     7
176
     1
 90
        5
176
     1
 90
        0
176
     1
 90
        0
176
     1
290
     0
176
     1
 90
        1
176
     1
 40
0.0
176
     1
 90
        0
176
     1
290
     1
176
     1
290
     1
176
     1
290
     0
176
     1
290
     0
176
     1
290
     0
176
     1
290
     0
176
     1
290
     0
176
     1
290
     0
176
     1
290
     0
176
     1
 90
       50
176
     1
 40
0.0
176
     1
 40
1.0
176
     1
 90
        0
176
     1
 62
    18
420
        0
176
     1
 90
       50
176
     1
 90
        3
176
     1
 62
     5
420
      255
176
     1
290
     0
176
     1
 90
       50
176
     1
 90
       50
176
     1
 90
       50
176
     1
290
     0
176
     1
 90
       50
176
     1
 62
   256
176
     0
 40
1.0
176
     0
 90
        2
176
     1
  1
strokes_ogs.tif
176
     1
290
     0
176
     1
 40
1.0
176
     1
 40
1.0
176
     1
  0
VISUALSTYLE
  5
32
102
{ACAD_REACTORS
330
2A
102
}
330
2A
100
AcDbVisualStyle
  2
Basic
 70
     7
177
     3
291
     1
 70
    58
 90
        1
176
     1
 90
        0
176
     1
 90
        1
176
     1
 90
        0
176
     1
 40
0.6
176
     1
 40
30.0
176
     1
 62
     7
420
 16777215
176
     1
 90
        0
176
     1
 90
        4
176
     1
 62
     7
176
     1
 62
   257
176
     1
 90
        1
176
     1
 90
        1
176
     1
 40
1.0
176
     1
 90
        8
176
     1
 62
     7
176
     1
 40
1.0
176
     1
 90
        1
176
     1
 90
        6
176
     1
 90
        2
176
     1
 62
     7
176
     1
 90
        5
176
     1
 90
        0
176
     1
 90
        0
176
     1
290
     0
176
     1
 90
        1
176
     1
 40
0.0
176
     1
 90
        0
176
     1
290
     0
176
     1
290
     1
176
     1
290
     1
176
     1
290
     0
176
     1
290
     0
176
     1
290
     0
176
     1
290
     0
176
     1
290
     0
176
     1
290
     0
176
     1
 90
       50
176
     1
 40
0.0
176
     1
 40
1.0
176
     1
 90
        0
176
     1
 62
    18
420
        0
176
     1
 90
       50
176
     1
 90
        3
176
     1
 62
     5
420
      255
176
     1
290
     0
176
     1
 90
       50
176
     1
 90
       50
176
     1
 90
       50
176
     1
290
     0
176
     1
 90
       50
176
     1
 62
   256
176
     0
 40
1.0
176
     0
 90
        2
176
     1
  1
strokes_ogs.tif
176
     1
290
     0
176
     1
 40
1.0
176
     1
 40
1.0
176
     1
  0
VISUALSTYLE
  5
36
102
{ACAD_REACTORS
330
2A
102
}
330
2A
100
AcDbVisualStyle
  2
Brighten
 70
    12
177
     3
291
     1
 70
    58
 90
        2
176
     1
 90
        2
176
     1
 90
        0
176
     1
 90
        0
176
     1
 40
0.6
176
     1
 40
30.0
176
     1
 62
     7
420
 16777215
176
     1
 90
        1
176
     1
 90
        4
176
     1
 62
     7
176
     1
 62
   257
176
     1
 90
        1
176
     1
 90
        1
176
     1
 40
1.0
176
     1
 90
        8
176
     1
 62
     7
176
     1
 40
1.0
176
     1
 90
        1
176
     1
 90
        6
176
     1
 90
        2
176
     1
 62
     7
176
     1
 90
        5
176
     1
 90
        0
176
     1
 90
        0
176
     1
290
     0
176
     1
 90
        1
176
     1
 40
50.0
176
     1
 90
        0
176
     1
290
     0
176
     1
290
     1
176
     1
290
     1
176
     1
290
     0
176
     1
290
     0
176
     1
290
     0
176
     1
290
     0
176
     1
290
     0
176
     1
290
     0
176
     1
 90
       50
176
     1
 40
0.0
176
     1
 40
1.0
176
     1
 90
        0
176
     1
 62
    18
420
        0
176
     1
 90
       50
176
     1
 90
        3
176
     1
 62
     5
420
      255
176
     1
290
     0
176
     1
 90
       50
176
     1
 90
       50
176
     1
 90
       50
176
     1
290
     0
176
     1
 90
       50
176
     1
 62
   256
176
     0
 40
1.0
176
     0
 90
        2
176
     1
  1
strokes_ogs.tif
176
     1
290
     0
176
     1
 40
1.0
176
     1
 40
1.0
176
     1
  0
VISUALSTYLE
  5
3A
102
{ACAD_REACTORS
330
2A
102
}
330
2A
100
AcDbVisualStyle
  2
ColorChange
 70
    16
177
     3
291
     1
 70
    58
 90
        2
176
     1
 90
        2
176
     1
 90
        3
176
     1
 90
        0
176
     1
 40
0.6
176
     1
 40
30.0
176
     1
 62
     8
420
  8421504
176
     1
 90
        1
176
     1
 90
        4
176
     1
 62
     7
176
     1
 62
   257
176
     1
 90
        1
176
     1
 90
        1
176
     1
 40
1.0
176
     1
 90
        8
176
     1
 62
     8
420
  8421504
176
     1
 40
1.0
176
     1
 90
        1
176
     1
 90
        6
176
     1
 90
        2
176
     1
 62
     7
176
     1
 90
        5
176
     1
 90
        0
176
     1
 90
        0
176
     1
290
     0
176
     1
 90
        1
176
     1
 40
0.0
176
     1
 90
        0
176
     1
290
     0
176
     1
290
     1
176
     1
290
     1
176
     1
290
     0
176
     1
290
     0
176
     1
290
     0
176
     1
290
     0
176
     1
290
     0
176
     1
290
     0
176
     1
 90
       50
176
     1
 40
0.0
176
     1
 40
1.0
176
     1
 90
        0
176
     1
 62
    18
420
        0
176
     1
 90
       50
176
     1
 90
        3
176
     1
 62
     5
420
      255
176
     1
290
     0
176
     1
 90
       50
176
     1
 90
       50
176
     1
 90
       50
176
     1
290
     0
176
     1
 90
       50
176
     1
 62
   256
176
     0
 40
1.0
176
     0
 90
        2
176
     1
  1
strokes_ogs.tif
176
     1
290
     0
176
     1
 40
1.0
176
     1
 40
1.0
176
     1
  0
VISUALSTYLE
  5
34
102
{ACAD_REACTORS
330
2A
102
}
330
2A
100
AcDbVisualStyle
  2
Conceptual
 70
     9
177
     3
291
     0
 70
    58
 90
        3
176
     1
 90
        2
176
     1
 90
        0
176
     1
 90
        0
176
     1
 40
0.6
176
     1
 40
30.0
176
     1
 62
     7
420
 16777215
176
     1
 90
        2
176
     1
 90
        2
176
     1
 62
     7
176
     1
 62
   257
176
     1
 90
        1
176
     1
 90
        1
176
     1
 40
179.0
176
     1
 90
        8
176
     1
 62
     7
176
     1
 40
1.0
176
     1
 90
        1
176
     1
 90
        6
176
     1
 90
        2
176
     1
 62
     7
176
     1
 90
        3
176
     1
 90
        0
176
     1
 90
        0
176
     1
290
     0
176
     1
 90
        1
176
     1
 40
0.0
176
     1
 90
        0
176
     1
290
     0
176
     1
290
     1
176
     1
290
     1
176
     1
290
     0
176
     1
290
     0
176
     1
290
     0
176
     1
290
     0
176
     1
290
     0
176
     1
290
     0
176
     1
 90
       50
176
     1
 40
0.0
176
     1
 40
1.0
176
     1
 90
        0
176
     1
 62
    18
420
        0
176
     1
 90
       50
176
     1
 90
        3
176
     1
 62
     5
420
      255
176
     1
290
     0
176
     1
 90
       50
176
     1
 90
       50
176
     1
 90
       50
176
     1
290
     0
176
     1
 90
       50
176
     1
 62
   256
176
     0
 40
1.0
176
     0
 90
        2
176
     1
  1
strokes_ogs.tif
176
     1
290
     0
176
     1
 40
1.0
176
     1
 40
1.0
176
     1
  0
VISUALSTYLE
  5
35
102
{ACAD_REACTORS
330
2A
102
}
330
2A
100
AcDbVisualStyle
  2
Dim
 70
    11
177
     3
291
     1
 70
    58
 90
        2
176
     1
 90
        2
176
     1
 90
        0
176
     1
 90
        0
176
     1
 40
0.6
176
     1
 40
30.0
176
     1
 62
     7
420
 16777215
176
     1
 90
        1
176
     1
 90
        4
176
     1
 62
     7
176
     1
 62
   257
176
     1
 90
        1
176
     1
 90
        1
176
     1
 40
1.0
176
     1
 90
        8
176
     1
 62
     7
176
     1
 40
1.0
176
     1
 90
        1
176
     1
 90
        6
176
     1
 90
        2
176
     1
 62
     7
176
     1
 90
        5
176
     1
 90
        0
176
     1
 90
        0
176
     1
290
     0
176
     1
 90
        1
176
     1
 40
-50.0
176
     1
 90
        0
176
     1
290
     0
176
     1
290
     1
176
     1
290
     1
176
     1
290
     0
176
     1
290
     0
176
     1
290
     0
176
     1
290
     0
176
     1
290
     0
176
     1
290
     0
176
     1
 90
       50
176
     1
 40
0.0
176
     1
 40
1.0
176
     1
 90
        0
176
     1
 62
    18
420
        0
176
     1
 90
       50
176
     1
 90
        3
176
     1
 62
     5
420
      255
176
     1
290
     0
176
     1
 90
       50
176
     1
 90
       50
176
     1
 90
       50
176
     1
290
     0
176
     1
 90
       50
176
     1
 62
   256
176
     0
 40
1.0
176
     0
 90
        2
176
     1
  1
strokes_ogs.tif
176
     1
290
     0
176
     1
 40
1.0
176
     1
 40
1.0
176
     1
  0
VISUALSTYLE
  5
3D
102
{ACAD_REACTORS
330
2A
102
}
330
2A
100
AcDbVisualStyle
  2
EdgeColorOff
 70
    22
177
     3
291
     1
 70
    58
 90
        2
176
     0
 90
        2
176
     0
 90
        0
176
     0
 90
        0
176
     0
 40
0.6
176
     0
 40
30.0
176
     0
 62
     7
420
 16777215
176
     0
 90
        1
176
     0
 90
        4
176
     0
 62
     7
176
     0
 62
   257
176
     0
 90
        1
176
     0
 90
        1
176
     0
 40
1.0
176
     0
 90
        8
176
     2
 62
     7
176
     0
 40
1.0
176
     0
 90
        1
176
     0
 90
        6
176
     0
 90
        2
176
     0
 62
     7
176
     0
 90
        5
176
     0
 90
        0
176
     0
 90
        0
176
     0
290
     0
176
     0
 90
        1
176
     0
 40
0.0
176
     0
 90
        0
176
     0
290
     0
176
     0
290
     1
176
     0
290
     1
176
     0
290
     0
176
     0
290
     0
176
     0
290
     0
176
     0
290
     0
176
     0
290
     0
176
     0
290
     0
176
     0
 90
       50
176
     0
 40
0.0
176
     0
 40
1.0
176
     0
 90
        0
176
     0
 62
    18
420
        0
176
     0
 90
       50
176
     0
 90
        3
176
     0
 62
     5
420
      255
176
     0
290
     0
176
     0
 90
       50
176
     0
 90
       50
176
     0
 90
       50
176
     0
290
     0
176
     0
 90
       50
176
     0
 62
   256
176
     0
 40
1.0
176
     0
 90
        2
176
     0
  1
strokes_ogs.tif
176
     0
290
     0
176
     0
 40
1.0
176
     0
 40
1.0
176
     0
  0
VISUALSTYLE
  5
39
102
{ACAD_REACTORS
330
2A
102
}
330
2A
100
AcDbVisualStyle
  2
Facepattern
 70
    15
177
     3
291
     1
 70
    58
 90
        2
176
     1
 90
        2
176
     1
 90
        0
176
     1
 90
        0
176
     1
 40
0.6
176
     1
 40
30.0
176
     1
 62
     7
420
 16777215
176
     1
 90
        1
176
     1
 90
        4
176
     1
 62
     7
176
     1
 62
   257
176
     1
 90
        1
176
     1
 90
        1
176
     1
 40
1.0
176
     1
 90
        8
176
     1
 62
     7
176
     1
 40
1.0
176
     1
 90
        1
176
     1
 90
        6
176
     1
 90
        2
176
     1
 62
     7
176
     1
 90
        5
176
     1
 90
        0
176
     1
 90
        0
176
     1
290
     0
176
     1
 90
        1
176
     1
 40
0.0
176
     1
 90
        0
176
     1
290
     0
176
     1
290
     1
176
     1
290
     1
176
     1
290
     0
176
     1
290
     0
176
     1
290
     0
176
     1
290
     0
176
     1
290
     0
176
     1
290
     0
176
     1
 90
       50
176
     1
 40
0.0
176
     1
 40
1.0
176
     1
 90
        0
176
     1
 62
    18
420
        0
176
     1
 90
       50
176
     1
 90
        3
176
     1
 62
     5
420
      255
176
     1
290
     0
176
     1
 90
       50
176
     1
 90
       50
176
     1
 90
       50
176
     1
290
     0
176
     1
 90
       50
176
     1
 62
   256
176
     0
 40
1.0
176
     0
 90
        2
176
     1
  1
strokes_ogs.tif
176
     1
290
     0
176
     1
 40
1.0
176
     1
 40
1.0
176
     1
  0
VISUALSTYLE
  5
2B
102
{ACAD_REACTORS
330
2A
102
}
330
2A
100
AcDbVisualStyle
  2
Flat
 70
     0
177
     3
291
     1
 70
    58
 90
        2
176
     1
 90
        1
176
     1
 90
        1
176
     1
 90
        2
176
     1
 40
0.6
176
     1
 40
30.0
176
     1
 62
     7
420
 16777215
176
     1
 90
        0
176
     1
 90
        0
176
     1
 62
     7
176
     1
 62
   257
176
     1
 90
        1
176
     1
 90
        1
176
     1
 40
1.0
176
     1
 90
        8
176
     1
 62
     7
176
     1
 40
1.0
176
     1
 90
        1
176
     1
 90
        6
176
     1
 90
        2
176
     1
 62
     7
176
     1
 90
        5
176
     1
 90
        0
176
     1
 90
        0
176
     1
290
     0
176
     1
 90
       13
176
     1
 40
0.0
176
     1
 90
        0
176
     1
290
     0
176
     1
290
     1
176
     1
290
     1
176
     1
290
     0
176
     1
290
     0
176
     1
290
     0
176
     1
290
     0
176
     1
290
     0
176
     1
290
     0
176
     1
 90
       50
176
     1
 40
0.0
176
     1
 40
1.0
176
     1
 90
        0
176
     1
 62
    18
420
        0
176
     1
 90
       50
176
     1
 90
        3
176
     1
 62
     5
420
      255
176
     1
290
     0
176
     1
 90
       50
176
     1
 90
       50
176
     1
 90
       50
176
     1
290
     0
176
     1
 90
       50
176
     1
 62
   256
176
     0
 40
1.0
176
     0
 90
        2
176
     1
  1
strokes_ogs.tif
176
     1
290
     0
176
     1
 40
1.0
176
     1
 40
1.0
176
     1
  0
VISUALSTYLE
  5
2C
102
{ACAD_REACTORS
330
2A
102
}
330
2A
100
AcDbVisualStyle
  2
FlatWithEdges
 70
     1
177
     3
291
     1
 70
    58
 90
        2
176
     1
 90
        1
176
     1
 90
        1
176
     1
 90
        2
176
     1
 40
0.6
176
     1
 40
30.0
176
     1
 62
     7
420
 16777215
176
     1
 90
        1
176
     1
 90
        0
176
     1
 62
     7
176
     1
 62
   257
176
     1
 90
        1
176
     1
 90
        1
176
     1
 40
1.0
176
     1
 90
        0
176
     1
 62
   257
176
     1
 40
1.0
176
     1
 90
        1
176
     1
 90
        6
176
     1
 90
        2
176
     1
 62
     7
176
     1
 90
        5
176
     1
 90
        0
176
     1
 90
        0
176
     1
290
     0
176
     1
 90
       13
176
     1
 40
0.0
176
     1
 90
        0
176
     1
290
     0
176
     1
290
     1
176
     1
290
     1
176
     1
290
     0
176
     1
290
     0
176
     1
290
     0
176
     1
290
     0
176
     1
290
     0
176
     1
290
     0
176
     1
 90
       50
176
     1
 40
0.0
176
     1
 40
1.0
176
     1
 90
        0
176
     1
 62
    18
420
        0
176
     1
 90
       50
176
     1
 90
        3
176
     1
 62
     5
420
      255
176
     1
290
     0
176
     1
 90
       50
176
     1
 90
       50
176
     1
 90
       50
176
     1
290
     0
176
     1
 90
       50
176
     1
 62
   256
176
     0
 40
1.0
176
     0
 90
        2
176
     1
  1
strokes_ogs.tif
176
     1
290
     0
176
     1
 40
1.0
176
     1
 40
1.0
176
     1
  0
VISUALSTYLE
  5
2D
102
{ACAD_REACTORS
330
2A
102
}
330
2A
100
AcDbVisualStyle
  2
Gouraud
 70
     2
177
     3
291
     1
 70
    58
 90
        2
176
     1
 90
        2
176
     1
 90
        1
176
     1
 90
        2
176
     1
 40
0.6
176
     1
 40
30.0
176
     1
 62
     7
420
 16777215
176
     1
 90
        0
176
     1
 90
        0
176
     1
 62
     7
176
     1
 62
   257
176
     1
 90
        1
176
     1
 90
        1
176
     1
 40
1.0
176
     1
 90
        0
176
     1
 62
     7
176
     1
 40
1.0
176
     1
 90
        1
176
     1
 90
        6
176
     1
 90
        2
176
     1
 62
     7
176
     1
 90
        5
176
     1
 90
        0
176
     1
 90
        0
176
     1
290
     0
176
     1
 90
       13
176
     1
 40
0.0
176
     1
 90
        0
176
     1
290
     0
176
     1
290
     1
176
     1
290
     1
176
     1
290
     0
176
     1
290
     0
176
     1
290
     0
176
     1
290
     0
176
     1
290
     0
176
     1
290
     0
176
     1
 90
       50
176
     1
 40
0.0
176
     1
 40
1.0
176
     1
 90
        0
176
     1
 62
    18
420
        0
176
     1
 90
       50
176
     1
 90
        3
176
     1
 62
     5
420
      255
176
     1
290
     0
176
     1
 90
       50
176
     1
 90
       50
176
     1
 90
       50
176
     1
290
     0
176
     1
 90
       50
176
     1
 62
   256
176
     0
 40
1.0
176
     0
 90
        2
176
     1
  1
strokes_ogs.tif
176
     1
290
     0
176
     1
 40
1.0
176
     1
 40
1.0
176
     1
  0
VISUALSTYLE
  5
2E
102
{ACAD_REACTORS
330
2A
102
}
330
2A
100
AcDbVisualStyle
  2
GouraudWithEdges
 70
     3
177
     3
291
     1
 70
    58
 90
        2
176
     1
 90
        2
176
     1
 90
        1
176
     1
 90
        2
176
     1
 40
0.6
176
     1
 40
30.0
176
     1
 62
     7
420
 16777215
176
     1
 90
        1
176
     1
 90
        0
176
     1
 62
     7
176
     1
 62
   257
176
     1
 90
        1
176
     1
 90
        1
176
     1
 40
1.0
176
     1
 90
        0
176
     1
 62
   257
176
     1
 40
1.0
176
     1
 90
        1
176
     1
 90
        6
176
     1
 90
        2
176
     1
 62
     7
176
     1
 90
        5
176
     1
 90
        0
176
     1
 90
        0
176
     1
290
     0
176
     1
 90
       13
176
     1
 40
0.0
176
     1
 90
        0
176
     1
290
     0
176
     1
290
     1
176
     1
290
     1
176
     1
290
     0
176
     1
290
     0
176
     1
290
     0
176
     1
290
     0
176
     1
290
     0
176
     1
290
     0
176
     1
 90
       50
176
     1
 40
0.0
176
     1
 40
1.0
176
     1
 90
        0
176
     1
 62
    18
420
        0
176
     1
 90
       50
176
     1
 90
        3
176
     1
 62
     5
420
      255
176
     1
290
     0
176
     1
 90
       50
176
     1
 90
       50
176
     1
 90
       50
176
     1
290
     0
176
     1
 90
       50
176
     1
 62
   256
176
     0
 40
1.0
176
     0
 90
        2
176
     1
  1
strokes_ogs.tif
176
     1
290
     0
176
     1
 40
1.0
176
     1
 40
1.0
176
     1
  0
VISUALSTYLE
  5
31
102
{ACAD_REACTORS
330
2A
102
}
330
2A
100
AcDbVisualStyle
  2
Hidden
 70
     6
177
     3
291
     0
 70
    58
 90
        1
176
     1
 90
        2
176
     1
 90
        2
176
     1
 90
        0
176
     1
 40
0.6
176
     1
 40
30.0
176
     1
 62
     7
420
 16777215
176
     1
 90
        2
176
     1
 90
        2
176
     1
 62
     7
176
     1
 62
   257
176
     1
 90
        2
176
     1
 90
        1
176
     1
 40
40.0
176
     1
 90
        0
176
     1
 62
   257
176
     1
 40
1.0
176
     1
 90
        1
176
     1
 90
        6
176
     1
 90
        2
176
     1
 62
     7
176
     1
 90
        3
176
     1
 90
        0
176
     1
 90
        0
176
     1
290
     0
176
     1
 90
        1
176
     1
 40
0.0
176
     1
 90
        0
176
     1
290
     0
176
     1
290
     1
176
     1
290
     1
176
     1
290
     0
176
     1
290
     0
176
     1
290
     0
176
     1
290
     0
176
     1
290
     0
176
     1
290
     0
176
     1
 90
       50
176
     1
 40
0.0
176
     1
 40
1.0
176
     1
 90
        0
176
     1
 62
    18
420
        0
176
     1
 90
       50
176
     1
 90
        3
176
     1
 62
     5
420
      255
176
     1
290
     0
176
     1
 90
       50
176
     1
 90
       50
176
     1
 90
       50
176
     1
290
     0
176
     1
 90
       50
176
     1
 62
   256
176
     0
 40
1.0
176
     0
 90
        2
176
     1
  1
strokes_ogs.tif
176
     1
290
     0
176
     1
 40
1.0
176
     1
 40
1.0
176
     1
  0
VISUALSTYLE
  5
3B
102
{ACAD_REACTORS
330
2A
102
}
330
2A
100
AcDbVisualStyle
  2
JitterOff
 70
    20
177
     3
291
     1
 70
    58
 90
        2
176
     0
 90
        2
176
     0
 90
        0
176
     0
 90
        0
176
     0
 40
0.6
176
     0
 40
30.0
176
     0
 62
     7
420
 16777215
176
     0
 90
        1
176
     0
 90
        4
176
     0
 62
     7
176
     0
 62
   257
176
     0
 90
        1
176
     0
 90
        1
176
     0
 40
1.0
176
     0
 90
       10
176
     2
 62
     7
176
     0
 40
1.0
176
     0
 90
        1
176
     0
 90
        6
176
     0
 90
        2
176
     0
 62
     7
176
     0
 90
        5
176
     0
 90
        0
176
     0
 90
        0
176
     0
290
     0
176
     0
 90
        1
176
     0
 40
0.0
176
     0
 90
        0
176
     0
290
     0
176
     0
290
     1
176
     0
290
     1
176
     0
290
     0
176
     0
290
     0
176
     0
290
     0
176
     0
290
     0
176
     0
290
     0
176
     0
290
     0
176
     0
 90
       50
176
     0
 40
0.0
176
     0
 40
1.0
176
     0
 90
        0
176
     0
 62
    18
420
        0
176
     0
 90
       50
176
     0
 90
        3
176
     0
 62
     5
420
      255
176
     0
290
     0
176
     0
 90
       50
176
     0
 90
       50
176
     0
 90
       50
176
     0
290
     0
176
     0
 90
       50
176
     0
 62
   256
176
     0
 40
1.0
176
     0
 90
        2
176
     0
  1
strokes_ogs.tif
176
     0
290
     0
176
     0
 40
1.0
176
     0
 40
1.0
176
     0
  0
VISUALSTYLE
  5
38
102
{ACAD_REACTORS
330
2A
102
}
330
2A
100
AcDbVisualStyle
  2
Linepattern
 70
    14
177
     3
291
     1
 70
    58
 90
        2
176
     1
 90
        2
176
     1
 90
        0
176
     1
 90
        0
176
     1
 40
0.6
176
     1
 40
30.0
176
     1
 62
     7
420
 16777215
176
     1
 90
        1
176
     1
 90
        4
176
     1
 62
     7
176
     1
 62
   257
176
     1
 90
        7
176
     1
 90
        7
176
     1
 40
1.0
176
     1
 90
        8
176
     1
 62
     7
176
     1
 40
1.0
176
     1
 90
        1
176
     1
 90
        6
176
     1
 90
        2
176
     1
 62
     7
176
     1
 90
        5
176
     1
 90
        0
176
     1
 90
        0
176
     1
290
     0
176
     1
 90
        1
176
     1
 40
0.0
176
     1
 90
        0
176
     1
290
     0
176
     1
290
     1
176
     1
290
     1
176
     1
290
     0
176
     1
290
     0
176
     1
290
     0
176
     1
290
     0
176
     1
290
     0
176
     1
290
     0
176
     1
 90
       50
176
     1
 40
0.0
176
     1
 40
1.0
176
     1
 90
        0
176
     1
 62
    18
420
        0
176
     1
 90
       50
176
     1
 90
        3
176
     1
 62
     5
420
      255
176
     1
290
     0
176
     1
 90
       50
176
     1
 90
       50
176
     1
 90
       50
176
     1
290
     0
176
     1
 90
       50
176
     1
 62
   256
176
     0
 40
1.0
176
     0
 90
        2
176
     1
  1
strokes_ogs.tif
176
     1
290
     0
176
     1
 40
1.0
176
     1
 40
1.0
176
     1
  0
VISUALSTYLE
  5
3C
102
{ACAD_REACTORS
330
2A
102
}
330
2A
100
AcDbVisualStyle
  2
OverhangOff
 70
    21
177
     3
291
     1
 70
    58
 90
        2
176
     0
 90
        2
176
     0
 90
        0
176
     0
 90
        0
176
     0
 40
0.6
176
     0
 40
30.0
176
     0
 62
     7
420
 16777215
176
     0
 90
        1
176
     0
 90
        4
176
     0
 62
     7
176
     0
 62
   257
176
     0
 90
        1
176
     0
 90
        1
176
     0
 40
1.0
176
     0
 90
        9
176
     2
 62
     7
176
     0
 40
1.0
176
     0
 90
        1
176
     0
 90
        6
176
     0
 90
        2
176
     0
 62
     7
176
     0
 90
        5
176
     0
 90
        0
176
     0
 90
        0
176
     0
290
     0
176
     0
 90
        1
176
     0
 40
0.0
176
     0
 90
        0
176
     0
290
     0
176
     0
290
     1
176
     0
290
     1
176
     0
290
     0
176
     0
290
     0
176
     0
290
     0
176
     0
290
     0
176
     0
290
     0
176
     0
290
     0
176
     0
 90
       50
176
     0
 40
0.0
176
     0
 40
1.0
176
     0
 90
        0
176
     0
 62
    18
420
        0
176
     0
 90
       50
176
     0
 90
        3
176
     0
 62
     5
420
      255
176
     0
290
     0
176
     0
 90
       50
176
     0
 90
       50
176
     0
 90
       50
176
     0
290
     0
176
     0
 90
       50
176
     0
 62
   256
176
     0
 40
1.0
176
     0
 90
        2
176
     0
  1
strokes_ogs.tif
176
     0
290
     0
176
     0
 40
1.0
176
     0
 40
1.0
176
     0
  0
VISUALSTYLE
  5
33
102
{ACAD_REACTORS
330
2A
102
}
330
2A
100
AcDbVisualStyle
  2
Realistic
 70
     8
177
     3
291
     0
 70
    58
 90
        2
176
     1
 90
        3
176
     1
 90
        0
176
     1
 90
        2
176
     1
 40
0.6
176
     1
 40
30.0
176
     1
 62
     7
420
 16777215
176
     1
 90
        0
176
     1
 90
        0
176
     1
 62
     7
176
     1
 62
   257
176
     1
 90
        1
176
     1
 90
        1
176
     1
 40
1.0
176
     1
 90
        8
176
     1
 62
   257
176
     1
 40
1.0
176
     1
 90
        1
176
     1
 90
        6
176
     1
 90
        2
176
     1
 62
     7
176
     1
 90
        3
176
     1
 90
        0
176
     1
 90
        0
176
     1
290
     0
176
     1
 90
       13
176
     1
 40
0.0
176
     1
 90
        0
176
     1
290
     0
176
     1
290
     1
176
     1
290
     1
176
     1
290
     0
176
     1
290
     0
176
     1
290
     0
176
     1
290
     0
176
     1
290
     0
176
     1
290
     0
176
     1
 90
       50
176
     1
 40
0.0
176
     1
 40
1.0
176
     1
 90
        0
176
     1
 62
    18
420
        0
176
     1
 90
       50
176
     1
 90
        3
176
     1
 62
     5
420
      255
176
     1
290
     0
176
     1
 90
       50
176
     1
 90
       50
176
     1
 90
       50
176
     1
290
     0
176
     1
 90
       50
176
     1
 62
   256
176
     0
 40
1.0
176
     0
 90
        2
176
     1
  1
strokes_ogs.tif
176
     1
290
     0
176
     1
 40
1.0
176
     1
 40
1.0
176
     1
  0
VISUALSTYLE
  5
42
102
{ACAD_REACTORS
330
2A
102
}
330
2A
100
AcDbVisualStyle
  2
Shaded
 70
    27
177
     3
291
     0
 70
    58
 90
        2
176
     1
 90
        2
176
     1
 90
        1
176
     1
 90
        2
176
     1
 40
0.6
176
     1
 40
30.0
176
     1
 62
     7
420
 16777215
176
     1
 90
        0
176
     1
 90
        4
176
     1
 62
     7
176
     1
 62
   257
176
     1
 90
        1
176
     1
 90
        1
176
     1
 40
1.0
176
     1
 90
        8
176
     1
 62
   257
176
     1
 40
1.0
176
     1
 90
        1
176
     1
 90
        6
176
     1
 90
        2
176
     1
 62
     8
420
  7895160
176
     1
 90
        3
176
     1
 90
        0
176
     1
 90
        0
176
     1
290
     0
176
     1
 90
        5
176
     1
 40
0.0
176
     1
 90
        0
176
     1
290
     0
176
     1
290
     1
176
     1
290
     1
176
     1
290
     0
176
     1
290
     0
176
     1
290
     0
176
     1
290
     0
176
     1
290
     0
176
     1
290
     0
176
     1
 90
       50
176
     1
 40
0.0
176
     1
 40
1.0
176
     1
 90
        0
176
     1
 62
    18
420
        0
176
     1
 90
       50
176
     1
 90
        3
176
     1
 62
     5
420
      255
176
     1
290
     0
176
     1
 90
       50
176
     1
 90
       50
176
     1
 90
       50
176
     1
290
     0
176
     1
 90
       50
176
     1
 62
   256
176
     0
 40
1.0
176
     0
 90
        2
176
     1
  1
strokes_ogs.tif
176
     1
290
     0
176
     1
 40
1.0
176
     1
 40
1.0
176
     1
  0
VISUALSTYLE
  5
41
102
{ACAD_REACTORS
330
2A
102
}
330
2A
100
AcDbVisualStyle
  2
Shaded with edges
 70
    26
177
     3
291
     0
 70
    58
 90
        2
176
     1
 90
        2
176
     1
 90
        1
176
     1
 90
        2
176
     1
 40
0.6
176
     1
 40
30.0
176
     1
 62
     7
420
 16777215
176
     1
 90
        1
176
     1
 90
       10
176
     1
 62
     7
176
     1
 62
   257
176
     1
 90
        2
176
     1
 90
        1
176
     1
 40
1.0
176
     1
 90
        8
176
     1
 62
   257
176
     1
 40
1.0
176
     1
 90
        1
176
     1
 90
        6
176
     1
 90
        2
176
     1
 62
     7
176
     1
 90
        3
176
     1
 90
        0
176
     1
 90
        0
176
     1
290
     0
176
     1
 90
        5
176
     1
 40
0.0
176
     1
 90
        0
176
     1
290
     0
176
     1
290
     1
176
     1
290
     1
176
     1
290
     0
176
     1
290
     0
176
     1
290
     0
176
     1
290
     0
176
     1
290
     0
176
     1
290
     0
176
     1
 90
       50
176
     1
 40
0.0
176
     1
 40
1.0
176
     1
 90
        0
176
     1
 62
    18
420
        0
176
     1
 90
       50
176
     1
 90
        3
176
     1
 62
     5
420
      255
176
     1
290
     0
176
     1
 90
       50
176
     1
 90
       50
176
     1
 90
       50
176
     1
290
     0
176
     1
 90
       50
176
     1
 62
   256
176
     0
 40
1.0
176
     0
 90
        2
176
     1
  1
strokes_ogs.tif
176
     1
290
     0
176
     1
 40
1.0
176
     1
 40
1.0
176
     1
  0
VISUALSTYLE
  5
3E
102
{ACAD_REACTORS
330
2A
102
}
330
2A
100
AcDbVisualStyle
  2
Shades of Gray
 70
    23
177
     3
291
     0
 70
    58
 90
        2
176
     1
 90
        2
176
     1
 90
        3
176
     1
 90
        0
176
     1
 40
0.6
176
     1
 40
30.0
176
     1
 62
     7
420
 16777215
176
     1
 90
        2
176
     1
 90
        2
176
     1
 62
     7
176
     1
 62
     7
176
     1
 90
        1
176
     1
 90
        1
176
     1
 40
40.0
176
     1
 90
        8
176
     1
 62
     7
176
     1
 40
1.0
176
     1
 90
        1
176
     1
 90
        6
176
     1
 90
        2
176
     1
 62
     7
176
     1
 90
        3
176
     1
 90
        0
176
     1
 90
        0
176
     1
290
     0
176
     1
 90
        1
176
     1
 40
0.0
176
     1
 90
        0
176
     1
290
     0
176
     1
290
     1
176
     1
290
     1
176
     1
290
     0
176
     1
290
     0
176
     1
290
     0
176
     1
290
     0
176
     1
290
     0
176
     1
290
     0
176
     1
 90
       50
176
     1
 40
0.0
176
     1
 40
1.0
176
     1
 90
        0
176
     1
 62
    18
420
        0
176
     1
 90
       50
176
     1
 90
        3
176
     1
 62
     5
420
      255
176
     1
290
     0
176
     1
 90
       50
176
     1
 90
       50
176
     1
 90
       50
176
     1
290
     0
176
     1
 90
       50
176
     1
 62
   256
176
     0
 40
1.0
176
     0
 90
        2
176
     1
  1
strokes_ogs.tif
176
     1
290
     0
176
     1
 40
1.0
176
     1
 40
1.0
176
     1
  0
VISUALSTYLE
  5
3F
102
{ACAD_REACTORS
330
2A
102
}
330
2A
100
AcDbVisualStyle
  2
Sketchy
 70
    24
177
     3
291
     0
 70
    58
 90
        1
176
     1
 90
        2
176
     1
 90
        2
176
     1
 90
        0
176
     1
 40
0.6
176
     1
 40
30.0
176
     1
 62
     7
420
 16777215
176
     1
 90
        2
176
     1
 90
        2
176
     1
 62
     7
176
     1
 62
     7
176
     1
 90
        1
176
     1
 90
        1
176
     1
 40
40.0
176
     1
 90
       11
176
     1
 62
     7
176
     1
 40
1.0
176
     1
 90
        1
176
     1
 90
        6
176
     1
 90
        2
176
     1
 62
     7
176
     1
 90
        6
176
     1
 90
        0
176
     1
 90
        0
176
     1
290
     0
176
     1
 90
        1
176
     1
 40
0.0
176
     1
 90
        0
176
     1
290
     0
176
     1
290
     1
176
     1
290
     1
176
     1
290
     0
176
     1
290
     0
176
     1
290
     0
176
     1
290
     0
176
     1
290
     0
176
     1
290
     0
176
     1
 90
       50
176
     1
 40
0.0
176
     1
 40
1.0
176
     1
 90
        0
176
     1
 62
    18
420
        0
176
     1
 90
       50
176
     1
 90
        3
176
     1
 62
     5
420
      255
176
     1
290
     0
176
     1
 90
       50
176
     1
 90
       50
176
     1
 90
       50
176
     1
290
     0
176
     1
 90
       50
176
     1
 62
   256
176
     0
 40
1.0
176
     0
 90
        2
176
     1
  1
strokes_ogs.tif
176
     1
290
     0
176
     1
 40
1.0
176
     1
 40
1.0
176
     1
  0
VISUALSTYLE
  5
37
102
{ACAD_REACTORS
330
2A
102
}
330
2A
100
AcDbVisualStyle
  2
Thicken
 70
    13
177
     3
291
     1
 70
    58
 90
        2
176
     1
 90
        2
176
     1
 90
        0
176
     1
 90
        0
176
     1
 40
0.6
176
     1
 40
30.0
176
     1
 62
     7
420
 16777215
176
     1
 90
        1
176
     1
 90
        4
176
     1
 62
     7
176
     1
 62
   257
176
     1
 90
        1
176
     1
 90
        1
176
     1
 40
1.0
176
     1
 90
       12
176
     1
 62
     7
176
     1
 40
1.0
176
     1
 90
        1
176
     1
 90
        6
176
     1
 90
        2
176
     1
 62
     7
176
     1
 90
        5
176
     1
 90
        0
176
     1
 90
        0
176
     1
290
     0
176
     1
 90
        1
176
     1
 40
0.0
176
     1
 90
        0
176
     1
290
     0
176
     1
290
     1
176
     1
290
     1
176
     1
290
     0
176
     1
290
     0
176
     1
290
     0
176
     1
290
     0
176
     1
290
     0
176
     1
290
     0
176
     1
 90
       50
176
     1
 40
0.0
176
     1
 40
1.0
176
     1
 90
        0
176
     1
 62
    18
420
        0
176
     1
 90
       50
176
     1
 90
        3
176
     1
 62
     5
420
      255
176
     1
290
     0
176
     1
 90
       50
176
     1
 90
       50
176
     1
 90
       50
176
     1
290
     0
176
     1
 90
       50
176
     1
 62
   256
176
     0
 40
1.0
176
     0
 90
        2
176
     1
  1
strokes_ogs.tif
176
     1
290
     0
176
     1
 40
1.0
176
     1
 40
1.0
176
     1
  0
VISUALSTYLE
  5
30
102
{ACAD_REACTORS
330
2A
102
}
330
2A
100
AcDbVisualStyle
  2
Wireframe
 70
     5
177
     3
291
     0
 70
    58
 90
        0
176
     1
 90
        2
176
     1
 90
        0
176
     1
 90
        0
176
     1
 40
0.6
176
     1
 40
30.0
176
     1
 62
     7
420
 16777215
176
     1
 90
        1
176
     1
 90
        4
176
     1
 62
     7
176
     1
 62
   257
176
     1
 90
        1
176
     1
 90
        1
176
     1
 40
1.0
176
     1
 90
        0
176
     1
 62
   257
176
     1
 40
1.0
176
     1
 90
        1
176
     1
 90
        6
176
     1
 90
        2
176
     1
 62
     7
176
     1
 90
        3
176
     1
 90
        0
176
     1
 90
        0
176
     1
290
     0
176
     1
 90
        1
176
     1
 40
0.0
176
     1
 90
        0
176
     1
290
     0
176
     1
290
     1
176
     1
290
     1
176
     1
290
     0
176
     1
290
     0
176
     1
290
     0
176
     1
290
     0
176
     1
290
     0
176
     1
290
     0
176
     1
 90
       50
176
     1
 40
0.0
176
     1
 40
1.0
176
     1
 90
        0
176
     1
 62
    18
420
        0
176
     1
 90
       50
176
     1
 90
        3
176
     1
 62
     5
420
      255
176
     1
290
     0
176
     1
 90
       50
176
     1
 90
       50
176
     1
 90
       50
176
     1
290
     0
176
     1
 90
       50
176
     1
 62
   256
176
     0
 40
1.0
176
     0
 90
        2
176
     1
  1
strokes_ogs.tif
176
     1
290
     0
176
     1
 40
1.0
176
     1
 40
1.0
176
     1
  0
VISUALSTYLE
  5
40
102
{ACAD_REACTORS
330
2A
102
}
330
2A
100
AcDbVisualStyle
  2
X-Ray
 70
    25
177
     3
291
     0
 70
    58
 90
        2
176
     1
 90
        2
176
     1
 90
        1
176
     1
 90
        1
176
     1
 40
0.5
176
     1
 40
30.0
176
     1
 62
     7
420
 16777215
176
     1
 90
        1
176
     1
 90
        0
176
     1
 62
     7
176
     1
 62
   257
176
     1
 90
        1
176
     1
 90
        1
176
     1
 40
1.0
176
     1
 90
        8
176
     1
 62
     7
176
     1
 40
1.0
176
     1
 90
        1
176
     1
 90
        6
176
     1
 90
        2
176
     1
 62
     7
176
     1
 90
        3
176
     1
 90
        0
176
     1
 90
        0
176
     1
290
     0
176
     1
 90
       13
176
     1
 40
0.0
176
     1
 90
        0
176
     1
290
     0
176
     1
290
     1
176
     1
290
     1
176
     1
290
     0
176
     1
290
     0
176
     1
290
     0
176
     1
290
     0
176
     1
290
     0
176
     1
290
     0
176
     1
 90
       50
176
     1
 40
0.0
176
     1
 40
1.0
176
     1
 90
        0
176
     1
 62
    18
420
        0
176
     1
 90
       50
176
     1
 90
        3
176
     1
 62
     5
420
      255
176
     1
290
     0
176
     1
 90
       50
176
     1
 90
       50
176
     1
 90
       50
176
     1
290
     0
176
     1
 90
       50
176
     1
 62
   256
176
     0
 40
1.0
176
     0
 90
        2
176
     1
  1
strokes_ogs.tif
176
     1
290
     0
176
     1
 40
1.0
176
     1
 40
1.0
176
     1
  0
DICTIONARYVAR
  5
33A
102
{ACAD_REACTORS
330
339
102
}
330
339
100
DictionaryVariables
280
     0
  1
1:1
  0
DICTIONARYVAR
  5
33F
102
{ACAD_REACTORS
330
339
102
}
330
339
100
DictionaryVariables
280
     0
  1
Standard
  0
DICTIONARYVAR
  5
33E
102
{ACAD_REACTORS
330
339
102
}
330
339
100
DictionaryVariables
280
     0
  1
Standard
  0
DICTIONARYVAR
  5
342
102
{ACAD_REACTORS
330
339
102
}
330
339
100
DictionaryVariables
280
     0
  1
6.000000
  0
DICTIONARY
  5
33B
330
6A
100
AcDbDictionary
280
     1
281
     1
  3
ACAD_ROUNDTRIP_2008_TABLESTYLE_CELLSTYLEMAP
360
33C
  0
CELLSTYLEMAP
  5
33C
102
{ACAD_REACTORS
330
33B
102
}
330
33B
100
AcDbCellStyleMap
 90
        3
300
CELLSTYLE
  1
TABLEFORMAT_BEGIN
 90
        5
170
     1
 91
        0
 92
    32768
 62
   257
 93
        1
300
CONTENTFORMAT
  1
CONTENTFORMAT_BEGIN
 90
        0
 91
        0
 92
        4
 93
        0
300

 40
0.0
140
1.0
 94
        5
 62
     0
340
11
144
6.0
309
CONTENTFORMAT_END
171
     1
301
MARGIN
  1
CELLMARGIN_BEGIN
 40
1.5
 40
1.5
 40
1.5
 40
1.5
 40
1.5
 40
1.5
309
CELLMARGIN_END
 94
        6
 95
        1
302
GRIDFORMAT
  1
GRIDFORMAT_BEGIN
 90
        0
 91
        1
 62
     0
 92
       -2
340
14
 93
        0
 40
0.045
309
GRIDFORMAT_END
 95
        2
302
GRIDFORMAT
  1
GRIDFORMAT_BEGIN
 90
        0
 91
        1
 62
     0
 92
       -2
340
14
 93
        0
 40
0.045
309
GRIDFORMAT_END
 95
        4
302
GRIDFORMAT
  1
GRIDFORMAT_BEGIN
 90
        0
 91
        1
 62
     0
 92
       -2
340
14
 93
        0
 40
0.045
309
GRIDFORMAT_END
 95
        8
302
GRIDFORMAT
  1
GRIDFORMAT_BEGIN
 90
        0
 91
        1
 62
     0
 92
       -2
340
14
 93
        0
 40
0.045
309
GRIDFORMAT_END
 95
       16
302
GRIDFORMAT
  1
GRIDFORMAT_BEGIN
 90
        0
 91
        1
 62
     0
 92
       -2
340
14
 93
        0
 40
0.045
309
GRIDFORMAT_END
 95
       32
302
GRIDFORMAT
  1
GRIDFORMAT_BEGIN
 90
        0
 91
        1
 62
     0
 92
       -2
340
14
 93
        0
 40
0.045
309
GRIDFORMAT_END
309
TABLEFORMAT_END
  1
CELLSTYLE_BEGIN
 90
        1
 91
        1
300
_TITLE
309
CELLSTYLE_END
300
CELLSTYLE
  1
TABLEFORMAT_BEGIN
 90
        5
170
     1
 91
        0
 92
        0
 62
   257
 93
        1
300
CONTENTFORMAT
  1
CONTENTFORMAT_BEGIN
 90
        0
 91
        0
 92
        4
 93
        0
300

 40
0.0
140
1.0
 94
        5
 62
     0
340
11
144
4.5
309
CONTENTFORMAT_END
171
     1
301
MARGIN
  1
CELLMARGIN_BEGIN
 40
1.5
 40
1.5
 40
1.5
 40
1.5
 40
1.5
 40
1.5
309
CELLMARGIN_END
 94
        6
 95
        1
302
GRIDFORMAT
  1
GRIDFORMAT_BEGIN
 90
        0
 91
        1
 62
     0
 92
       -2
340
14
 93
        0
 40
0.045
309
GRIDFORMAT_END
 95
        2
302
GRIDFORMAT
  1
GRIDFORMAT_BEGIN
 90
        0
 91
        1
 62
     0
 92
       -2
340
14
 93
        0
 40
0.045
309
GRIDFORMAT_END
 95
        4
302
GRIDFORMAT
  1
GRIDFORMAT_BEGIN
 90
        0
 91
        1
 62
     0
 92
       -2
340
14
 93
        0
 40
0.045
309
GRIDFORMAT_END
 95
        8
302
GRIDFORMAT
  1
GRIDFORMAT_BEGIN
 90
        0
 91
        1
 62
     0
 92
       -2
340
14
 93
        0
 40
0.045
309
GRIDFORMAT_END
 95
       16
302
GRIDFORMAT
  1
GRIDFORMAT_BEGIN
 90
        0
 91
        1
 62
     0
 92
       -2
340
14
 93
        0
 40
0.045
309
GRIDFORMAT_END
 95
       32
302
GRIDFORMAT
  1
GRIDFORMAT_BEGIN
 90
        0
 91
        1
 62
     0
 92
       -2
340
14
 93
        0
 40
0.045
309
GRIDFORMAT_END
309
TABLEFORMAT_END
  1
CELLSTYLE_BEGIN
 90
        2
 91
        1
300
_HEADER
309
CELLSTYLE_END
300
CELLSTYLE
  1
TABLEFORMAT_BEGIN
 90
        5
170
     1
 91
        0
 92
        0
 62
   257
 93
        1
300
CONTENTFORMAT
  1
CONTENTFORMAT_BEGIN
 90
        0
 91
        0
 92
        4
 93
        0
300

 40
0.0
140
1.0
 94
        2
 62
     0
340
11
144
4.5
309
CONTENTFORMAT_END
171
     1
301
MARGIN
  1
CELLMARGIN_BEGIN
 40
1.5
 40
1.5
 40
1.5
 40
1.5
 40
1.5
 40
1.5
309
CELLMARGIN_END
 94
        6
 95
        1
302
GRIDFORMAT
  1
GRIDFORMAT_BEGIN
 90
        0
 91
        1
 62
     0
 92
       -2
340
14
 93
        0
 40
0.045
309
GRIDFORMAT_END
 95
        2
302
GRIDFORMAT
  1
GRIDFORMAT_BEGIN
 90
        0
 91
        1
 62
     0
 92
       -2
340
14
 93
        0
 40
0.045
309
GRIDFORMAT_END
 95
        4
302
GRIDFORMAT
  1
GRIDFORMAT_BEGIN
 90
        0
 91
        1
 62
     0
 92
       -2
340
14
 93
        0
 40
0.045
309
GRIDFORMAT_END
 95
        8
302
GRIDFORMAT
  1
GRIDFORMAT_BEGIN
 90
        0
 91
        1
 62
     0
 92
       -2
340
14
 93
        0
 40
0.045
309
GRIDFORMAT_END
 95
       16
302
GRIDFORMAT
  1
GRIDFORMAT_BEGIN
 90
        0
 91
        1
 62
     0
 92
       -2
340
14
 93
        0
 40
0.045
309
GRIDFORMAT_END
 95
       32
302
GRIDFORMAT
  1
GRIDFORMAT_BEGIN
 90
        0
 91
        1
 62
     0
 92
       -2
340
14
 93
        0
 40
0.045
309
GRIDFORMAT_END
309
TABLEFORMAT_END
  1
CELLSTYLE_BEGIN
 90
        3
 91
        2
300
_DATA
309
CELLSTYLE_END
  0
ENDSEC
  0
EOF
