  0
SECTION
  2
HEADER
  9
$ACADVER
  1
AC1027
  9
$ACADMAINTVER
 70
   105
  9
$DWGCODEPAGE
  3
ANSI_1252
  9
$REQUIREDVERSIONS
160
                 0
  9
$INSBASE
 10
0.0
 20
0.0
 30
0.0
  9
$EXTMIN
 10
0.0
 20
0.0
 30
0.0
  9
$EXTMAX
 10
594.0
 20
420.0
 30
0.0
  9
$LIMMIN
 10
0.0
 20
0.0
  9
$LIMMAX
 10
594.0
 20
420.0
  9
$ORTHOMODE
 70
     0
  9
$REGENMODE
 70
     1
  9
$FILLMODE
 70
     1
  9
$QTEXTMODE
 70
     0
  9
$MIRRTEXT
 70
     1
  9
$LTSCALE
 40
1.0
  9
$ATTMODE
 70
     1
  9
$TEXTSIZE
 40
3.5
  9
$TRACEWID
 40
1.0
  9
$TEXTSTYLE
  7
Standard
  9
$CLAYER
  8
0
  9
$CELTYPE
  6
ByLayer
  9
$CECOLOR
 62
   256
  9
$CELTSCALE
 40
1.0
  9
$DISPSILH
 70
     0
  9
$DIMSCALE
 40
1.0
  9
$DIMASZ
 40
3.302
  9
$DIMEXO
 40
1.0
  9
$DIMDLI
 40
3.75
  9
$DIMRND
 40
0.0
  9
$DIMDLE
 40
0.0
  9
$DIMEXE
 40
1.0
  9
$DIMTP
 40
0.0
  9
$DIMTM
 40
0.0
  9
$DIMTXT
 40
3.5
  9
$DIMCEN
 40
2.5
  9
$DIMTSZ
 40
0.0
  9
$DIMTOL
 70
     0
  9
$DIMLIM
 70
     0
  9
$DIMTIH
 70
     1
  9
$DIMTOH
 70
     1
  9
$DIMSE1
 70
     0
  9
$DIMSE2
 70
     0
  9
$DIMTAD
 70
     1
  9
$DIMZIN
 70
     0
  9
$DIMBLK
  1

  9
$DIMASO
 70
     1
  9
$DIMSHO
 70
     1
  9
$DIMPOST
  1

  9
$DIMAPOST
  1

  9
$DIMALT
 70
     0
  9
$DIMALTD
 70
     3
  9
$DIMALTF
 40
0.0393700787
  9
$DIMLFAC
 40
10.0
  9
$DIMTOFL
 70
     1
  9
$DIMTVP
 40
0.0
  9
$DIMTIX
 70
     0
  9
$DIMSOXD
 70
     0
  9
$DIMSAH
 70
     0
  9
$DIMBLK1
  1

  9
$DIMBLK2
  1

  9
$DIMSTYLE
  2
ISO-25
  9
$DIMCLRD
 70
     0
  9
$DIMCLRE
 70
     0
  9
$DIMCLRT
 70
     0
  9
$DIMTFAC
 40
1.0
  9
$DIMGAP
 40
1.524
  9
$DIMJUST
 70
     0
  9
$DIMSD1
 70
     0
  9
$DIMSD2
 70
     0
  9
$DIMTOLJ
 70
     0
  9
$DIMTZIN
 70
     0
  9
$DIMALTZ
 70
     0
  9
$DIMALTTZ
 70
     0
  9
$DIMUPT
 70
     0
  9
$DIMDEC
 70
     2
  9
$DIMTDEC
 70
     2
  9
$DIMALTU
 70
     2
  9
$DIMALTTD
 70
     3
  9
$DIMTXSTY
  7
Standard
  9
$DIMAUNIT
 70
     0
  9
$DIMADEC
 70
     2
  9
$DIMALTRND
 40
0.0
  9
$DIMAZIN
 70
     0
  9
$DIMDSEP
 70
    44
  9
$DIMATFIT
 70
     3
  9
$DIMFRAC
 70
     0
  9
$DIMLDRBLK
  1

  9
$DIMLUNIT
 70
     2
  9
$DIMLWD
 70
    -2
  9
$DIMLWE
 70
    -2
  9
$DIMTMOVE
 70
     0
  9
$DIMFXL
 40
1.0
  9
$DIMFXLON
 70
     0
  9
$DIMJOGANG
 40
0.7853981634
  9
$DIMTFILL
 70
     0
  9
$DIMTFILLCLR
 70
     0
  9
$DIMARCSYM
 70
     0
  9
$DIMLTYPE
  6

  9
$DIMLTEX1
  6

  9
$DIMLTEX2
  6

  9
$DIMTXTDIRECTION
 70
     0
  9
$LUNITS
 70
     2
  9
$LUPREC
 70
     2
  9
$SKETCHINC
 40
1.0
  9
$FILLETRAD
 40
10.0
  9
$AUNITS
 70
     0
  9
$AUPREC
 70
     2
  9
$MENU
  1
.
  9
$ELEVATION
 40
0.0
  9
$PELEVATION
 40
0.0
  9
$THICKNESS
 40
0.0
  9
$LIMCHECK
 70
     0
  9
$CHAMFERA
 40
0.0
  9
$CHAMFERB
 40
0.0
  9
$CHAMFERC
 40
0.0
  9
$CHAMFERD
 40
0.0
  9
$SKPOLY
 70
     0
  9
$TDCREATE
 40
2459138.699670278
  9
$TDUCREATE
 40
2459138.616336945
  9
$TDUPDATE
 40
2459138.699671458
  9
$TDUUPDATE
 40
2459138.616338125
  9
$TDINDWG
 40
0.0000000116
  9
$TDUSRTIMER
 40
0.0000000116
  9
$USRTIMER
 70
     1
  9
$ANGBASE
 50
0.0
  9
$ANGDIR
 70
     0
  9
$PDMODE
 70
     0
  9
$PDSIZE
 40
-1.0
  9
$PLINEWID
 40
0.0
  9
$SPLFRAME
 70
     0
  9
$SPLINETYPE
 70
     6
  9
$SPLINESEGS
 70
     8
  9
$HANDSEED
  5
2CE
  9
$SURFTAB1
 70
     6
  9
$SURFTAB2
 70
     6
  9
$SURFTYPE
 70
     6
  9
$SURFU
 70
     6
  9
$SURFV
 70
     6
  9
$UCSBASE
  2

  9
$UCSNAME
  2

  9
$UCSORG
 10
0.0
 20
0.0
 30
0.0
  9
$UCSXDIR
 10
1.0
 20
0.0
 30
0.0
  9
$UCSYDIR
 10
0.0
 20
1.0
 30
0.0
  9
$UCSORTHOREF
  2

  9
$UCSORTHOVIEW
 70
     0
  9
$UCSORGTOP
 10
0.0
 20
0.0
 30
0.0
  9
$UCSORGBOTTOM
 10
0.0
 20
0.0
 30
0.0
  9
$UCSORGLEFT
 10
0.0
 20
0.0
 30
0.0
  9
$UCSORGRIGHT
 10
0.0
 20
0.0
 30
0.0
  9
$UCSORGFRONT
 10
0.0
 20
0.0
 30
0.0
  9
$UCSORGBACK
 10
0.0
 20
0.0
 30
0.0
  9
$PUCSBASE
  2

  9
$PUCSNAME
  2

  9
$PUCSORG
 10
0.0
 20
0.0
 30
0.0
  9
$PUCSXDIR
 10
1.0
 20
0.0
 30
0.0
  9
$PUCSYDIR
 10
0.0
 20
1.0
 30
0.0
  9
$PUCSORTHOREF
  2

  9
$PUCSORTHOVIEW
 70
     0
  9
$PUCSORGTOP
 10
0.0
 20
0.0
 30
0.0
  9
$PUCSORGBOTTOM
 10
0.0
 20
0.0
 30
0.0
  9
$PUCSORGLEFT
 10
0.0
 20
0.0
 30
0.0
  9
$PUCSORGRIGHT
 10
0.0
 20
0.0
 30
0.0
  9
$PUCSORGFRONT
 10
0.0
 20
0.0
 30
0.0
  9
$PUCSORGBACK
 10
0.0
 20
0.0
 30
0.0
  9
$USERI1
 70
     0
  9
$USERI2
 70
     0
  9
$USERI3
 70
     0
  9
$USERI4
 70
     0
  9
$USERI5
 70
     0
  9
$USERR1
 40
0.0
  9
$USERR2
 40
0.0
  9
$USERR3
 40
0.0
  9
$USERR4
 40
0.0
  9
$USERR5
 40
0.0
  9
$WORLDVIEW
 70
     1
  9
$SHADEDGE
 70
     3
  9
$SHADEDIF
 70
    70
  9
$TILEMODE
 70
     1
  9
$MAXACTVP
 70
    64
  9
$PINSBASE
 10
0.0
 20
0.0
 30
0.0
  9
$PLIMCHECK
 70
     0
  9
$PEXTMIN
 10
1.0000000000E+20
 20
1.0000000000E+20
 30
1.0000000000E+20
  9
$PEXTMAX
 10
-1.0000000000E+20
 20
-1.0000000000E+20
 30
-1.0000000000E+20
  9
$PLIMMIN
 10
0.0
 20
0.0
  9
$PLIMMAX
 10
420.0
 20
297.0
  9
$UNITMODE
 70
     0
  9
$VISRETAIN
 70
     1
  9
$PLINEGEN
 70
     0
  9
$PSLTSCALE
 70
     1
  9
$TREEDEPTH
 70
  3020
  9
$CMLSTYLE
  2
Standard
  9
$CMLJUST
 70
     0
  9
$CMLSCALE
 40
20.0
  9
$PROXYGRAPHICS
 70
     1
  9
$MEASUREMENT
 70
     1
  9
$CELWEIGHT
370
    -1
  9
$ENDCAPS
280
     0
  9
$JOINSTYLE
280
     0
  9
$LWDISPLAY
290
     1
  9
$INSUNITS
 70
     4
  9
$HYPERLINKBASE
  1

  9
$STYLESHEET
  1

  9
$XEDIT
290
     1
  9
$CEPSNTYPE
380
     0
  9
$PSTYLEMODE
290
     1
  9
$FINGERPRINTGUID
  2
{0BEFC45F-C6D0-47A2-A9B7-ABC3CF20A1F5}
  9
$VERSIONGUID
  2
{FAEB1C32-E019-11D5-929B-00C0DF256EC4}
  9
$EXTNAMES
290
     1
  9
$PSVPSCALE
 40
0.0
  9
$OLESTARTUP
290
     0
  9
$SORTENTS
280
   127
  9
$INDEXCTL
280
     0
  9
$HIDETEXT
280
     1
  9
$XCLIPFRAME
280
     2
  9
$HALOGAP
280
     0
  9
$OBSCOLOR
 70
   257
  9
$OBSLTYPE
280
     0
  9
$INTERSECTIONDISPLAY
280
     0
  9
$INTERSECTIONCOLOR
 70
   257
  9
$DIMASSOC
280
     2
  9
$PROJECTNAME
  1

  9
$CAMERADISPLAY
290
     0
  9
$LENSLENGTH
 40
50.0
  9
$CAMERAHEIGHT
 40
0.0
  9
$STEPSPERSEC
 40
2.0
  9
$STEPSIZE
 40
6.0
  9
$3DDWFPREC
 40
2.0
  9
$PSOLWIDTH
 40
5.0
  9
$PSOLHEIGHT
 40
80.0
  9
$LOFTANG1
 40
1.5707963268
  9
$LOFTANG2
 40
1.5707963268
  9
$LOFTMAG1
 40
0.0
  9
$LOFTMAG2
 40
0.0
  9
$LOFTPARAM
 70
     7
  9
$LOFTNORMALS
280
     1
  9
$LATITUDE
 40
37.795
  9
$LONGITUDE
 40
-122.394
  9
$NORTHDIRECTION
 40
0.0
  9
$TIMEZONE
 70
 -8000
  9
$LIGHTGLYPHDISPLAY
280
     1
  9
$TILEMODELIGHTSYNCH
280
     1
  9
$CMATERIAL
347
44
  9
$SOLIDHIST
280
     0
  9
$SHOWHIST
280
     1
  9
$DWFFRAME
280
     2
  9
$DGNFRAME
280
     2
  9
$REALWORLDSCALE
290
     1
  9
$INTERFERECOLOR
 62
   256
  9
$CSHADOW
280
     0
  9
$SHADOWPLANELOCATION
 40
0.0
  0
ENDSEC
  0
SECTION
  2
CLASSES
  0
CLASS
  1
ACDBDICTIONARYWDFLT
  2
AcDbDictionaryWithDefault
  3
ObjectDBX Classes
 90
        0
 91
        4
280
     0
281
     0
  0
CLASS
  1
VISUALSTYLE
  2
AcDbVisualStyle
  3
ObjectDBX Classes
 90
     4095
 91
        4
280
     0
281
     0
  0
CLASS
  1
MATERIAL
  2
AcDbMaterial
  3
ObjectDBX Classes
 90
     1153
 91
        4
280
     0
281
     0
  0
CLASS
  1
SCALE
  2
AcDbScale
  3
ObjectDBX Classes
 90
     1153
 91
        4
280
     0
281
     0
  0
CLASS
  1
TABLESTYLE
  2
AcDbTableStyle
  3
ObjectDBX Classes
 90
     4095
 91
        4
280
     0
281
     0
  0
CLASS
  1
MLEADERSTYLE
  2
AcDbMLeaderStyle
  3
ACDB_MLEADERSTYLE_CLASS
 90
     4095
 91
        4
280
     0
281
     0
  0
CLASS
  1
SUN
  2
AcDbSun
  3
SCENEOE
 90
     1153
 91
        4
280
     0
281
     0
  0
CLASS
  1
DICTIONARYVAR
  2
AcDbDictionaryVar
  3
ObjectDBX Classes
 90
        0
 91
        4
280
     0
281
     0
  0
CLASS
  1
CELLSTYLEMAP
  2
AcDbCellStyleMap
  3
ObjectDBX Classes
 90
     1152
 91
        4
280
     0
281
     0
  0
ENDSEC
  0
SECTION
  2
TABLES
  0
TABLE
  2
VPORT
  5
8
330
0
100
AcDbSymbolTable
 70
     1
  0
VPORT
  5
29
330
8
100
AcDbSymbolTableRecord
100
AcDbViewportTableRecord
  2
*Active
 70
     0
 10
0.0
 20
0.0
 11
1.0
 21
1.0
 12
297.0
 22
210.0
 13
0.0
 23
0.0
 14
10.0
 24
10.0
 15
10.0
 25
10.0
 16
0.0
 26
0.0
 36
1.0
 17
0.0
 27
0.0
 37
0.0
 40
420.0
 41
1.4142857143
 42
50.0
 43
0.0
 44
0.0
 50
0.0
 51
0.0
 71
     0
 72
  2000
 73
     1
 74
     3
 75
     0
 76
     0
 77
     0
 78
     0
281
     0
 65
     1
110
0.0
120
0.0
130
0.0
111
1.0
121
0.0
131
0.0
112
0.0
122
1.0
132
0.0
 79
     0
146
0.0
348
2F
 60
     3
 61
     5
292
     1
282
     1
141
0.0
142
0.0
 63
   250
361
6D
  0
ENDTAB
  0
TABLE
  2
LTYPE
  5
5
330
0
100
AcDbSymbolTable
 70
     6
  0
LTYPE
  5
14
330
5
100
AcDbSymbolTableRecord
100
AcDbLinetypeTableRecord
  2
ByBlock
 70
     0
  3

 72
    65
 73
     0
 40
0.0
  0
LTYPE
  5
15
330
5
100
AcDbSymbolTableRecord
100
AcDbLinetypeTableRecord
  2
ByLayer
 70
     0
  3

 72
    65
 73
     0
 40
0.0
  0
LTYPE
  5
16
330
5
100
AcDbSymbolTableRecord
100
AcDbLinetypeTableRecord
  2
Continuous
 70
     0
  3
Solid line
 72
    65
 73
     0
 40
0.0
  0
LTYPE
  5
6E
330
5
100
AcDbSymbolTableRecord
100
AcDbLinetypeTableRecord
  2
HIDDEN
 70
     0
  3
Hidden __ __ __ __ __ __ __ __ __ __ __ __ __ __
 72
    65
 73
     2
 40
1.905
 49
1.27
 74
     0
 49
-0.635
 74
     0
  0
LTYPE
  5
6F
330
5
100
AcDbSymbolTableRecord
100
AcDbLinetypeTableRecord
  2
PHANTOM
 70
     0
  3
Phantom ______  __  __  ______  __  __  ______
 72
    65
 73
     6
 40
12.7
 49
6.35
 74
     0
 49
-1.27
 74
     0
 49
1.27
 74
     0
 49
-1.27
 74
     0
 49
1.27
 74
     0
 49
-1.27
 74
     0
  0
LTYPE
  5
70
330
5
100
AcDbSymbolTableRecord
100
AcDbLinetypeTableRecord
  2
CENTER
 70
     0
  3
Center ____ _ ____ _ ____ _ ____ _ ____ _ ____
 72
    65
 73
     4
 40
10.16
 49
6.35
 74
     0
 49
-1.27
 74
     0
 49
1.27
 74
     0
 49
-1.27
 74
     0
  0
LTYPE
  5
71
330
5
100
AcDbSymbolTableRecord
100
AcDbLinetypeTableRecord
  2
CENTERX2
 70
     0
  3
Center (2x) ________  __  ________  __  _____
 72
    65
 73
     4
 40
20.32
 49
12.7
 74
     0
 49
-2.54
 74
     0
 49
2.54
 74
     0
 49
-2.54
 74
     0
  0
LTYPE
  5
72
330
5
100
AcDbSymbolTableRecord
100
AcDbLinetypeTableRecord
  2
DOT2
 70
     0
  3
Dot (.5x) ........................................
 72
    65
 73
     2
 40
0.635
 49
0.0
 74
     0
 49
-0.635
 74
     0
  0
ENDTAB
  0
TABLE
  2
LAYER
  5
2
330
0
100
AcDbSymbolTable
 70
    37
  0
LAYER
  5
10
330
2
100
AcDbSymbolTableRecord
100
AcDbLayerTableRecord
  2
0
 70
     0
 62
     7
  6
Continuous
370
    -3
390
F
347
46
348
0
  0
LAYER
  5
73
330
2
100
AcDbSymbolTableRecord
100
AcDbLayerTableRecord
  2
SLD-0
 70
     0
 62
     7
  6
Continuous
370
    -3
390
F
347
46
348
0
  0
LAYER
  5
74
330
2
100
AcDbSymbolTableRecord
100
AcDbLayerTableRecord
  2
RAHMEN025
 70
     0
 62
     7
  6
Continuous
370
    -3
390
F
347
46
348
0
  0
LAYER
  5
75
330
2
100
AcDbSymbolTableRecord
100
AcDbLayerTableRecord
  2
RAHMEN07
 70
     0
 62
     5
  6
Continuous
370
    -3
390
F
347
46
348
0
  0
LAYER
  5
76
330
2
100
AcDbSymbolTableRecord
100
AcDbLayerTableRecord
  2
RAHMEN05
 70
     0
 62
     6
  6
Continuous
370
    -3
390
F
347
46
348
0
  0
LAYER
  5
77
330
2
100
AcDbSymbolTableRecord
100
AcDbLayerTableRecord
  2
TB
 70
     0
 62
     7
  6
Continuous
370
    -3
390
F
347
46
348
0
  0
LAYER
  5
78
330
2
100
AcDbSymbolTableRecord
100
AcDbLayerTableRecord
  2
1-VIDNO
 70
     0
 62
     5
  6
Continuous
370
    -3
390
F
347
46
348
0
  0
LAYER
  5
79
330
2
100
AcDbSymbolTableRecord
100
AcDbLayerTableRecord
  2
2-NEVIDNO
 70
     0
 62
     5
  6
HIDDEN
370
    -3
390
F
347
46
348
0
  0
LAYER
  5
7A
330
2
100
AcDbSymbolTableRecord
100
AcDbLayerTableRecord
  2
O-GLAVE
 70
     0
 62
     5
  6
Continuous
370
    -3
390
F
347
46
348
0
  0
LAYER
  5
7B
330
2
100
AcDbSymbolTableRecord
100
AcDbLayerTableRecord
  2
O-TEKST
 70
     0
 62
     7
  6
Continuous
370
    -3
390
F
347
46
348
0
  0
LAYER
  5
7C
330
2
100
AcDbSymbolTableRecord
100
AcDbLayerTableRecord
  2
O-ZUNANJI
 70
     0
 62
     7
  6
Continuous
370
    -3
390
F
347
46
348
0
  0
LAYER
  5
7D
330
2
100
AcDbSymbolTableRecord
100
AcDbLayerTableRecord
  2
SLD-DEFPOINTS
 70
     0
 62
     7
  6
Continuous
370
    -3
390
F
347
46
348
0
  0
LAYER
  5
7E
330
2
100
AcDbSymbolTableRecord
100
AcDbLayerTableRecord
  2
3-POMOZNO
 70
     0
 62
     4
  6
Continuous
370
    -3
390
F
347
46
348
0
  0
LAYER
  5
7F
330
2
100
AcDbSymbolTableRecord
100
AcDbLayerTableRecord
  2
4-SREDNJICA
 70
     0
 62
     1
  6
CENTER
370
    -3
390
F
347
46
348
0
  0
LAYER
  5
80
330
2
100
AcDbSymbolTableRecord
100
AcDbLayerTableRecord
  2
5-SRAFURA
 70
     0
 62
     7
  6
Continuous
370
    -3
390
F
347
46
348
0
  0
LAYER
  5
81
330
2
100
AcDbSymbolTableRecord
100
AcDbLayerTableRecord
  2
6-KOTE
 70
     0
 62
     7
  6
Continuous
370
    -3
390
F
347
46
348
0
  0
LAYER
  5
82
330
2
100
AcDbSymbolTableRecord
100
AcDbLayerTableRecord
  2
7-TEKST
 70
     0
 62
     7
  6
Continuous
370
    -3
390
F
347
46
348
0
  0
LAYER
  5
83
330
2
100
AcDbSymbolTableRecord
100
AcDbLayerTableRecord
  2
8-VARJENJA
 70
     0
 62
     1
  6
Continuous
370
    -3
390
F
347
46
348
0
  0
LAYER
  5
84
330
2
100
AcDbSymbolTableRecord
100
AcDbLayerTableRecord
  2
BEMASSUNG
 70
     0
 62
     7
  6
Continuous
370
    -3
390
F
347
46
348
0
  0
LAYER
  5
85
330
2
100
AcDbSymbolTableRecord
100
AcDbLayerTableRecord
  2
UMRISS03
 70
     0
 62
     7
  6
Continuous
370
    -3
390
F
347
46
348
0
  0
LAYER
  5
86
330
2
100
AcDbSymbolTableRecord
100
AcDbLayerTableRecord
  2
UMRISS02
 70
     0
 62
     7
  6
Continuous
370
    -3
390
F
347
46
348
0
  0
LAYER
  5
87
330
2
100
AcDbSymbolTableRecord
100
AcDbLayerTableRecord
  2
HILFSLINIEN
 70
     0
 62
     7
  6
Continuous
370
    -3
390
F
347
46
348
0
  0
LAYER
  5
88
330
2
100
AcDbSymbolTableRecord
100
AcDbLayerTableRecord
  2
UMRISS03_-PSPAC_
 70
     0
 62
     7
  6
Continuous
370
    -3
390
F
347
46
348
0
  0
LAYER
  5
89
330
2
100
AcDbSymbolTableRecord
100
AcDbLayerTableRecord
  2
ACA_VARSAVE
 70
     0
 62
     7
  6
Continuous
370
    -3
390
F
347
46
348
0
  0
LAYER
  5
8A
330
2
100
AcDbSymbolTableRecord
100
AcDbLayerTableRecord
  2
KONTUREN
 70
     0
 62
     7
  6
Continuous
370
    -3
390
F
347
46
348
0
  0
LAYER
  5
8B
330
2
100
AcDbSymbolTableRecord
100
AcDbLayerTableRecord
  2
ACHSE
 70
     0
 62
     7
  6
Continuous
370
    -3
390
F
347
46
348
0
  0
LAYER
  5
8C
330
2
100
AcDbSymbolTableRecord
100
AcDbLayerTableRecord
  2
UNSICHTBAR
 70
     0
 62
     7
  6
Continuous
370
    -3
390
F
347
46
348
0
  0
LAYER
  5
8D
330
2
100
AcDbSymbolTableRecord
100
AcDbLayerTableRecord
  2
MASSE
 70
     0
 62
     7
  6
Continuous
370
    -3
390
F
347
46
348
0
  0
LAYER
  5
8E
330
2
100
AcDbSymbolTableRecord
100
AcDbLayerTableRecord
  2
RAND
 70
     0
 62
     7
  6
Continuous
370
    -3
390
F
347
46
348
0
  0
LAYER
  5
8F
330
2
100
AcDbSymbolTableRecord
100
AcDbLayerTableRecord
  2
D-TEXT
 70
     0
 62
     7
  6
Continuous
370
    -3
390
F
347
46
348
0
  0
LAYER
  5
90
330
2
100
AcDbSymbolTableRecord
100
AcDbLayerTableRecord
  2
F-TEXT
 70
     0
 62
     7
  6
Continuous
370
    -3
390
F
347
46
348
0
  0
LAYER
  5
91
330
2
100
AcDbSymbolTableRecord
100
AcDbLayerTableRecord
  2
I-TEXT
 70
     0
 62
     7
  6
Continuous
370
    -3
390
F
347
46
348
0
  0
LAYER
  5
92
330
2
100
AcDbSymbolTableRecord
100
AcDbLayerTableRecord
  2
D-TEXT-FETT
 70
     0
 62
     7
  6
Continuous
370
    -3
390
F
347
46
348
0
  0
LAYER
  5
93
330
2
100
AcDbSymbolTableRecord
100
AcDbLayerTableRecord
  2
F-TEXT-FETT
 70
     0
 62
     7
  6
Continuous
370
    -3
390
F
347
46
348
0
  0
LAYER
  5
94
330
2
100
AcDbSymbolTableRecord
100
AcDbLayerTableRecord
  2
I-TEXT-FETT
 70
     0
 62
     7
  6
Continuous
370
    -3
390
F
347
46
348
0
  0
LAYER
  5
95
330
2
100
AcDbSymbolTableRecord
100
AcDbLayerTableRecord
  2
TEXT-D-F-I
 70
     0
 62
     7
  6
Continuous
370
    -3
390
F
347
46
348
0
  0
LAYER
  5
96
330
2
100
AcDbSymbolTableRecord
100
AcDbLayerTableRecord
  2
TEXT-D-F-I-FETT
 70
     0
 62
     7
  6
Continuous
370
    -3
390
F
347
46
348
0
  0
ENDTAB
  0
TABLE
  2
STYLE
  5
3
330
0
100
AcDbSymbolTable
 70
     2
  0
STYLE
  5
11
330
3
100
AcDbSymbolTableRecord
100
AcDbTextStyleTableRecord
  2
Standard
 70
     0
 40
0.0
 41
1.0
 50
0.0
 71
     0
 42
3.5
  3
txt
  4

  0
STYLE
  5
106
330
3
100
AcDbSymbolTableRecord
100
AcDbTextStyleTableRecord
  2
SLDTEXTSTYLE0
 70
     0
 40
0.0
 41
0.75
 50
0.0
 71
     0
 42
3.5
  3
TXT
  4

  0
ENDTAB
  0
TABLE
  2
VIEW
  5
6
330
0
100
AcDbSymbolTable
 70
     0
  0
ENDTAB
  0
TABLE
  2
UCS
  5
7
330
0
100
AcDbSymbolTable
 70
     0
  0
ENDTAB
  0
TABLE
  2
APPID
  5
9
330
0
100
AcDbSymbolTable
 70
     1
  0
APPID
  5
12
330
9
100
AcDbSymbolTableRecord
100
AcDbRegAppTableRecord
  2
ACAD
 70
     0
  0
ENDTAB
  0
TABLE
  2
DIMSTYLE
  5
A
330
0
100
AcDbSymbolTable
 70
     1
100
AcDbDimStyleTable
  0
DIMSTYLE
105
27
330
A
100
AcDbSymbolTableRecord
100
AcDbDimStyleTableRecord
  2
ISO-25
 70
     0
 41
2.5
 42
0.625
 43
3.75
 44
1.25
 73
     0
 74
     0
 77
     1
 78
     8
140
2.5
141
2.5
143
0.0393700787
147
0.625
171
     3
172
     1
178
     0
271
     2
272
     2
274
     3
278
    44
283
     0
284
     8
340
11
  0
ENDTAB
  0
TABLE
  2
BLOCK_RECORD
  5
1
330
0
100
AcDbSymbolTable
 70
     3
  0
BLOCK_RECORD
  5
1F
330
1
100
AcDbSymbolTableRecord
100
AcDbBlockTableRecord
  2
*Model_Space
340
22
 70
     0
280
     1
281
     0
  0
BLOCK_RECORD
  5
1B
330
1
100
AcDbSymbolTableRecord
100
AcDbBlockTableRecord
  2
*Paper_Space
340
1E
 70
     0
280
     1
281
     0
  0
BLOCK_RECORD
  5
23
330
1
100
AcDbSymbolTableRecord
100
AcDbBlockTableRecord
  2
*Paper_Space0
340
26
 70
     0
280
     1
281
     0
  0
BLOCK_RECORD
  5
186
330
1
100
AcDbSymbolTableRecord
100
AcDbBlockTableRecord
  2
SW_NOTE_0
340
0
102
{BLKREFS
331
18B
102
}
 70
     0
280
     1
281
     0
  0
BLOCK_RECORD
  5
1D6
330
1
100
AcDbSymbolTableRecord
100
AcDbBlockTableRecord
  2
SW_NOTE_1
340
0
102
{BLKREFS
331
1DB
102
}
 70
     0
280
     1
281
     0
  0
ENDTAB
  0
ENDSEC
  0
SECTION
  2
BLOCKS
  0
BLOCK
  5
20
330
1F
100
AcDbEntity
  8
0
100
AcDbBlockBegin
  2
*Model_Space
 70
     0
 10
0.0
 20
0.0
 30
0.0
  3
*Model_Space
  1

  0
ENDBLK
  5
21
330
1F
100
AcDbEntity
  8
0
100
AcDbBlockEnd
  0
BLOCK
  5
1C
330
1B
100
AcDbEntity
 67
     1
  8
0
100
AcDbBlockBegin
  2
*Paper_Space
 70
     0
 10
0.0
 20
0.0
 30
0.0
  3
*Paper_Space
  1

  0
ENDBLK
  5
1D
330
1B
100
AcDbEntity
 67
     1
  8
0
100
AcDbBlockEnd
  0
BLOCK
  5
24
330
23
100
AcDbEntity
  8
0
100
AcDbBlockBegin
  2
*Paper_Space0
 70
     0
 10
0.0
 20
0.0
 30
0.0
  3
*Paper_Space0
  1

  0
ENDBLK
  5
25
330
23
100
AcDbEntity
  8
0
100
AcDbBlockEnd
  0
BLOCK
  5
187
330
186
100
AcDbEntity
  8
0
100
AcDbBlockBegin
  2
SW_NOTE_0
 70
     0
 10
0.0
 20
0.0
 30
0.0
  3
SW_NOTE_0
  1

  0
MTEXT
  5
189
330
186
100
AcDbEntity
  8
O-TEKST
 62
     0
100
AcDbMText
 10
16.0734375
 20
8.1855801476
 30
0.0
 40
6.35
 41
0.0
 46
0.0
 71
     2
 72
     1
  1
SCHNITT
  7
SLDTEXTSTYLE0
 73
     1
 44
1.0
  0
MTEXT
  5
18A
330
186
100
AcDbEntity
  8
O-TEKST
 62
     0
100
AcDbMText
 10
38.5538176
 20
5.3469457771
 30
0.0
 40
3.5
 41
0.0
 46
0.0
 71
     2
 72
     1
  1
A-A
  7
SLDTEXTSTYLE0
 73
     1
 44
1.0
  0
ENDBLK
  5
188
330
186
100
AcDbEntity
  8
0
100
AcDbBlockEnd
  0
BLOCK
  5
1D7
330
1D6
100
AcDbEntity
  8
0
100
AcDbBlockBegin
  2
SW_NOTE_1
 70
     0
 10
0.0
 20
0.0
 30
0.0
  3
SW_NOTE_1
  1

  0
MTEXT
  5
1D9
330
1D6
100
AcDbEntity
  8
O-TEKST
 62
     0
100
AcDbMText
 10
16.0734375
 20
8.1855801476
 30
0.0
 40
6.35
 41
0.0
 46
0.0
 71
     2
 72
     1
  1
SCHNITT
  7
SLDTEXTSTYLE0
 73
     1
 44
1.0
  0
MTEXT
  5
1DA
330
1D6
100
AcDbEntity
  8
O-TEKST
 62
     0
100
AcDbMText
 10
38.0069426
 20
5.3469457771
 30
0.0
 40
3.5
 41
0.0
 46
0.0
 71
     2
 72
     1
  1
B-B
  7
SLDTEXTSTYLE0
 73
     1
 44
1.0
  0
ENDBLK
  5
1D8
330
1D6
100
AcDbEntity
  8
0
100
AcDbBlockEnd
  0
ENDSEC
  0
SECTION
  2
ENTITIES
  0
LINE
  5
97
330
1F
100
AcDbEntity
  8
0
  6
Continuous
 62
     7
370
    25
100
AcDbLine
 10
72.0594221669
 20
94.1636363636
 30
0.0
 11
70.6594221669
 21
94.1636363636
 31
0.0
  0
LINE
  5
98
330
1F
100
AcDbEntity
  8
0
  6
Continuous
 62
     7
370
    25
100
AcDbLine
 10
70.6594221669
 20
92.9636363636
 30
0.0
 11
72.0594221669
 21
92.9636363636
 31
0.0
  0
LINE
  5
99
330
1F
100
AcDbEntity
  8
0
  6
Continuous
 62
     7
370
    25
100
AcDbLine
 10
72.0594221669
 20
92.9636363636
 30
0.0
 11
81.2594221669
 21
92.9636363636
 31
0.0
  0
LINE
  5
9A
330
1F
100
AcDbEntity
  8
0
  6
Continuous
 62
     7
370
    25
100
AcDbLine
 10
81.2594221669
 20
94.1636363636
 30
0.0
 11
72.0594221669
 21
94.1636363636
 31
0.0
  0
LINE
  5
9B
330
1F
100
AcDbEntity
  8
0
  6
Continuous
 62
     7
370
    25
100
AcDbLine
 10
82.6594221669
 20
94.1636363636
 30
0.0
 11
81.2594221669
 21
94.1636363636
 31
0.0
  0
LINE
  5
9C
330
1F
100
AcDbEntity
  8
0
  6
Continuous
 62
     7
370
    25
100
AcDbLine
 10
81.2594221669
 20
92.9636363636
 30
0.0
 11
82.6594221669
 21
92.9636363636
 31
0.0
  0
LINE
  5
9D
330
1F
100
AcDbEntity
  8
0
  6
Continuous
 62
     7
370
    25
100
AcDbLine
 10
82.6594221669
 20
68.1636363636
 30
0.0
 11
81.2594221669
 21
68.1636363636
 31
0.0
  0
LINE
  5
9E
330
1F
100
AcDbEntity
  8
0
  6
Continuous
 62
     7
370
    25
100
AcDbLine
 10
81.2594221669
 20
66.9636363636
 30
0.0
 11
82.6594221669
 21
66.9636363636
 31
0.0
  0
LINE
  5
9F
330
1F
100
AcDbEntity
  8
0
  6
Continuous
 62
     7
370
    25
100
AcDbLine
 10
72.0594221669
 20
66.9636363636
 30
0.0
 11
81.2594221669
 21
66.9636363636
 31
0.0
  0
LINE
  5
A0
330
1F
100
AcDbEntity
  8
0
  6
Continuous
 62
     7
370
    25
100
AcDbLine
 10
81.2594221669
 20
68.1636363636
 30
0.0
 11
72.0594221669
 21
68.1636363636
 31
0.0
  0
LINE
  5
A1
330
1F
100
AcDbEntity
  8
0
  6
Continuous
 62
     7
370
    25
100
AcDbLine
 10
72.0594221669
 20
68.1636363636
 30
0.0
 11
70.6594221669
 21
68.1636363636
 31
0.0
  0
LINE
  5
A2
330
1F
100
AcDbEntity
  8
0
  6
Continuous
 62
     7
370
    25
100
AcDbLine
 10
70.6594221669
 20
66.9636363636
 30
0.0
 11
72.0594221669
 21
66.9636363636
 31
0.0
  0
ELLIPSE
  5
A3
330
1F
100
AcDbEntity
  8
0
  6
Continuous
 62
     7
370
    25
100
AcDbEllipse
 10
76.6594221669
 20
93.5636363636
 30
0.0
 11
0.0
 21
-3.0
 31
0.0
210
0.0
220
0.0
230
1.0
 40
0.8333333333
 41
5.052225889838828
 42
7.514144724520357
  0
LINE
  5
A4
330
1F
100
AcDbEntity
  8
0
  6
Continuous
 62
     7
370
    25
100
AcDbLine
 10
79.0164447708
 20
92.5636363636
 30
0.0
 11
82.6594221669
 21
92.5636363636
 31
0.0
  0
ARC
  5
A5
330
1F
100
AcDbEntity
  8
0
  6
Continuous
 62
     7
370
    25
100
AcDbCircle
 10
82.6594221669
 20
93.5636363636
 30
0.0
 40
1.000000000000014
100
AcDbArc
 50
270.0
 51
90.0
  0
LINE
  5
A6
330
1F
100
AcDbEntity
  8
0
  6
Continuous
 62
     7
370
    25
100
AcDbLine
 10
82.6594221669
 20
94.5636363636
 30
0.0
 11
79.0164447708
 21
94.5636363636
 31
0.0
  0
ELLIPSE
  5
A7
330
1F
100
AcDbEntity
  8
0
  6
Continuous
 62
     7
370
    25
100
AcDbEllipse
 10
76.6594221669
 20
93.5636363636
 30
0.0
 11
0.0
 21
-3.0
 31
0.0
210
0.0
220
0.0
230
1.0
 40
0.8333333333
 41
1.910633236249019
 42
4.372552070930579
  0
LINE
  5
A8
330
1F
100
AcDbEntity
  8
0
  6
Continuous
 62
     7
370
    25
100
AcDbLine
 10
74.3023995629
 20
94.5636363636
 30
0.0
 11
70.6594221669
 21
94.5636363636
 31
0.0
  0
ARC
  5
A9
330
1F
100
AcDbEntity
  8
0
  6
Continuous
 62
     7
370
    25
100
AcDbCircle
 10
70.6594221669
 20
93.5636363636
 30
0.0
 40
1.000000000000014
100
AcDbArc
 50
90.0
 51
270.0
  0
LINE
  5
AA
330
1F
100
AcDbEntity
  8
0
  6
Continuous
 62
     7
370
    25
100
AcDbLine
 10
70.6594221669
 20
92.5636363636
 30
0.0
 11
74.3023995629
 21
92.5636363636
 31
0.0
  0
LINE
  5
AB
330
1F
100
AcDbEntity
  8
0
  6
Continuous
 62
     7
370
    25
100
AcDbLine
 10
101.3594221669
 20
105.2636363636
 30
0.0
 11
51.9594221669
 21
105.2636363636
 31
0.0
  0
LINE
  5
AC
330
1F
100
AcDbEntity
  8
0
  6
Continuous
 62
     7
370
    25
100
AcDbLine
 10
101.3594221669
 20
55.8636363636
 30
0.0
 11
101.3594221669
 21
105.2636363636
 31
0.0
  0
LINE
  5
AD
330
1F
100
AcDbEntity
  8
0
  6
Continuous
 62
     7
370
    25
100
AcDbLine
 10
51.9594221669
 20
55.8636363636
 30
0.0
 11
101.3594221669
 21
55.8636363636
 31
0.0
  0
LINE
  5
AE
330
1F
100
AcDbEntity
  8
0
  6
Continuous
 62
     7
370
    25
100
AcDbLine
 10
51.9594221669
 20
105.2636363636
 30
0.0
 11
51.9594221669
 21
55.8636363636
 31
0.0
  0
LINE
  5
AF
330
1F
100
AcDbEntity
  8
0
  6
Continuous
 62
     7
370
    25
100
AcDbLine
 10
79.0164447708
 20
68.5636363636
 30
0.0
 11
82.6594221669
 21
68.5636363636
 31
0.0
  0
ELLIPSE
  5
B0
330
1F
100
AcDbEntity
  8
0
  6
Continuous
 62
     7
370
    25
100
AcDbEllipse
 10
76.6594221669
 20
67.5636363636
 30
0.0
 11
0.0
 21
3.0
 31
0.0
210
0.0
220
0.0
230
1.0
 40
0.8333333333
 41
5.052225889838824
 42
7.51414472452036
  0
LINE
  5
B1
330
1F
100
AcDbEntity
  8
0
  6
Continuous
 62
     7
370
    25
100
AcDbLine
 10
70.6594221669
 20
68.5636363636
 30
0.0
 11
74.3023995629
 21
68.5636363636
 31
0.0
  0
ARC
  5
B2
330
1F
100
AcDbEntity
  8
0
  6
Continuous
 62
     7
370
    25
100
AcDbCircle
 10
70.6594221669
 20
67.5636363636
 30
0.0
 40
1.000000000000014
100
AcDbArc
 50
90.0
 51
270.0
  0
LINE
  5
B3
330
1F
100
AcDbEntity
  8
0
  6
Continuous
 62
     7
370
    25
100
AcDbLine
 10
74.3023995629
 20
66.5636363636
 30
0.0
 11
70.6594221669
 21
66.5636363636
 31
0.0
  0
ELLIPSE
  5
B4
330
1F
100
AcDbEntity
  8
0
  6
Continuous
 62
     7
370
    25
100
AcDbEllipse
 10
76.6594221669
 20
67.5636363636
 30
0.0
 11
0.0
 21
3.0
 31
0.0
210
0.0
220
0.0
230
1.0
 40
0.8333333333
 41
1.910633236249019
 42
4.372552070930579
  0
LINE
  5
B5
330
1F
100
AcDbEntity
  8
0
  6
Continuous
 62
     7
370
    25
100
AcDbLine
 10
82.6594221669
 20
66.5636363636
 30
0.0
 11
79.0164447708
 21
66.5636363636
 31
0.0
  0
ARC
  5
B6
330
1F
100
AcDbEntity
  8
0
  6
Continuous
 62
     7
370
    25
100
AcDbCircle
 10
82.6594221669
 20
67.5636363636
 30
0.0
 40
1.0
100
AcDbArc
 50
270.0
 51
90.0
  0
LINE
  5
B7
330
1F
100
AcDbEntity
  8
0
  6
Continuous
 62
     7
370
    25
100
AcDbLine
 10
51.9594221669
 20
105.2636363636
 30
0.0
 11
51.6436326932
 21
105.5794258373
 31
0.0
  0
LINE
  5
B8
330
1F
100
AcDbEntity
  8
0
  6
Continuous
 62
     7
370
    25
100
AcDbLine
 10
51.6436326932
 20
105.5794258373
 30
0.0
 11
101.6752116406
 21
105.5794258373
 31
0.0
  0
LINE
  5
B9
330
1F
100
AcDbEntity
  8
0
  6
Continuous
 62
     7
370
    25
100
AcDbLine
 10
101.6752116406
 20
105.5794258373
 30
0.0
 11
101.3594221669
 21
105.2636363636
 31
0.0
  0
LINE
  5
BA
330
1F
100
AcDbEntity
  8
0
  6
Continuous
 62
     7
370
    25
100
AcDbLine
 10
51.9594221669
 20
55.8636363636
 30
0.0
 11
51.6436326932
 21
55.54784689
 31
0.0
  0
LINE
  5
BB
330
1F
100
AcDbEntity
  8
0
  6
Continuous
 62
     7
370
    25
100
AcDbLine
 10
51.6436326932
 20
55.54784689
 30
0.0
 11
51.6436326932
 21
105.5794258373
 31
0.0
  0
LINE
  5
BC
330
1F
100
AcDbEntity
  8
0
  6
Continuous
 62
     7
370
    25
100
AcDbLine
 10
101.6752116406
 20
105.5794258373
 30
0.0
 11
101.6752116406
 21
55.54784689
 31
0.0
  0
LINE
  5
BD
330
1F
100
AcDbEntity
  8
0
  6
Continuous
 62
     7
370
    25
100
AcDbLine
 10
101.6752116406
 20
55.54784689
 30
0.0
 11
101.3594221669
 21
55.8636363636
 31
0.0
  0
LINE
  5
BE
330
1F
100
AcDbEntity
  8
0
  6
Continuous
 62
     7
370
    25
100
AcDbLine
 10
101.6752116406
 20
55.54784689
 30
0.0
 11
51.6436326932
 21
55.54784689
 31
0.0
  0
LINE
  5
BF
330
1F
100
AcDbEntity
  8
0
  6
Continuous
 62
     7
370
    25
100
AcDbLine
 10
51.4343909753
 20
55.3386051721
 30
0.0
 11
51.6436326932
 21
55.54784689
 31
0.0
  0
LINE
  5
C0
330
1F
100
AcDbEntity
  8
0
  6
Continuous
 62
     7
370
    25
100
AcDbLine
 10
51.4094221669
 20
55.7904217064
 30
0.0
 11
51.4343909753
 21
55.3386051721
 31
0.0
  0
LINE
  5
C1
330
1F
100
AcDbEntity
  8
0
  6
Continuous
 62
     7
370
    25
100
AcDbLine
 10
51.4094221669
 20
105.3136363636
 30
0.0
 11
51.4094221669
 21
55.7904217064
 31
0.0
  0
LINE
  5
C2
330
1F
100
AcDbEntity
  8
0
  6
Continuous
 62
     7
370
    25
100
AcDbLine
 10
51.4332316907
 20
105.7898268398
 30
0.0
 11
51.4094221669
 21
105.3136363636
 31
0.0
  0
LINE
  5
C3
330
1F
100
AcDbEntity
  8
0
  6
Continuous
 62
     7
370
    25
100
AcDbLine
 10
51.6436326932
 20
105.5794258373
 30
0.0
 11
51.4332316907
 21
105.7898268398
 31
0.0
  0
LINE
  5
C4
330
1F
100
AcDbEntity
  8
0
  6
Continuous
 62
     7
370
    25
100
AcDbLine
 10
101.8856126431
 20
105.7898268398
 30
0.0
 11
51.4332316907
 21
105.7898268398
 31
0.0
  0
LINE
  5
C5
330
1F
100
AcDbEntity
  8
0
  6
Continuous
 62
     7
370
    25
100
AcDbLine
 10
101.8856126431
 20
105.7898268398
 30
0.0
 11
101.6752116406
 21
105.5794258373
 31
0.0
  0
LINE
  5
C6
330
1F
100
AcDbEntity
  8
0
  6
Continuous
 62
     7
370
    25
100
AcDbLine
 10
101.8844533584
 20
55.3386051721
 30
0.0
 11
101.9094221669
 21
55.7904217064
 31
0.0
  0
LINE
  5
C7
330
1F
100
AcDbEntity
  8
0
  6
Continuous
 62
     7
370
    25
100
AcDbLine
 10
101.6752116406
 20
55.54784689
 30
0.0
 11
101.8844533584
 21
55.3386051721
 31
0.0
  0
LINE
  5
C8
330
1F
100
AcDbEntity
  8
0
  6
Continuous
 62
     7
370
    25
100
AcDbLine
 10
101.9094221669
 20
105.3136363636
 30
0.0
 11
101.8856126431
 21
105.7898268398
 31
0.0
  0
LINE
  5
C9
330
1F
100
AcDbEntity
  8
0
  6
Continuous
 62
     7
370
    25
100
AcDbLine
 10
101.9094221669
 20
105.3136363636
 30
0.0
 11
101.9094221669
 21
55.7904217064
 31
0.0
  0
LINE
  5
CA
330
1F
100
AcDbEntity
  8
0
  6
Continuous
 62
     7
370
    25
100
AcDbLine
 10
51.4343909753
 20
55.3386051721
 30
0.0
 11
101.8844533584
 21
55.3386051721
 31
0.0
  0
SPLINE
  5
CB
330
1F
100
AcDbEntity
  8
0
  6
Continuous
 62
     7
370
    25
100
AcDbSpline
210
0.0
220
0.0
230
1.0
 70
     8
 71
     3
 72
    10
 73
     6
 74
     0
 42
0.000000001
 43
0.00000001
 40
0.0
 40
0.0
 40
0.0
 40
0.0
 40
0.3565894496385898
 40
0.7128238934757397
 40
1.0
 40
1.0
 40
1.0
 40
1.0
 10
79.01644477082931
 20
92.56363636363645
 30
0.0
 10
79.01962112256679
 20
92.57464796900642
 30
0.0
 10
79.02597066379649
 20
92.5966602170446
 30
0.0
 10
79.06759963087596
 20
92.7437773996278
 30
0.0
 10
79.09512660834477
 20
92.89578858094873
 30
0.0
 10
79.10741283866759
 20
92.96363636363641
 30
0.0
  0
SPLINE
  5
CC
330
1F
100
AcDbEntity
  8
0
  6
Continuous
 62
     7
370
    25
100
AcDbSpline
210
0.0
220
0.0
230
1.0
 70
     8
 71
     3
 72
    11
 73
     7
 74
     0
 42
0.000000001
 43
0.00000001
 40
0.0
 40
0.0
 40
0.0
 40
0.0
 40
0.1063441899379332
 40
0.4742921956689087
 40
0.8449916078228493
 40
0.9999999999999999
 40
0.9999999999999999
 40
0.9999999999999999
 40
0.9999999999999999
 10
79.1066559213084
 20
94.16363636363643
 30
0.0
 10
79.10256143875671
 20
94.19129337882995
 30
0.0
 10
79.08430015790343
 20
94.31464291461036
 30
0.0
 10
79.04472350749147
 20
94.46187170360538
 30
0.0
 10
79.01916339709027
 20
94.55482964306786
 30
0.0
 10
79.01706383922787
 20
94.56163095286072
 30
0.0
 10
79.01644477082931
 20
94.56363636363646
 30
0.0
  0
SPLINE
  5
CD
330
1F
100
AcDbEntity
  8
0
  6
Continuous
 62
     7
370
    25
100
AcDbSpline
210
0.0
220
0.0
230
1.0
 70
     8
 71
     3
 72
    10
 73
     6
 74
     0
 42
0.000000001
 43
0.00000001
 40
0.0
 40
0.0
 40
0.0
 40
0.0
 40
0.3565894496385616
 40
0.7128238934756836
 40
1.0
 40
1.0
 40
1.0
 40
1.0
 10
74.30239956291899
 20
94.56363636363646
 30
0.0
 10
74.29922321118151
 20
94.55262475826648
 30
0.0
 10
74.29287366995182
 20
94.53061251022831
 30
0.0
 10
74.25124470287234
 20
94.3834953276451
 30
0.0
 10
74.22371772540352
 20
94.23148414632415
 30
0.0
 10
74.2114314950807
 20
94.16363636363643
 30
0.0
  0
SPLINE
  5
CE
330
1F
100
AcDbEntity
  8
0
  6
Continuous
 62
     7
370
    25
100
AcDbSpline
210
0.0
220
0.0
230
1.0
 70
     8
 71
     3
 72
    11
 73
     7
 74
     0
 42
0.000000001
 43
0.00000001
 40
0.0
 40
0.0
 40
0.0
 40
0.0
 40
0.1063441899378711
 40
0.4742921956688725
 40
0.8449916078228387
 40
1.0
 40
1.0
 40
1.0
 40
1.0
 10
74.2121884124399
 20
92.96363636363641
 30
0.0
 10
74.21628289499161
 20
92.93597934844291
 30
0.0
 10
74.23454417584487
 20
92.81262981266252
 30
0.0
 10
74.27412082625683
 20
92.66540102366753
 30
0.0
 10
74.29968093665804
 20
92.57244308420503
 30
0.0
 10
74.30178049452044
 20
92.56564177441217
 30
0.0
 10
74.30239956291899
 20
92.56363636363645
 30
0.0
  0
SPLINE
  5
CF
330
1F
100
AcDbEntity
  8
0
  6
Continuous
 62
     7
370
    25
100
AcDbSpline
210
0.0
220
0.0
230
1.0
 70
     8
 71
     3
 72
    10
 73
     6
 74
     0
 42
0.000000001
 43
0.00000001
 40
0.0
 40
0.0
 40
0.0
 40
0.0
 40
0.3565894496385879
 40
0.7128238934757367
 40
0.9999999999999999
 40
0.9999999999999999
 40
0.9999999999999999
 40
0.9999999999999999
 10
74.30239956291899
 20
68.56363636363643
 30
0.0
 10
74.29922321118151
 20
68.55262475826648
 30
0.0
 10
74.29287366995182
 20
68.5306125102283
 30
0.0
 10
74.25124470287234
 20
68.3834953276451
 30
0.0
 10
74.22371772540353
 20
68.23148414632416
 30
0.0
 10
74.2114314950807
 20
68.16363636363647
 30
0.0
  0
SPLINE
  5
D0
330
1F
100
AcDbEntity
  8
0
  6
Continuous
 62
     7
370
    25
100
AcDbSpline
210
0.0
220
0.0
230
1.0
 70
     8
 71
     3
 72
    11
 73
     7
 74
     0
 42
0.000000001
 43
0.00000001
 40
0.0
 40
0.0
 40
0.0
 40
0.0
 40
0.1063441899379288
 40
0.4742921956689066
 40
0.8449916078228483
 40
1.0
 40
1.0
 40
1.0
 40
1.0
 10
74.2121884124399
 20
66.96363636363647
 30
0.0
 10
74.2162828949916
 20
66.93597934844293
 30
0.0
 10
74.23454417584487
 20
66.81262981266254
 30
0.0
 10
74.27412082625683
 20
66.6654010236675
 30
0.0
 10
74.29968093665804
 20
66.57244308420503
 30
0.0
 10
74.30178049452044
 20
66.56564177441217
 30
0.0
 10
74.30239956291899
 20
66.56363636363643
 30
0.0
  0
SPLINE
  5
D1
330
1F
100
AcDbEntity
  8
0
  6
Continuous
 62
     7
370
    25
100
AcDbSpline
210
0.0
220
0.0
230
1.0
 70
     8
 71
     3
 72
    10
 73
     6
 74
     0
 42
0.000000001
 43
0.00000001
 40
0.0
 40
0.0
 40
0.0
 40
0.0
 40
0.3565894496385648
 40
0.7128238934756901
 40
1.0
 40
1.0
 40
1.0
 40
1.0
 10
79.01644477082931
 20
66.56363636363643
 30
0.0
 10
79.01962112256679
 20
66.57464796900642
 30
0.0
 10
79.02597066379649
 20
66.5966602170446
 30
0.0
 10
79.06759963087596
 20
66.7437773996278
 30
0.0
 10
79.09512660834478
 20
66.89578858094875
 30
0.0
 10
79.1074128386676
 20
66.96363636363647
 30
0.0
  0
SPLINE
  5
D2
330
1F
100
AcDbEntity
  8
0
  6
Continuous
 62
     7
370
    25
100
AcDbSpline
210
0.0
220
0.0
230
1.0
 70
     8
 71
     3
 72
    11
 73
     7
 74
     0
 42
0.000000001
 43
0.00000001
 40
0.0
 40
0.0
 40
0.0
 40
0.0
 40
0.1063441899378767
 40
0.4742921956688766
 40
0.8449916078228397
 40
1.0
 40
1.0
 40
1.0
 40
1.0
 10
79.1066559213084
 20
68.16363636363647
 30
0.0
 10
79.10256143875671
 20
68.19129337882998
 30
0.0
 10
79.08430015790343
 20
68.31464291461037
 30
0.0
 10
79.04472350749147
 20
68.4618717036054
 30
0.0
 10
79.01916339709027
 20
68.55482964306785
 30
0.0
 10
79.01706383922787
 20
68.56163095286072
 30
0.0
 10
79.01644477082931
 20
68.56363636363643
 30
0.0
  0
ARC
  5
D3
330
1F
100
AcDbEntity
  8
0
  6
Continuous
 62
     7
370
    25
100
AcDbCircle
 10
70.6594221669
 20
93.5636363636
 30
0.0
 40
1.000000000000003
100
AcDbArc
 50
270.0
 51
323.1301023542
  0
ARC
  5
D4
330
1F
100
AcDbEntity
  8
0
  6
Continuous
 62
     7
370
    25
100
AcDbCircle
 10
70.6594221669
 20
93.5636363636
 30
0.0
 40
1.0
100
AcDbArc
 50
36.8698976458
 51
90.0
  0
ARC
  5
D5
330
1F
100
AcDbEntity
  8
0
  6
Continuous
 62
     7
370
    25
100
AcDbCircle
 10
82.6594221669
 20
93.5636363636
 30
0.0
 40
1.0
100
AcDbArc
 50
90.0
 51
143.1301023542
  0
ARC
  5
D6
330
1F
100
AcDbEntity
  8
0
  6
Continuous
 62
     7
370
    25
100
AcDbCircle
 10
82.6594221669
 20
93.5636363636
 30
0.0
 40
1.000000000000003
100
AcDbArc
 50
216.8698976458
 51
270.0
  0
ARC
  5
D7
330
1F
100
AcDbEntity
  8
0
  6
Continuous
 62
     7
370
    25
100
AcDbCircle
 10
82.6594221669
 20
67.5636363636
 30
0.0
 40
1.0
100
AcDbArc
 50
90.0
 51
143.1301023542
  0
ARC
  5
D8
330
1F
100
AcDbEntity
  8
0
  6
Continuous
 62
     7
370
    25
100
AcDbCircle
 10
82.6594221669
 20
67.5636363636
 30
0.0
 40
1.0
100
AcDbArc
 50
216.8698976458
 51
270.0
  0
ARC
  5
D9
330
1F
100
AcDbEntity
  8
0
  6
Continuous
 62
     7
370
    25
100
AcDbCircle
 10
70.6594221669
 20
67.5636363636
 30
0.0
 40
1.0
100
AcDbArc
 50
270.0
 51
323.1301023542
  0
ARC
  5
DA
330
1F
100
AcDbEntity
  8
0
  6
Continuous
 62
     7
370
    25
100
AcDbCircle
 10
70.6594221669
 20
67.5636363636
 30
0.0
 40
1.0
100
AcDbArc
 50
36.8698976458
 51
90.0
  0
SPLINE
  5
DB
330
1F
100
AcDbEntity
  8
0
  6
Continuous
 62
     7
370
    25
100
AcDbSpline
210
0.0
220
0.0
230
1.0
 70
     8
 71
     3
 72
    15
 73
    11
 74
     0
 42
0.000000001
 43
0.00000001
 40
0.0
 40
0.0
 40
0.0
 40
0.0
 40
0.1507579450601072
 40
0.2261838340718738
 40
0.3019785994494767
 40
0.4529055754540675
 40
0.6036031616323305
 40
0.7546761806333661
 40
0.9053646270911394
 40
1.0
 40
1.0
 40
1.0
 40
1.0
 10
76.65942216687415
 20
91.06363636363646
 30
0.0
 10
76.8073556462177
 20
91.07525219038637
 30
0.0
 10
77.02930190272957
 20
91.09267954540347
 30
0.0
 10
77.307977854752
 20
91.19536255888048
 30
0.0
 10
77.5719928493369
 20
91.3287430575438
 30
0.0
 10
77.86837295380204
 20
91.55447790514027
 30
0.0
 10
78.16012047798479
 20
91.89111376869073
 30
0.0
 10
78.38296859990267
 20
92.27506110024596
 30
0.0
 10
78.52937159905942
 20
92.6368915664282
 30
0.0
 10
78.57509739692398
 20
92.87267951813135
 30
0.0
 10
78.59273644209962
 20
92.96363636363641
 30
0.0
  0
SPLINE
  5
DC
330
1F
100
AcDbEntity
  8
0
  6
Continuous
 62
     7
370
    25
100
AcDbSpline
210
0.0
220
0.0
230
1.0
 70
     8
 71
     3
 72
    21
 73
    17
 74
     0
 42
0.000000001
 43
0.00000001
 40
0.0
 40
0.0
 40
0.0
 40
0.0
 40
0.0472243090445845
 40
0.1227434405793348
 40
0.1978057000196011
 40
0.2733482199778078
 40
0.3487531980516616
 40
0.4240585297886122
 40
0.4999078482736428
 40
0.5752055498175546
 40
0.6507571918941221
 40
0.7263937425610467
 40
0.8019691631281167
 40
0.8774065941233382
 40
0.9530660972263888
 40
1.0
 40
1.0
 40
1.0
 40
1.0
 10
78.5928531548341
 20
94.16363636363643
 30
0.0
 10
78.57522120145998
 20
94.25437752356568
 30
0.0
 10
78.52939296881758
 20
94.49022813519373
 30
0.0
 10
78.38338376109961
 20
94.8512747166613
 30
0.0
 10
78.16089932382926
 20
95.23494353098718
 30
0.0
 10
77.86989547338943
 20
95.5714316048426
 30
0.0
 10
77.51531319311349
 20
95.84171273209341
 30
0.0
 10
77.10507549032268
 20
96.02106514025361
 30
0.0
 10
76.66105905549168
 20
96.0847613590797
 30
0.0
 10
76.21655280457698
 20
96.02178446276719
 30
0.0
 10
75.80602181875142
 20
95.84332975870933
 30
0.0
 10
75.45032652157552
 20
95.57280798430604
 30
0.0
 10
75.15827619479302
 20
95.23555267946612
 30
0.0
 10
74.93524791436948
 20
94.85094023645642
 30
0.0
 10
74.78913312995734
 20
94.4894366073689
 30
0.0
 10
74.7435613473304
 20
94.25383467495689
 30
0.0
 10
74.72611455563931
 20
94.16363636363643
 30
0.0
  0
SPLINE
  5
DD
330
1F
100
AcDbEntity
  8
0
  6
Continuous
 62
     7
370
    25
100
AcDbSpline
210
0.0
220
0.0
230
1.0
 70
     8
 71
     3
 72
    14
 73
    10
 74
     0
 42
0.000000001
 43
0.00000001
 40
0.0
 40
0.0
 40
0.0
 40
0.0
 40
0.0963271108263435
 40
0.2463140418725413
 40
0.3963233198272145
 40
0.5475066696252177
 40
0.6988069983838912
 40
0.8497053477290447
 40
0.9999999999999999
 40
0.9999999999999999
 40
0.9999999999999999
 40
0.9999999999999999
 10
74.72604630599484
 20
92.96363636363641
 30
0.0
 10
74.74410621816858
 20
92.8711022387353
 30
0.0
 10
74.79028646716826
 20
92.63448708314718
 30
0.0
 10
74.9369820049784
 20
92.2729657825617
 30
0.0
 10
75.15930071601588
 20
91.8905386011227
 30
0.0
 10
75.45094044427236
 20
91.55346480089155
 30
0.0
 10
75.80665283852605
 20
91.28510571149019
 30
0.0
 10
76.21680565199418
 20
91.09986457790156
 30
0.0
 10
76.51208060698754
 20
91.07569628779716
 30
0.0
 10
76.65942216687415
 20
91.06363636363646
 30
0.0
  0
SPLINE
  5
DE
330
1F
100
AcDbEntity
  8
0
  6
Continuous
 62
     7
370
    25
100
AcDbSpline
210
0.0
220
0.0
230
1.0
 70
     8
 71
     3
 72
    15
 73
    11
 74
     0
 42
0.000000001
 43
0.00000001
 40
0.0
 40
0.0
 40
0.0
 40
0.0
 40
0.1507579450601059
 40
0.2261838340718716
 40
0.3019785994494734
 40
0.4529055754540636
 40
0.6036031616323244
 40
0.7546761806333595
 40
0.9053646270911314
 40
1.0
 40
1.0
 40
1.0
 40
1.0
 10
76.65942216687415
 20
70.06363636363643
 30
0.0
 10
76.5114886875306
 20
70.05202053688653
 30
0.0
 10
76.28954243101873
 20
70.03459318186944
 30
0.0
 10
76.0108664789963
 20
69.93191016839242
 30
0.0
 10
75.74685148441141
 20
69.79852966972909
 30
0.0
 10
75.45047137994626
 20
69.57279482213262
 30
0.0
 10
75.15872385576351
 20
69.23615895858218
 30
0.0
 10
74.93587573384563
 20
68.85221162702693
 30
0.0
 10
74.78947273468889
 20
68.49038116084469
 30
0.0
 10
74.74374693682432
 20
68.25459320914153
 30
0.0
 10
74.72610789164868
 20
68.16363636363646
 30
0.0
  0
SPLINE
  5
DF
330
1F
100
AcDbEntity
  8
0
  6
Continuous
 62
     7
370
    25
100
AcDbSpline
210
0.0
220
0.0
230
1.0
 70
     8
 71
     3
 72
    21
 73
    17
 74
     0
 42
0.000000001
 43
0.00000001
 40
0.0
 40
0.0
 40
0.0
 40
0.0
 40
0.0472243090445804
 40
0.1227434405793311
 40
0.197805700019599
 40
0.2733482199778059
 40
0.3487531980516594
 40
0.4240585297886113
 40
0.4999078482736428
 40
0.5752055498175548
 40
0.6507571918941226
 40
0.726393742561048
 40
0.8019691631281188
 40
0.8774065941233411
 40
0.9530660972263912
 40
0.9999999999999999
 40
0.9999999999999999
 40
0.9999999999999999
 40
0.9999999999999999
 10
74.7259911789142
 20
66.96363636363647
 30
0.0
 10
74.74362313228832
 20
66.8728952037072
 30
0.0
 10
74.78945136493071
 20
66.63704459207916
 30
0.0
 10
74.93546057264868
 20
66.2759980106116
 30
0.0
 10
75.15794500991905
 20
65.89232919628571
 30
0.0
 10
75.44894886035885
 20
65.5558411224303
 30
0.0
 10
75.80353114063482
 20
65.28555999517947
 30
0.0
 10
76.21376884342563
 20
65.10620758701928
 30
0.0
 10
76.65778527825663
 20
65.04251136819319
 30
0.0
 10
77.10229152917132
 20
65.10548826450571
 30
0.0
 10
77.51282251499688
 20
65.28394296856357
 30
0.0
 10
77.8685178121728
 20
65.55446474296684
 30
0.0
 10
78.1605681389553
 20
65.89172004780677
 30
0.0
 10
78.38359641937882
 20
66.27633249081647
 30
0.0
 10
78.52971120379097
 20
66.637836119904
 30
0.0
 10
78.5752829864179
 20
66.87343805231599
 30
0.0
 10
78.59272977810899
 20
66.96363636363647
 30
0.0
  0
SPLINE
  5
E0
330
1F
100
AcDbEntity
  8
0
  6
Continuous
 62
     7
370
    25
100
AcDbSpline
210
0.0
220
0.0
230
1.0
 70
     8
 71
     3
 72
    14
 73
    10
 74
     0
 42
0.000000001
 43
0.00000001
 40
0.0
 40
0.0
 40
0.0
 40
0.0
 40
0.0963271108263494
 40
0.2463140418725468
 40
0.3963233198272189
 40
0.5475066696252257
 40
0.698806998383892
 40
0.8497053477290524
 40
1.0
 40
1.0
 40
1.0
 40
1.0
 10
78.59279802775347
 20
68.16363636363646
 30
0.0
 10
78.57473811557972
 20
68.25617048853758
 30
0.0
 10
78.52855786658004
 20
68.49278564412572
 30
0.0
 10
78.3818623287699
 20
68.8543069447112
 30
0.0
 10
78.15954361773242
 20
69.2367341261502
 30
0.0
 10
77.86790388947594
 20
69.57380792638135
 30
0.0
 10
77.51219149522225
 20
69.8421670157827
 30
0.0
 10
77.10203868175412
 20
70.02740814937135
 30
0.0
 10
76.80676372676076
 20
70.05157643947574
 30
0.0
 10
76.65942216687415
 20
70.06363636363643
 30
0.0
  0
ARC
  5
E1
330
1F
100
AcDbEntity
  8
0
  6
Continuous
 62
     7
370
    25
100
AcDbCircle
 10
82.6594221669
 20
93.5636363636
 30
0.0
 40
0.7000000000000028
100
AcDbArc
 50
90.0
 51
121.0027191339
  0
ARC
  5
E2
330
1F
100
AcDbEntity
  8
0
  6
Continuous
 62
     7
370
    25
100
AcDbCircle
 10
82.6594221669
 20
93.5636363636
 30
0.0
 40
0.7000000000000105
100
AcDbArc
 50
238.9972808661
 51
90.0
  0
ARC
  5
E3
330
1F
100
AcDbEntity
  8
0
  6
Continuous
 62
     7
370
    25
100
AcDbCircle
 10
70.6594221669
 20
93.5636363636
 30
0.0
 40
0.7000000000000033
100
AcDbArc
 50
90.0
 51
301.0027191339
  0
ARC
  5
E4
330
1F
100
AcDbEntity
  8
0
  6
Continuous
 62
     7
370
    25
100
AcDbCircle
 10
70.6594221669
 20
93.5636363636
 30
0.0
 40
0.7000000000000028
100
AcDbArc
 50
58.9972808661
 51
90.0
  0
ARC
  5
E5
330
1F
100
AcDbEntity
  8
0
  6
Continuous
 62
     7
370
    25
100
AcDbCircle
 10
82.6594221669
 20
67.5636363636
 30
0.0
 40
0.7000000000000007
100
AcDbArc
 50
90.0
 51
121.0027191339
  0
ARC
  5
E6
330
1F
100
AcDbEntity
  8
0
  6
Continuous
 62
     7
370
    25
100
AcDbCircle
 10
82.6594221669
 20
67.5636363636
 30
0.0
 40
0.699999999999996
100
AcDbArc
 50
238.9972808661
 51
90.0
  0
ARC
  5
E7
330
1F
100
AcDbEntity
  8
0
  6
Continuous
 62
     7
370
    25
100
AcDbCircle
 10
70.6594221669
 20
67.5636363636
 30
0.0
 40
0.699999999999996
100
AcDbArc
 50
90.0
 51
301.0027191339
  0
ARC
  5
E8
330
1F
100
AcDbEntity
  8
0
  6
Continuous
 62
     7
370
    25
100
AcDbCircle
 10
70.6594221669
 20
67.5636363636
 30
0.0
 40
0.7000000000000007
100
AcDbArc
 50
58.9972808661
 51
90.0
  0
ARC
  5
E9
330
1F
100
AcDbEntity
  8
0
  6
Continuous
 62
     7
370
    25
100
AcDbCircle
 10
70.6594221669
 20
93.5636363636
 30
0.0
 40
0.6000000000000085
100
AcDbArc
 50
90.0
 51
270.0
  0
ARC
  5
EA
330
1F
100
AcDbEntity
  8
0
  6
Continuous
 62
     7
370
    25
100
AcDbCircle
 10
82.6594221669
 20
93.5636363636
 30
0.0
 40
0.6000000000000085
100
AcDbArc
 50
270.0
 51
90.0
  0
ARC
  5
EB
330
1F
100
AcDbEntity
  8
0
  6
Continuous
 62
     7
370
    25
100
AcDbCircle
 10
82.6594221669
 20
67.5636363636
 30
0.0
 40
0.6000000000000085
100
AcDbArc
 50
270.0
 51
90.0
  0
ARC
  5
EC
330
1F
100
AcDbEntity
  8
0
  6
Continuous
 62
     7
370
    25
100
AcDbCircle
 10
70.6594221669
 20
67.5636363636
 30
0.0
 40
0.6000000000000085
100
AcDbArc
 50
90.0
 51
270.0
  0
LINE
  5
ED
330
1F
100
AcDbEntity
  8
0
  6
Continuous
 62
     7
370
    25
100
AcDbLine
 10
106.6594221669
 20
50.5636363636
 30
0.0
 11
106.6594221669
 21
110.5636363636
 31
0.0
  0
LINE
  5
EE
330
1F
100
AcDbEntity
  8
0
  6
Continuous
 62
     7
370
    25
100
AcDbLine
 10
46.6594221669
 20
50.5636363636
 30
0.0
 11
106.6594221669
 21
50.5636363636
 31
0.0
  0
LINE
  5
EF
330
1F
100
AcDbEntity
  8
0
  6
Continuous
 62
     7
370
    25
100
AcDbLine
 10
46.6594221669
 20
110.5636363636
 30
0.0
 11
46.6594221669
 21
50.5636363636
 31
0.0
  0
LINE
  5
F0
330
1F
100
AcDbEntity
  8
0
  6
Continuous
 62
     7
370
    25
100
AcDbLine
 10
102.2594221669
 20
54.9636363636
 30
0.0
 11
102.2594221669
 21
106.1636363636
 31
0.0
  0
LINE
  5
F1
330
1F
100
AcDbEntity
  8
0
  6
Continuous
 62
     7
370
    25
100
AcDbLine
 10
102.2594221669
 20
106.1636363636
 30
0.0
 11
51.0594221669
 21
106.1636363636
 31
0.0
  0
LINE
  5
F2
330
1F
100
AcDbEntity
  8
0
  6
Continuous
 62
     7
370
    25
100
AcDbLine
 10
51.0594221669
 20
106.1636363636
 30
0.0
 11
51.0594221669
 21
54.9636363636
 31
0.0
  0
LINE
  5
F3
330
1F
100
AcDbEntity
  8
0
  6
Continuous
 62
     7
370
    25
100
AcDbLine
 10
51.0594221669
 20
54.9636363636
 30
0.0
 11
102.2594221669
 21
54.9636363636
 31
0.0
  0
LINE
  5
F4
330
1F
100
AcDbEntity
  8
0
  6
Continuous
 62
     7
370
    25
100
AcDbLine
 10
106.6594221669
 20
110.5636363636
 30
0.0
 11
46.6594221669
 21
110.5636363636
 31
0.0
  0
ELLIPSE
  5
F5
330
1F
100
AcDbEntity
  8
0
  6
PHANTOM
 62
     8
370
    18
100
AcDbEllipse
 10
82.6594221669
 20
93.5636363636
 30
0.0
 11
1.799999999999997
 21
0.0
 31
0.0
210
0.0
220
0.0
230
1.0
 40
0.5555555556
 41
3.785093762383135
 42
4.712388980384698
  0
ELLIPSE
  5
F6
330
1F
100
AcDbEntity
  8
0
  6
PHANTOM
 62
     8
370
    18
100
AcDbEllipse
 10
82.6594221669
 20
93.5636363636
 30
0.0
 11
1.799999999999997
 21
0.0
 31
0.0
210
0.0
220
0.0
230
1.0
 40
0.5555555556
 41
1.570796326794881
 42
2.498091544796539
  0
ELLIPSE
  5
F7
330
1F
100
AcDbEntity
  8
0
  6
PHANTOM
 62
     8
370
    18
100
AcDbEllipse
 10
70.6594221669
 20
93.5636363636
 30
0.0
 11
1.799999999999997
 21
0.0
 31
0.0
210
0.0
220
0.0
230
1.0
 40
0.5555555556
 41
0.6435011087932542
 42
1.570796326794897
  0
ELLIPSE
  5
F8
330
1F
100
AcDbEntity
  8
0
  6
PHANTOM
 62
     8
370
    18
100
AcDbEllipse
 10
70.6594221669
 20
93.5636363636
 30
0.0
 11
1.799999999999997
 21
0.0
 31
0.0
210
0.0
220
0.0
230
1.0
 40
0.5555555556
 41
4.712388980384682
 42
5.639684198386282
  0
ELLIPSE
  5
F9
330
1F
100
AcDbEntity
  8
0
  6
PHANTOM
 62
     8
370
    18
100
AcDbEllipse
 10
70.6594221669
 20
67.5636363636
 30
0.0
 11
1.799999999999997
 21
0.0
 31
0.0
210
0.0
220
0.0
230
1.0
 40
0.5555555556
 41
0.6435011087933119
 42
1.570796326794897
  0
ELLIPSE
  5
FA
330
1F
100
AcDbEntity
  8
0
  6
PHANTOM
 62
     8
370
    18
100
AcDbEllipse
 10
70.6594221669
 20
67.5636363636
 30
0.0
 11
1.799999999999997
 21
0.0
 31
0.0
210
0.0
220
0.0
230
1.0
 40
0.5555555556
 41
4.712388980384682
 42
5.639684198386346
  0
ELLIPSE
  5
FB
330
1F
100
AcDbEntity
  8
0
  6
PHANTOM
 62
     8
370
    18
100
AcDbEllipse
 10
82.6594221669
 20
67.5636363636
 30
0.0
 11
1.799999999999997
 21
0.0
 31
0.0
210
0.0
220
0.0
230
1.0
 40
0.5555555556
 41
3.785093762383071
 42
4.712388980384698
  0
ELLIPSE
  5
FC
330
1F
100
AcDbEntity
  8
0
  6
PHANTOM
 62
     8
370
    18
100
AcDbEllipse
 10
82.6594221669
 20
67.5636363636
 30
0.0
 11
1.799999999999997
 21
0.0
 31
0.0
210
0.0
220
0.0
230
1.0
 40
0.5555555556
 41
1.570796326794881
 42
2.498091544796486
  0
LINE
  5
FD
330
1F
100
AcDbEntity
  8
0
  6
PHANTOM
 62
     8
370
    18
100
AcDbLine
 10
72.0594221669
 20
92.9636363636
 30
0.0
 11
72.0594221669
 21
94.1636363636
 31
0.0
  0
LINE
  5
FE
330
1F
100
AcDbEntity
  8
0
  6
PHANTOM
 62
     8
370
    18
100
AcDbLine
 10
81.2594221669
 20
92.9636363636
 30
0.0
 11
81.2594221669
 21
94.1636363636
 31
0.0
  0
LINE
  5
FF
330
1F
100
AcDbEntity
  8
0
  6
PHANTOM
 62
     8
370
    18
100
AcDbLine
 10
81.2594221669
 20
66.9636363636
 30
0.0
 11
81.2594221669
 21
68.1636363636
 31
0.0
  0
LINE
  5
100
330
1F
100
AcDbEntity
  8
0
  6
PHANTOM
 62
     8
370
    18
100
AcDbLine
 10
72.0594221669
 20
66.9636363636
 30
0.0
 11
72.0594221669
 21
68.1636363636
 31
0.0
  0
LINE
  5
101
330
1F
100
AcDbEntity
  8
0
  6
PHANTOM
 62
     7
370
    35
100
AcDbLine
 10
76.6594221669
 20
131.0534328484
 30
0.0
 11
76.6594221669
 21
30.0738398789
 31
0.0
  0
LINE
  5
102
330
1F
100
AcDbEntity
  8
0
  6
Continuous
 62
     7
370
    35
100
AcDbLine
 10
64.6594221669
 20
129.0534328484
 30
0.0
 11
76.6594221669
 21
129.0534328484
 31
0.0
  0
SOLID
  5
103
330
1F
100
AcDbEntity
  8
0
  6
Continuous
 62
     7
370
    35
100
AcDbTrace
 10
76.6594221669
 20
129.0534328484
 30
0.0
 11
70.6594221669
 21
130.5534328484
 31
0.0
 12
70.6594221669
 22
127.5534328484
 32
0.0
 13
70.6594221669
 23
127.5534328484
 33
0.0
  0
LINE
  5
104
330
1F
100
AcDbEntity
  8
0
  6
Continuous
 62
     7
370
    35
100
AcDbLine
 10
64.6594221669
 20
32.0738398789
 30
0.0
 11
76.6594221669
 21
32.0738398789
 31
0.0
  0
SOLID
  5
105
330
1F
100
AcDbEntity
  8
0
  6
Continuous
 62
     7
370
    35
100
AcDbTrace
 10
76.6594221669
 20
32.0738398789
 30
0.0
 11
70.6594221669
 21
33.5738398789
 31
0.0
 12
70.6594221669
 22
30.5738398789
 32
0.0
 13
70.6594221669
 23
30.5738398789
 33
0.0
  0
MTEXT
  5
107
330
1F
100
AcDbEntity
  8
0
  6
Continuous
 62
     7
100
AcDbMText
 10
64.6594221669
 20
139.1368614198
 30
0.0
 40
6.35
 41
0.0
 46
0.0
 71
     1
 72
     1
  1
A
  7
SLDTEXTSTYLE0
 73
     1
 44
1.0
  0
MTEXT
  5
108
330
1F
100
AcDbEntity
  8
0
  6
Continuous
 62
     7
100
AcDbMText
 10
64.6594221669
 20
28.7160581646
 30
0.0
 40
6.35
 41
0.0
 46
0.0
 71
     1
 72
     1
  1
A
  7
SLDTEXTSTYLE0
 73
     1
 44
1.0
  0
LINE
  5
109
330
1F
100
AcDbEntity
  8
0
  6
PHANTOM
 62
     7
370
    35
100
AcDbLine
 10
126.2594221669
 20
80.5636363636
 30
0.0
 11
27.0594221669
 21
80.5636363636
 31
0.0
  0
LINE
  5
10A
330
1F
100
AcDbEntity
  8
0
  6
Continuous
 62
     7
370
    35
100
AcDbLine
 10
124.2594221669
 20
68.5636363636
 30
0.0
 11
124.2594221669
 21
80.5636363636
 31
0.0
  0
SOLID
  5
10B
330
1F
100
AcDbEntity
  8
0
  6
Continuous
 62
     7
370
    35
100
AcDbTrace
 10
124.2594221669
 20
80.5636363636
 30
0.0
 11
122.7594221669
 21
74.5636363636
 31
0.0
 12
125.7594221669
 22
74.5636363636
 32
0.0
 13
125.7594221669
 23
74.5636363636
 33
0.0
  0
LINE
  5
10C
330
1F
100
AcDbEntity
  8
0
  6
Continuous
 62
     7
370
    35
100
AcDbLine
 10
29.0594221669
 20
68.5636363636
 30
0.0
 11
29.0594221669
 21
80.5636363636
 31
0.0
  0
SOLID
  5
10D
330
1F
100
AcDbEntity
  8
0
  6
Continuous
 62
     7
370
    35
100
AcDbTrace
 10
29.0594221669
 20
80.5636363636
 30
0.0
 11
27.5594221669
 21
74.5636363636
 31
0.0
 12
30.5594221669
 22
74.5636363636
 32
0.0
 13
30.5594221669
 23
74.5636363636
 33
0.0
  0
MTEXT
  5
10E
330
1F
100
AcDbEntity
  8
0
  6
Continuous
 62
     7
100
AcDbMText
 10
126.2032507383
 20
78.6470649351
 30
0.0
 40
6.35
 41
0.0
 46
0.0
 71
     1
 72
     1
  1
B
  7
SLDTEXTSTYLE0
 73
     1
 44
1.0
  0
MTEXT
  5
10F
330
1F
100
AcDbEntity
  8
0
  6
Continuous
 62
     7
100
AcDbMText
 10
22.2560221669
 20
78.6470649351
 30
0.0
 40
6.35
 41
0.0
 46
0.0
 71
     1
 72
     1
  1
B
  7
SLDTEXTSTYLE0
 73
     1
 44
1.0
  0
LINE
  5
110
330
1F
100
AcDbEntity
  8
0
  6
Continuous
 62
     7
370
    25
100
AcDbLine
 10
231.5341609613
 20
94.1636363636
 30
0.0
 11
230.1341609613
 21
94.1636363636
 31
0.0
  0
LINE
  5
111
330
1F
100
AcDbEntity
  8
0
  6
Continuous
 62
     7
370
    25
100
AcDbLine
 10
230.1341609613
 20
92.9636363636
 30
0.0
 11
231.5341609613
 21
92.9636363636
 31
0.0
  0
LINE
  5
112
330
1F
100
AcDbEntity
  8
0
  6
Continuous
 62
     7
370
    25
100
AcDbLine
 10
215.5823856749
 20
92.9636363636
 30
0.0
 11
219.6275695216
 21
92.9636363636
 31
0.0
  0
LINE
  5
113
330
1F
100
AcDbEntity
  8
0
  6
Continuous
 62
     7
370
    25
100
AcDbLine
 10
223.9393150343
 20
92.9636363636
 30
0.0
 11
230.1341609613
 21
92.9636363636
 31
0.0
  0
LINE
  5
114
330
1F
100
AcDbEntity
  8
0
  6
Continuous
 62
     7
370
    25
100
AcDbLine
 10
214.6341609613
 20
92.9636363636
 30
0.0
 11
215.284994249
 21
92.9636363636
 31
0.0
  0
LINE
  5
115
330
1F
100
AcDbEntity
  8
0
  6
Continuous
 62
     7
370
    25
100
AcDbLine
 10
215.2859362476
 20
94.1636363636
 30
0.0
 11
214.6341609613
 21
94.1636363636
 31
0.0
  0
LINE
  5
116
330
1F
100
AcDbEntity
  8
0
  6
Continuous
 62
     7
370
    25
100
AcDbLine
 10
230.1341609613
 20
94.1636363636
 30
0.0
 11
223.9415343693
 21
94.1636363636
 31
0.0
  0
LINE
  5
117
330
1F
100
AcDbEntity
  8
0
  6
Continuous
 62
     7
370
    25
100
AcDbLine
 10
219.6275695216
 20
94.1636363636
 30
0.0
 11
215.5833276735
 21
94.1636363636
 31
0.0
  0
LINE
  5
118
330
1F
100
AcDbEntity
  8
0
  6
Continuous
 62
     7
370
    25
100
AcDbLine
 10
225.2141471407
 20
68.1636363636
 30
0.0
 11
223.9436025273
 21
68.1636363636
 31
0.0
  0
LINE
  5
119
330
1F
100
AcDbEntity
  8
0
  6
Continuous
 62
     7
370
    25
100
AcDbLine
 10
223.9411912054
 20
66.9636363636
 30
0.0
 11
225.2141471407
 21
66.9636363636
 31
0.0
  0
LINE
  5
11A
330
1F
100
AcDbEntity
  8
0
  6
Continuous
 62
     7
370
    25
100
AcDbLine
 10
209.2623718544
 20
66.9636363636
 30
0.0
 11
219.6275695216
 21
66.9636363636
 31
0.0
  0
LINE
  5
11B
330
1F
100
AcDbEntity
  8
0
  6
Continuous
 62
     7
370
    25
100
AcDbLine
 10
208.3141471407
 20
66.9636363636
 30
0.0
 11
208.9649804284
 21
66.9636363636
 31
0.0
  0
LINE
  5
11C
330
1F
100
AcDbEntity
  8
0
  6
Continuous
 62
     7
370
    25
100
AcDbLine
 10
208.965922427
 20
68.1636363636
 30
0.0
 11
208.3141471407
 21
68.1636363636
 31
0.0
  0
LINE
  5
11D
330
1F
100
AcDbEntity
  8
0
  6
Continuous
 62
     7
370
    25
100
AcDbLine
 10
219.6275695216
 20
68.1636363636
 30
0.0
 11
209.2633138529
 21
68.1636363636
 31
0.0
  0
LINE
  5
11E
330
1F
100
AcDbEntity
  8
0
  6
Continuous
 62
     7
370
    25
100
AcDbLine
 10
220.1275695216
 20
95.0636363636
 30
0.0
 11
220.1275695216
 21
92.0636363636
 31
0.0
  0
LINE
  5
11F
330
1F
100
AcDbEntity
  8
0
  6
Continuous
 62
     7
370
    25
100
AcDbLine
 10
219.6275695216
 20
92.0636363636
 30
0.0
 11
220.1275695216
 21
92.0636363636
 31
0.0
  0
LINE
  5
120
330
1F
100
AcDbEntity
  8
0
  6
Continuous
 62
     7
370
    25
100
AcDbLine
 10
219.6275695216
 20
95.0636363636
 30
0.0
 11
219.6275695216
 21
92.0636363636
 31
0.0
  0
LINE
  5
121
330
1F
100
AcDbEntity
  8
0
  6
Continuous
 62
     7
370
    25
100
AcDbLine
 10
220.1275695216
 20
95.0636363636
 30
0.0
 11
219.6275695216
 21
95.0636363636
 31
0.0
  0
CIRCLE
  5
122
330
1F
100
AcDbEntity
  8
0
  6
Continuous
 62
     7
370
    25
100
AcDbCircle
 10
231.5341609613
 20
93.5636363636
 30
0.0
 40
0.5999999999999943
  0
SPLINE
  5
123
330
1F
100
AcDbEntity
  8
0
  6
Continuous
 62
     7
370
    25
100
AcDbSpline
210
0.0
220
0.0
230
1.0
 70
     8
 71
     3
 72
    12
 73
     8
 74
     0
 42
0.000000001
 43
0.00000001
 40
0.0
 40
0.0
 40
0.0
 40
0.0
 40
0.2102368137036651
 40
0.4203117740116917
 40
0.6345595891345212
 40
0.8517354997436793
 40
1.0
 40
1.0
 40
1.0
 40
1.0
 10
215.4341609612504
 20
94.14458386556764
 30
0.0
 10
215.4175984243209
 20
94.14500842481061
 30
0.0
 10
215.3844861013343
 20
94.14585721644437
 30
0.0
 10
215.3400688792792
 20
94.1517809718514
 30
0.0
 10
215.3061795312531
 20
94.15828541041627
 30
0.0
 10
215.2862748994987
 20
94.16310181890411
 30
0.0
 10
215.2860339886154
 20
94.16316941397913
 30
0.0
 10
215.2859362475592
 20
94.16319683828614
 30
0.0
  0
SPLINE
  5
124
330
1F
100
AcDbEntity
  8
0
  6
Continuous
 62
     7
370
    25
100
AcDbSpline
210
0.0
220
0.0
230
1.0
 70
     8
 71
     3
 72
    12
 73
     8
 74
     0
 42
0.000000001
 43
0.00000001
 40
0.0
 40
0.0
 40
0.0
 40
0.0
 40
0.1850155142180021
 40
0.3932880088947864
 40
0.6065814976900498
 40
0.8237467627134422
 40
1.0
 40
1.0
 40
1.0
 40
1.0
 10
215.5833276735252
 20
94.16343172066613
 30
0.0
 10
215.5824183622314
 20
94.16319770472955
 30
0.0
 10
215.5804854366077
 20
94.1627002563824
 30
0.0
 10
215.5580676736698
 20
94.15740821145796
 30
0.0
 10
215.522621878617
 20
94.15085358858497
 30
0.0
 10
215.4789895669339
 20
94.14554562538426
 30
0.0
 10
215.4480306801176
 20
94.14488142865422
 30
0.0
 10
215.4341609612504
 20
94.14458386556764
 30
0.0
  0
SPLINE
  5
125
330
1F
100
AcDbEntity
  8
0
  6
Continuous
 62
     7
370
    25
100
AcDbSpline
210
0.0
220
0.0
230
1.0
 70
     8
 71
     3
 72
    12
 73
     8
 74
     0
 42
0.000000001
 43
0.00000001
 40
0.0
 40
0.0
 40
0.0
 40
0.0
 40
0.2102368137036815
 40
0.4203117740116799
 40
0.6345595891345186
 40
0.8517354997436696
 40
0.9999999999999999
 40
0.9999999999999999
 40
0.9999999999999999
 40
0.9999999999999999
 10
215.4341609612504
 20
92.98268886170541
 30
0.0
 10
215.45072349818
 20
92.98226430246244
 30
0.0
 10
215.4838358211665
 20
92.98141551082867
 30
0.0
 10
215.5282530432216
 20
92.97549175542163
 30
0.0
 10
215.5621423912477
 20
92.96898731685678
 30
0.0
 10
215.5820470230022
 20
92.96417090836891
 30
0.0
 10
215.5822879338855
 20
92.9641033132939
 30
0.0
 10
215.5823856749416
 20
92.96407588898691
 30
0.0
  0
SPLINE
  5
126
330
1F
100
AcDbEntity
  8
0
  6
Continuous
 62
     7
370
    25
100
AcDbSpline
210
0.0
220
0.0
230
1.0
 70
     8
 71
     3
 72
    12
 73
     8
 74
     0
 42
0.000000001
 43
0.00000001
 40
0.0
 40
0.0
 40
0.0
 40
0.0
 40
0.1850155142180239
 40
0.3932880088947959
 40
0.6065814976900737
 40
0.8237467627134436
 40
1.0
 40
1.0
 40
1.0
 40
1.0
 10
215.2849942489756
 20
92.9638410066069
 30
0.0
 10
215.2859035602694
 20
92.96407502254348
 30
0.0
 10
215.2878364858931
 20
92.96457247089066
 30
0.0
 10
215.3102542488311
 20
92.96986451581508
 30
0.0
 10
215.3457000438838
 20
92.97641913868807
 30
0.0
 10
215.3893323555669
 20
92.9817271018888
 30
0.0
 10
215.4202912423833
 20
92.98239129861882
 30
0.0
 10
215.4341609612504
 20
92.98268886170541
 30
0.0
  0
LINE
  5
127
330
1F
100
AcDbEntity
  8
0
  6
Continuous
 62
     7
370
    25
100
AcDbLine
 10
214.6341609613
 20
94.1636363636
 30
0.0
 11
214.6341609613
 21
92.9636363636
 31
0.0
  0
LINE
  5
128
330
1F
100
AcDbEntity
  8
0
  6
Continuous
 62
     7
370
    25
100
AcDbLine
 10
224.8117800479
 20
55.54784689
 30
0.0
 11
225.1275695216
 21
55.8636363636
 31
0.0
  0
LINE
  5
129
330
1F
100
AcDbEntity
  8
0
  6
Continuous
 62
     7
370
    25
100
AcDbLine
 10
224.8117800479
 20
55.54784689
 30
0.0
 11
220.6269456911
 21
55.3386051721
 31
0.0
  0
LINE
  5
12A
330
1F
100
AcDbEntity
  8
0
  6
Continuous
 62
     7
370
    25
100
AcDbLine
 10
220.1275695216
 20
55.7904217064
 30
0.0
 11
220.6269456911
 21
55.3386051721
 31
0.0
  0
LINE
  5
12B
330
1F
100
AcDbEntity
  8
0
  6
Continuous
 62
     7
370
    25
100
AcDbLine
 10
220.1275695216
 20
55.7904217064
 30
0.0
 11
220.1275695216
 21
105.3136363636
 31
0.0
  0
LINE
  5
12C
330
1F
100
AcDbEntity
  8
0
  6
Continuous
 62
     7
370
    25
100
AcDbLine
 10
220.6037599978
 20
105.7898268398
 30
0.0
 11
220.1275695216
 21
105.3136363636
 31
0.0
  0
LINE
  5
12D
330
1F
100
AcDbEntity
  8
0
  6
Continuous
 62
     7
370
    25
100
AcDbLine
 10
220.6037599978
 20
105.7898268398
 30
0.0
 11
224.8117800479
 21
105.5794258373
 31
0.0
  0
LINE
  5
12E
330
1F
100
AcDbEntity
  8
0
  6
Continuous
 62
     7
370
    25
100
AcDbLine
 10
225.1275695216
 20
105.2636363636
 30
0.0
 11
224.8117800479
 21
105.5794258373
 31
0.0
  0
LINE
  5
12F
330
1F
100
AcDbEntity
  8
0
  6
Continuous
 62
     7
370
    25
100
AcDbLine
 10
225.1275695216
 20
105.2636363636
 30
0.0
 11
225.1275695216
 21
96.5636363636
 31
0.0
  0
LINE
  5
130
330
1F
100
AcDbEntity
  8
0
  6
Continuous
 62
     7
370
    25
100
AcDbLine
 10
222.6275695216
 20
96.5636363636
 30
0.0
 11
225.1275695216
 21
96.5636363636
 31
0.0
  0
LINE
  5
131
330
1F
100
AcDbEntity
  8
0
  6
Continuous
 62
     7
370
    25
100
AcDbLine
 10
222.6275695216
 20
96.5636363635
 30
0.0
 11
222.1275695216
 21
96.0636363643
 31
0.0
  0
LINE
  5
132
330
1F
100
AcDbEntity
  8
0
  6
Continuous
 62
     7
370
    25
100
AcDbLine
 10
222.1275695216
 20
91.0636363636
 30
0.0
 11
222.1275695216
 21
96.0636363833
 31
0.0
  0
LINE
  5
133
330
1F
100
AcDbEntity
  8
0
  6
Continuous
 62
     7
370
    25
100
AcDbLine
 10
222.1275695216
 20
91.0636363636
 30
0.0
 11
222.6275695216
 21
90.5636363636
 31
0.0
  0
LINE
  5
134
330
1F
100
AcDbEntity
  8
0
  6
Continuous
 62
     7
370
    25
100
AcDbLine
 10
225.1275695216
 20
90.5636363636
 30
0.0
 11
222.6275695216
 21
90.5636363636
 31
0.0
  0
LINE
  5
135
330
1F
100
AcDbEntity
  8
0
  6
Continuous
 62
     7
370
    25
100
AcDbLine
 10
225.1275695216
 20
90.5636363636
 30
0.0
 11
225.1275695216
 21
70.5636363636
 31
0.0
  0
LINE
  5
136
330
1F
100
AcDbEntity
  8
0
  6
Continuous
 62
     7
370
    25
100
AcDbLine
 10
225.1275695216
 20
70.5636363636
 30
0.0
 11
222.6275695216
 21
70.5636363636
 31
0.0
  0
LINE
  5
137
330
1F
100
AcDbEntity
  8
0
  6
Continuous
 62
     7
370
    25
100
AcDbLine
 10
222.6275695216
 20
70.5636363636
 30
0.0
 11
222.1275695216
 21
70.0636363636
 31
0.0
  0
LINE
  5
138
330
1F
100
AcDbEntity
  8
0
  6
Continuous
 62
     7
370
    25
100
AcDbLine
 10
222.1275695216
 20
65.063636344
 30
0.0
 11
222.1275695216
 21
70.0636363636
 31
0.0
  0
LINE
  5
139
330
1F
100
AcDbEntity
  8
0
  6
Continuous
 62
     7
370
    25
100
AcDbLine
 10
222.1275695216
 20
65.063636363
 30
0.0
 11
222.6275695216
 21
64.5636363638
 31
0.0
  0
LINE
  5
13A
330
1F
100
AcDbEntity
  8
0
  6
Continuous
 62
     7
370
    25
100
AcDbLine
 10
222.6275695216
 20
64.5636363636
 30
0.0
 11
225.1275695216
 21
64.5636363636
 31
0.0
  0
LINE
  5
13B
330
1F
100
AcDbEntity
  8
0
  6
Continuous
 62
     7
370
    25
100
AcDbLine
 10
225.1275695216
 20
64.5636363636
 30
0.0
 11
225.1275695216
 21
55.8636363636
 31
0.0
  0
SPLINE
  5
13C
330
1F
100
AcDbEntity
  8
0
  6
Continuous
 62
     7
370
    25
100
AcDbSpline
210
0.0
220
0.0
230
1.0
 70
    24
 71
     3
 72
    23
 73
    19
 74
     0
 42
0.000000001
 43
0.00000001
 40
0.0
 40
0.0
 40
0.0
 40
0.0
 40
0.0568206882873173
 40
0.1145632340487031
 40
0.1739715266076501
 40
0.2354882939924577
 40
0.2992086788230279
 40
0.3648992785132649
 40
0.4320587791176226
 40
0.5
 40
0.5679412208823778
 40
0.6351007214867354
 40
0.7007913211769725
 40
0.7645117060075426
 40
0.8260284733923501
 40
0.8854367659512971
 40
0.9431793117126828
 40
1.0
 40
1.0
 40
1.0
 40
1.0
 10
222.6275695216177
 20
70.5636363636365
 30
0.0
 10
222.6275695216177
 20
70.55232783537555
 30
0.0
 10
222.6275695216177
 20
70.52952730956433
 30
0.0
 10
222.6275695216176
 20
70.34848372839673
 30
0.0
 10
222.6275695216176
 20
70.06875060449799
 30
0.0
 10
222.6275695216177
 20
69.69104624041731
 30
0.0
 10
222.6275695216176
 20
69.23353254975868
 30
0.0
 10
222.6275695216176
 20
68.712960908956
 30
0.0
 10
222.6275695216176
 20
68.14928779621223
 30
0.0
 10
222.6275695216176
 20
67.5636363636365
 30
0.0
 10
222.6275695216176
 20
66.97798493106079
 30
0.0
 10
222.6275695216176
 20
66.41431181831702
 30
0.0
 10
222.6275695216177
 20
65.89374017751435
 30
0.0
 10
222.6275695216176
 20
65.43622648685572
 30
0.0
 10
222.6275695216176
 20
65.05852212277503
 30
0.0
 10
222.6275695216177
 20
64.7787889988763
 30
0.0
 10
222.6275695216176
 20
64.5977454177087
 30
0.0
 10
222.6275695216176
 20
64.57494489189749
 30
0.0
 10
222.6275695216176
 20
64.56363636363652
 30
0.0
  0
SPLINE
  5
13D
330
1F
100
AcDbEntity
  8
0
  6
Continuous
 62
     7
370
    25
100
AcDbSpline
210
0.0
220
0.0
230
1.0
 70
    24
 71
     3
 72
    23
 73
    19
 74
     0
 42
0.000000001
 43
0.00000001
 40
0.0
 40
0.0
 40
0.0
 40
0.0
 40
0.0568206882873172
 40
0.1145632340487029
 40
0.17397152660765
 40
0.2354882939924575
 40
0.2992086788230275
 40
0.3648992785132647
 40
0.4320587791176224
 40
0.5
 40
0.5679412208823774
 40
0.6351007214867351
 40
0.7007913211769721
 40
0.7645117060075424
 40
0.82602847339235
 40
0.885436765951297
 40
0.9431793117126829
 40
1.0
 40
1.0
 40
1.0
 40
1.0
 10
222.6275695216177
 20
96.56363636363652
 30
0.0
 10
222.6275695216177
 20
96.55232783537556
 30
0.0
 10
222.6275695216177
 20
96.52952730956433
 30
0.0
 10
222.6275695216176
 20
96.34848372839674
 30
0.0
 10
222.6275695216177
 20
96.06875060449799
 30
0.0
 10
222.6275695216177
 20
95.69104624041732
 30
0.0
 10
222.6275695216177
 20
95.23353254975869
 30
0.0
 10
222.6275695216176
 20
94.712960908956
 30
0.0
 10
222.6275695216177
 20
94.14928779621226
 30
0.0
 10
222.6275695216177
 20
93.56363636363652
 30
0.0
 10
222.6275695216176
 20
92.9779849310608
 30
0.0
 10
222.6275695216177
 20
92.41431181831702
 30
0.0
 10
222.6275695216177
 20
91.89374017751435
 30
0.0
 10
222.6275695216177
 20
91.43622648685573
 30
0.0
 10
222.6275695216177
 20
91.05852212277505
 30
0.0
 10
222.6275695216177
 20
90.7787889988763
 30
0.0
 10
222.6275695216177
 20
90.59774541770871
 30
0.0
 10
222.6275695216177
 20
90.57494489189749
 30
0.0
 10
222.6275695216177
 20
90.56363636363653
 30
0.0
  0
LINE
  5
13E
330
1F
100
AcDbEntity
  8
0
  6
Continuous
 62
     7
370
    25
100
AcDbLine
 10
225.1275695216
 20
96.5636363636
 30
0.0
 11
225.1275695216
 21
94.5636363636
 31
0.0
  0
LINE
  5
13F
330
1F
100
AcDbEntity
  8
0
  6
Continuous
 62
     7
370
    25
100
AcDbLine
 10
224.7275695216
 20
94.5636363636
 30
0.0
 11
225.1275695216
 21
94.5636363636
 31
0.0
  0
SPLINE
  5
140
330
1F
100
AcDbEntity
  8
0
  6
Continuous
 62
     7
370
    25
100
AcDbSpline
210
0.0
220
0.0
230
1.0
 70
     8
 71
     3
 72
    17
 73
    13
 74
     0
 42
0.000000001
 43
0.00000001
 40
0.0
 40
0.0
 40
0.0
 40
0.0
 40
0.1044470981075533
 40
0.2087902129766532
 40
0.3157956877549837
 40
0.4246331632758954
 40
0.5307059021898985
 40
0.6339201106150648
 40
0.7382310554169108
 40
0.8460100907425586
 40
0.9545950658353398
 40
1.0
 40
1.0
 40
1.0
 40
1.0
 10
224.7275695216177
 20
92.56363636363652
 30
0.0
 10
224.6176303881184
 20
92.57424273234683
 30
0.0
 10
224.3978615720031
 20
92.59544491050268
 30
0.0
 10
224.1036832758172
 20
92.76018148292394
 30
0.0
 10
223.8740186958545
 20
93.00630757383921
 30
0.0
 10
223.737627847905
 20
93.32061805895391
 30
0.0
 10
223.7137093487875
 20
93.6597507681425
 30
0.0
 10
223.7998226681602
 20
93.98228177762051
 30
0.0
 10
223.9842770923696
 20
94.26001232887248
 30
0.0
 10
224.2529292754565
 20
94.46498589802702
 30
0.0
 10
224.5185879704726
 20
94.5545476715864
 30
0.0
 10
224.6799815629296
 20
94.56156674409624
 30
0.0
 10
224.7275695216177
 20
94.56363636363653
 30
0.0
  0
LINE
  5
141
330
1F
100
AcDbEntity
  8
0
  6
Continuous
 62
     7
370
    25
100
AcDbLine
 10
225.1275695216
 20
92.5636363636
 30
0.0
 11
224.7275695216
 21
92.5636363636
 31
0.0
  0
LINE
  5
142
330
1F
100
AcDbEntity
  8
0
  6
Continuous
 62
     7
370
    25
100
AcDbLine
 10
225.1275695216
 20
92.5636363636
 30
0.0
 11
225.1275695216
 21
90.5636363636
 31
0.0
  0
LINE
  5
143
330
1F
100
AcDbEntity
  8
0
  6
Continuous
 62
     7
370
    25
100
AcDbLine
 10
224.7275695216
 20
68.5636363636
 30
0.0
 11
225.1275695216
 21
68.5636363636
 31
0.0
  0
SPLINE
  5
144
330
1F
100
AcDbEntity
  8
0
  6
Continuous
 62
     7
370
    25
100
AcDbSpline
210
0.0
220
0.0
230
1.0
 70
     8
 71
     3
 72
    17
 73
    13
 74
     0
 42
0.000000001
 43
0.00000001
 40
0.0
 40
0.0
 40
0.0
 40
0.0
 40
0.1044470981075533
 40
0.2087902129766534
 40
0.3157956877549842
 40
0.4246331632758951
 40
0.5307059021898981
 40
0.6339201106150644
 40
0.7382310554169107
 40
0.8460100907425588
 40
0.9545950658353397
 40
1.0
 40
1.0
 40
1.0
 40
1.0
 10
224.7275695216177
 20
66.5636363636365
 30
0.0
 10
224.6176303881184
 20
66.57424273234683
 30
0.0
 10
224.3978615720031
 20
66.59544491050266
 30
0.0
 10
224.1036832758172
 20
66.76018148292394
 30
0.0
 10
223.8740186958545
 20
67.0063075738392
 30
0.0
 10
223.737627847905
 20
67.32061805895388
 30
0.0
 10
223.7137093487875
 20
67.65975076814252
 30
0.0
 10
223.7998226681603
 20
67.9822817776205
 30
0.0
 10
223.9842770923695
 20
68.26001232887246
 30
0.0
 10
224.2529292754565
 20
68.46498589802702
 30
0.0
 10
224.5185879704726
 20
68.55454767158639
 30
0.0
 10
224.6799815629297
 20
68.56156674409623
 30
0.0
 10
224.7275695216177
 20
68.56363636363652
 30
0.0
  0
LINE
  5
145
330
1F
100
AcDbEntity
  8
0
  6
Continuous
 62
     7
370
    25
100
AcDbLine
 10
225.1275695216
 20
66.5636363636
 30
0.0
 11
224.7275695216
 21
66.5636363636
 31
0.0
  0
LINE
  5
146
330
1F
100
AcDbEntity
  8
0
  6
Continuous
 62
     7
370
    25
100
AcDbLine
 10
225.1275695216
 20
64.5636363636
 30
0.0
 11
225.1275695216
 21
66.5636363636
 31
0.0
  0
LINE
  5
147
330
1F
100
AcDbEntity
  8
0
  6
Continuous
 62
     7
370
    25
100
AcDbLine
 10
225.1275695216
 20
68.5636363636
 30
0.0
 11
225.1275695216
 21
70.5636363636
 31
0.0
  0
LINE
  5
148
330
1F
100
AcDbEntity
  8
0
  6
Continuous
 62
     7
370
    25
100
AcDbLine
 10
225.1275695216
 20
66.5636363636
 30
0.0
 11
225.1275695216
 21
66.9699156247
 31
0.0
  0
LINE
  5
149
330
1F
100
AcDbEntity
  8
0
  6
Continuous
 62
     7
370
    25
100
AcDbLine
 10
225.1275695216
 20
68.1636363636
 30
0.0
 11
225.1275695216
 21
68.5636363636
 31
0.0
  0
LINE
  5
14A
330
1F
100
AcDbEntity
  8
0
  6
Continuous
 62
     7
370
    25
100
AcDbLine
 10
225.1275695216
 20
94.5636363636
 30
0.0
 11
225.1275695216
 21
94.1636363636
 31
0.0
  0
LINE
  5
14B
330
1F
100
AcDbEntity
  8
0
  6
Continuous
 62
     7
370
    25
100
AcDbLine
 10
225.1275695216
 20
92.9636363636
 30
0.0
 11
225.1275695216
 21
92.5636363636
 31
0.0
  0
LINE
  5
14C
330
1F
100
AcDbEntity
  8
0
  6
Continuous
 62
     7
370
    25
100
AcDbLine
 10
220.1275695216
 20
69.0636363636
 30
0.0
 11
220.1275695216
 21
66.0636363636
 31
0.0
  0
LINE
  5
14D
330
1F
100
AcDbEntity
  8
0
  6
Continuous
 62
     7
370
    25
100
AcDbLine
 10
219.6275695216
 20
66.0636363636
 30
0.0
 11
220.1275695216
 21
66.0636363636
 31
0.0
  0
LINE
  5
14E
330
1F
100
AcDbEntity
  8
0
  6
Continuous
 62
     7
370
    25
100
AcDbLine
 10
219.6275695216
 20
69.0636363636
 30
0.0
 11
219.6275695216
 21
66.0636363636
 31
0.0
  0
LINE
  5
14F
330
1F
100
AcDbEntity
  8
0
  6
Continuous
 62
     7
370
    25
100
AcDbLine
 10
220.1275695216
 20
69.0636363636
 30
0.0
 11
219.6275695216
 21
69.0636363636
 31
0.0
  0
CIRCLE
  5
150
330
1F
100
AcDbEntity
  8
0
  6
Continuous
 62
     7
370
    25
100
AcDbCircle
 10
225.2141471407
 20
67.5636363636
 30
0.0
 40
0.6000000000000085
  0
LINE
  5
151
330
1F
100
AcDbEntity
  8
0
  6
Continuous
 62
     7
370
    25
100
AcDbLine
 10
208.3141471407
 20
68.1636363636
 30
0.0
 11
208.3141471407
 21
66.9636363636
 31
0.0
  0
SPLINE
  5
152
330
1F
100
AcDbEntity
  8
0
  6
Continuous
 62
     7
370
    25
100
AcDbSpline
210
0.0
220
0.0
230
1.0
 70
     8
 71
     3
 72
    12
 73
     8
 74
     0
 42
0.000000001
 43
0.00000001
 40
0.0
 40
0.0
 40
0.0
 40
0.0
 40
0.2102368137036658
 40
0.4203117740116922
 40
0.6345595891345206
 40
0.8517354997436821
 40
1.0
 40
1.0
 40
1.0
 40
1.0
 10
209.1141471406723
 20
68.14458386556765
 30
0.0
 10
209.0975846037427
 20
68.14500842481061
 30
0.0
 10
209.0644722807563
 20
68.1458572164444
 30
0.0
 10
209.0200550587011
 20
68.1517809718514
 30
0.0
 10
208.986165710675
 20
68.15828541041628
 30
0.0
 10
208.9662610789206
 20
68.16310181890412
 30
0.0
 10
208.9660201680373
 20
68.16316941397915
 30
0.0
 10
208.9659224269811
 20
68.16319683828614
 30
0.0
  0
SPLINE
  5
153
330
1F
100
AcDbEntity
  8
0
  6
Continuous
 62
     7
370
    25
100
AcDbSpline
210
0.0
220
0.0
230
1.0
 70
     8
 71
     3
 72
    12
 73
     8
 74
     0
 42
0.000000001
 43
0.00000001
 40
0.0
 40
0.0
 40
0.0
 40
0.0
 40
0.1850155142180046
 40
0.3932880088947884
 40
0.6065814976900491
 40
0.8237467627134428
 40
1.0
 40
1.0
 40
1.0
 40
1.0
 10
209.2633138529471
 20
68.16343172066615
 30
0.0
 10
209.2624045416533
 20
68.16319770472955
 30
0.0
 10
209.2604716160296
 20
68.1627002563824
 30
0.0
 10
209.2380538530917
 20
68.15740821145799
 30
0.0
 10
209.2026080580389
 20
68.15085358858498
 30
0.0
 10
209.1589757463558
 20
68.14554562538427
 30
0.0
 10
209.1280168595395
 20
68.14488142865423
 30
0.0
 10
209.1141471406723
 20
68.14458386556765
 30
0.0
  0
SPLINE
  5
154
330
1F
100
AcDbEntity
  8
0
  6
Continuous
 62
     7
370
    25
100
AcDbSpline
210
0.0
220
0.0
230
1.0
 70
     8
 71
     3
 72
    12
 73
     8
 74
     0
 42
0.000000001
 43
0.00000001
 40
0.0
 40
0.0
 40
0.0
 40
0.0
 40
0.2102368137036813
 40
0.4203117740116802
 40
0.634559589134516
 40
0.8517354997436697
 40
1.0
 40
1.0
 40
1.0
 40
1.0
 10
209.1141471406723
 20
66.98268886170543
 30
0.0
 10
209.1307096776019
 20
66.98226430246245
 30
0.0
 10
209.1638220005884
 20
66.98141551082867
 30
0.0
 10
209.2082392226435
 20
66.97549175542167
 30
0.0
 10
209.2421285706696
 20
66.9689873168568
 30
0.0
 10
209.262033202424
 20
66.96417090836894
 30
0.0
 10
209.2622741133074
 20
66.96410331329393
 30
0.0
 10
209.2623718543635
 20
66.96407588898693
 30
0.0
  0
SPLINE
  5
155
330
1F
100
AcDbEntity
  8
0
  6
Continuous
 62
     7
370
    25
100
AcDbSpline
210
0.0
220
0.0
230
1.0
 70
     8
 71
     3
 72
    12
 73
     8
 74
     0
 42
0.000000001
 43
0.00000001
 40
0.0
 40
0.0
 40
0.0
 40
0.0
 40
0.185015514218029
 40
0.3932880088948002
 40
0.6065814976900751
 40
0.8237467627134448
 40
1.0
 40
1.0
 40
1.0
 40
1.0
 10
208.9649804283975
 20
66.96384100660691
 30
0.0
 10
208.9658897396913
 20
66.96407502254351
 30
0.0
 10
208.967822665315
 20
66.96457247089067
 30
0.0
 10
208.9902404282529
 20
66.96986451581509
 30
0.0
 10
209.0256862233057
 20
66.9764191386881
 30
0.0
 10
209.0693185349888
 20
66.9817271018888
 30
0.0
 10
209.1002774218052
 20
66.98239129861884
 30
0.0
 10
209.1141471406723
 20
66.98268886170543
 30
0.0
  0
LINE
  5
156
330
1F
100
AcDbEntity
  8
0
  6
Continuous
 62
     7
370
    25
100
AcDbLine
 10
171.1275695216
 20
54.3636363636
 30
0.0
 11
174.6275695216
 21
54.5757435197
 31
0.0
  0
LINE
  5
157
330
1F
100
AcDbEntity
  8
0
  6
Continuous
 62
     7
370
    25
100
AcDbLine
 10
174.6275695216
 20
60.5636363636
 30
0.0
 11
174.6275695216
 21
54.5757435197
 31
0.0
  0
LINE
  5
158
330
1F
100
AcDbEntity
  8
0
  6
Continuous
 62
     7
370
    25
100
AcDbLine
 10
220.1275695216
 20
60.5636363636
 30
0.0
 11
174.6275695216
 21
60.5636363636
 31
0.0
  0
LINE
  5
159
330
1F
100
AcDbEntity
  8
0
  6
Continuous
 62
     7
370
    25
100
AcDbLine
 10
220.1275695216
 20
54.9636363636
 30
0.0
 11
220.1275695216
 21
60.5636363636
 31
0.0
  0
LINE
  5
15A
330
1F
100
AcDbEntity
  8
0
  6
Continuous
 62
     7
370
    25
100
AcDbLine
 10
220.1275695216
 20
54.9636363636
 30
0.0
 11
225.1275695216
 21
54.9636363636
 31
0.0
  0
LINE
  5
15B
330
1F
100
AcDbEntity
  8
0
  6
Continuous
 62
     7
370
    25
100
AcDbLine
 10
225.1275695216
 20
50.5636363636
 30
0.0
 11
225.1275695216
 21
54.9636363636
 31
0.0
  0
LINE
  5
15C
330
1F
100
AcDbEntity
  8
0
  6
Continuous
 62
     7
370
    25
100
AcDbLine
 10
225.1275695216
 20
50.5636363636
 30
0.0
 11
171.1275695216
 21
50.5636363636
 31
0.0
  0
LINE
  5
15D
330
1F
100
AcDbEntity
  8
0
  6
Continuous
 62
     7
370
    25
100
AcDbLine
 10
171.1275695216
 20
50.5636363636
 30
0.0
 11
171.1275695216
 21
54.3636363636
 31
0.0
  0
LINE
  5
15E
330
1F
100
AcDbEntity
  8
0
  6
Continuous
 62
     7
370
    25
100
AcDbLine
 10
220.1275695216
 20
100.5636363636
 30
0.0
 11
220.1275695216
 21
106.1636363636
 31
0.0
  0
LINE
  5
15F
330
1F
100
AcDbEntity
  8
0
  6
Continuous
 62
     7
370
    25
100
AcDbLine
 10
174.6275695216
 20
100.5636363636
 30
0.0
 11
220.1275695216
 21
100.5636363636
 31
0.0
  0
LINE
  5
160
330
1F
100
AcDbEntity
  8
0
  6
Continuous
 62
     7
370
    25
100
AcDbLine
 10
174.6275695216
 20
106.5515292076
 30
0.0
 11
171.1275695216
 21
106.7636363636
 31
0.0
  0
LINE
  5
161
330
1F
100
AcDbEntity
  8
0
  6
Continuous
 62
     7
370
    25
100
AcDbLine
 10
171.1275695216
 20
110.5636363636
 30
0.0
 11
225.1275695216
 21
110.5636363636
 31
0.0
  0
LINE
  5
162
330
1F
100
AcDbEntity
  8
0
  6
Continuous
 62
     7
370
    25
100
AcDbLine
 10
225.1275695216
 20
106.1636363636
 30
0.0
 11
225.1275695216
 21
110.5636363636
 31
0.0
  0
LINE
  5
163
330
1F
100
AcDbEntity
  8
0
  6
Continuous
 62
     7
370
    25
100
AcDbLine
 10
225.1275695216
 20
106.1636363636
 30
0.0
 11
220.1275695216
 21
106.1636363636
 31
0.0
  0
LINE
  5
164
330
1F
100
AcDbEntity
  8
0
  6
Continuous
 62
     7
370
    25
100
AcDbLine
 10
174.6275695216
 20
106.5515292076
 30
0.0
 11
174.6275695216
 21
100.5636363636
 31
0.0
  0
LINE
  5
165
330
1F
100
AcDbEntity
  8
0
  6
Continuous
 62
     7
370
    25
100
AcDbLine
 10
171.1275695216
 20
106.7636363636
 30
0.0
 11
171.1275695216
 21
110.5636363636
 31
0.0
  0
LINE
  5
166
330
1F
100
AcDbEntity
  8
0
  6
Continuous
 62
     7
370
    25
100
AcDbLine
 10
174.6275695216
 20
100.5636363636
 30
0.0
 11
174.6275695216
 21
60.5636363636
 31
0.0
  0
LINE
  5
167
330
1F
100
AcDbEntity
  8
0
  6
Continuous
 62
     7
370
    25
100
AcDbLine
 10
225.1275695216
 20
54.9636363636
 30
0.0
 11
225.1275695216
 21
55.8636363636
 31
0.0
  0
LINE
  5
168
330
1F
100
AcDbEntity
  8
0
  6
Continuous
 62
     7
370
    25
100
AcDbLine
 10
225.1275695216
 20
105.2636363636
 30
0.0
 11
225.1275695216
 21
106.1636363636
 31
0.0
  0
LINE
  5
169
330
1F
100
AcDbEntity
  8
0
  6
Continuous
 62
     7
370
    25
100
AcDbLine
 10
171.1275695216
 20
106.7636363636
 30
0.0
 11
171.1275695216
 21
106.3636363636
 31
0.0
  0
LINE
  5
16A
330
1F
100
AcDbEntity
  8
0
  6
Continuous
 62
     7
370
    25
100
AcDbLine
 10
171.1275695216
 20
54.7636363636
 30
0.0
 11
171.1275695216
 21
54.3636363636
 31
0.0
  0
LINE
  5
16B
330
1F
100
AcDbEntity
  8
0
  6
Continuous
 62
     7
370
    25
100
AcDbLine
 10
165.6275695216
 20
54.7636363636
 30
0.0
 11
173.6275695216
 21
54.7636363636
 31
0.0
  0
LINE
  5
16C
330
1F
100
AcDbEntity
  8
0
  6
Continuous
 62
     7
370
    25
100
AcDbLine
 10
165.6275695216
 20
70.5636363636
 30
0.0
 11
173.6275695216
 21
70.5636363636
 31
0.0
  0
LINE
  5
16D
330
1F
100
AcDbEntity
  8
0
  6
Continuous
 62
     7
370
    25
100
AcDbLine
 10
173.6275695216
 20
54.7636363636
 30
0.0
 11
173.6275695216
 21
70.5636363636
 31
0.0
  0
LINE
  5
16E
330
1F
100
AcDbEntity
  8
0
  6
Continuous
 62
     7
370
    25
100
AcDbLine
 10
165.6275695216
 20
70.5636363636
 30
0.0
 11
165.6275695216
 21
54.7636363636
 31
0.0
  0
LINE
  5
16F
330
1F
100
AcDbEntity
  8
0
  6
Continuous
 62
     7
370
    25
100
AcDbLine
 10
173.6275695216
 20
106.3636363636
 30
0.0
 11
165.6275695216
 21
106.3636363636
 31
0.0
  0
LINE
  5
170
330
1F
100
AcDbEntity
  8
0
  6
Continuous
 62
     7
370
    25
100
AcDbLine
 10
173.6275695216
 20
90.5636363636
 30
0.0
 11
165.6275695216
 21
90.5636363636
 31
0.0
  0
LINE
  5
171
330
1F
100
AcDbEntity
  8
0
  6
Continuous
 62
     7
370
    25
100
AcDbLine
 10
173.6275695216
 20
90.5636363636
 30
0.0
 11
173.6275695216
 21
106.3636363636
 31
0.0
  0
LINE
  5
172
330
1F
100
AcDbEntity
  8
0
  6
Continuous
 62
     7
370
    25
100
AcDbLine
 10
165.6275695216
 20
106.3636363636
 30
0.0
 11
165.6275695216
 21
90.5636363636
 31
0.0
  0
LINE
  5
173
330
1F
100
AcDbEntity
  8
0
  6
Continuous
 62
     7
370
    25
100
AcDbLine
 10
165.6275695216
 20
50.5636363636
 30
0.0
 11
170.1275695216
 21
50.5636363636
 31
0.0
  0
LINE
  5
174
330
1F
100
AcDbEntity
  8
0
  6
Continuous
 62
     7
370
    25
100
AcDbLine
 10
170.1275695216
 20
50.5636363636
 30
0.0
 11
170.1275695216
 21
54.7636363636
 31
0.0
  0
LINE
  5
175
330
1F
100
AcDbEntity
  8
0
  6
Continuous
 62
     7
370
    25
100
AcDbLine
 10
165.6275695216
 20
50.5636363636
 30
0.0
 11
165.6275695216
 21
54.7636363636
 31
0.0
  0
LINE
  5
176
330
1F
100
AcDbEntity
  8
0
  6
Continuous
 62
     7
370
    25
100
AcDbLine
 10
165.6275695216
 20
110.5636363636
 30
0.0
 11
170.1275695216
 21
110.5636363636
 31
0.0
  0
LINE
  5
177
330
1F
100
AcDbEntity
  8
0
  6
Continuous
 62
     7
370
    25
100
AcDbLine
 10
170.1275695216
 20
106.3636363636
 30
0.0
 11
170.1275695216
 21
110.5636363636
 31
0.0
  0
LINE
  5
178
330
1F
100
AcDbEntity
  8
0
  6
Continuous
 62
     7
370
    25
100
AcDbLine
 10
165.6275695216
 20
106.3636363636
 30
0.0
 11
165.6275695216
 21
110.5636363636
 31
0.0
  0
LINE
  5
179
330
1F
100
AcDbEntity
  8
0
  6
Continuous
 62
     7
370
    25
100
AcDbLine
 10
173.6275695216
 20
70.5636363636
 30
0.0
 11
173.6275695216
 21
90.5636363636
 31
0.0
  0
LINE
  5
17A
330
1F
100
AcDbEntity
  8
0
  6
Continuous
 62
     7
370
    25
100
AcDbLine
 10
165.6275695216
 20
70.5636363636
 30
0.0
 11
165.6275695216
 21
90.5636363636
 31
0.0
  0
LINE
  5
17B
330
1F
100
AcDbEntity
  8
0
  6
PHANTOM
 62
     8
370
    18
100
AcDbLine
 10
230.1341609613
 20
94.1636363636
 30
0.0
 11
230.1341609613
 21
92.9636363636
 31
0.0
  0
LINE
  5
17C
330
1F
100
AcDbEntity
  8
0
  6
PHANTOM
 62
     8
370
    18
100
AcDbLine
 10
223.8141471407
 20
67.9702839913
 30
0.0
 11
223.8141471407
 21
67.186348266
 31
0.0
  0
HATCH
  5
17D
330
1F
100
AcDbEntity
  8
0
  6
Continuous
 62
     7
370
    18
100
AcDbHatch
 10
0.0
 20
0.0
 30
0.0
210
0.0
220
0.0
230
1.0
  2
ANSI34
 70
     0
 71
     0
 91
        1
 92
        0
 93
        4
 72
     1
 10
165.6275695216177
 20
90.5636363636365
 11
173.6275695216177
 21
90.56363636363648
 72
     1
 10
173.6275695216177
 20
90.56363636363648
 11
173.6275695216177
 21
106.3636363636365
 72
     1
 10
173.6275695216177
 20
106.3636363636365
 11
165.6275695216177
 21
106.3636363636365
 72
     1
 10
165.6275695216177
 20
106.3636363636365
 11
165.6275695216177
 21
90.5636363636365
 97
        0
 75
     0
 76
     1
 52
0.0
 41
1.0
 77
     0
 78
     4
 53
45.0
 43
0.0
 44
0.0
 45
-13.47038418160373
 46
13.47038418160373
 79
     0
 53
45.0
 43
4.49013
 44
0.0
 45
-13.47038418160373
 46
13.47038418160373
 79
     0
 53
45.0
 43
8.98026
 44
0.0
 45
-13.47038418160373
 46
13.47038418160373
 79
     0
 53
45.0
 43
13.4704
 44
0.0
 45
-13.47038418160373
 46
13.47038418160373
 79
     0
 98
        1
 10
0.0
 20
0.0
  0
HATCH
  5
17E
330
1F
100
AcDbEntity
  8
0
  6
Continuous
 62
     7
370
    18
100
AcDbHatch
 10
0.0
 20
0.0
 30
0.0
210
0.0
220
0.0
230
1.0
  2
ANSI34
 70
     0
 71
     0
 91
        1
 92
        0
 93
        4
 72
     1
 10
173.6275695216176
 20
70.56363636363646
 11
165.6275695216176
 21
70.56363636363649
 72
     1
 10
165.6275695216176
 20
70.56363636363649
 11
165.6275695216175
 21
54.76363636363649
 72
     1
 10
165.6275695216175
 20
54.76363636363649
 11
173.6275695216176
 21
54.76363636363647
 72
     1
 10
173.6275695216176
 20
54.76363636363647
 11
173.6275695216176
 21
70.56363636363646
 97
        0
 75
     0
 76
     1
 52
0.0
 41
1.0
 77
     0
 78
     4
 53
45.0
 43
0.0
 44
0.0
 45
-13.47038418160373
 46
13.47038418160373
 79
     0
 53
45.0
 43
4.49013
 44
0.0
 45
-13.47038418160373
 46
13.47038418160373
 79
     0
 53
45.0
 43
8.98026
 44
0.0
 45
-13.47038418160373
 46
13.47038418160373
 79
     0
 53
45.0
 43
13.4704
 44
0.0
 45
-13.47038418160373
 46
13.47038418160373
 79
     0
 98
        1
 10
0.0
 20
0.0
  0
HATCH
  5
17F
330
1F
100
AcDbEntity
  8
0
  6
Continuous
 62
     7
370
    18
100
AcDbHatch
 10
0.0
 20
0.0
 30
0.0
210
0.0
220
0.0
230
1.0
  2
ANSI34
 70
     0
 71
     0
 91
        1
 92
        0
 93
        8
 72
     1
 10
220.1275695216179
 20
106.1636363636363
 11
225.1275695216179
 21
106.1636363636363
 72
     1
 10
225.1275695216179
 20
106.1636363636363
 11
225.1275695216179
 21
110.5636363636363
 72
     1
 10
225.1275695216179
 20
110.5636363636363
 11
171.1275695216177
 21
110.5636363636365
 72
     1
 10
171.1275695216177
 20
110.5636363636365
 11
171.1275695216177
 21
106.7636363636365
 72
     1
 10
171.1275695216177
 20
106.7636363636365
 11
174.6275695216177
 21
106.5515292075825
 72
     1
 10
174.6275695216177
 20
106.5515292075825
 11
174.6275695216177
 21
100.5636363636365
 72
     1
 10
174.6275695216177
 20
100.5636363636365
 11
220.1275695216179
 21
100.5636363636363
 72
     1
 10
220.1275695216179
 20
100.5636363636363
 11
220.1275695216179
 21
106.1636363636363
 97
        0
 75
     0
 76
     1
 52
0.0
 41
1.0
 77
     0
 78
     4
 53
45.0
 43
0.0
 44
0.0
 45
-13.47038418160373
 46
13.47038418160373
 79
     0
 53
45.0
 43
4.49013
 44
0.0
 45
-13.47038418160373
 46
13.47038418160373
 79
     0
 53
45.0
 43
8.98026
 44
0.0
 45
-13.47038418160373
 46
13.47038418160373
 79
     0
 53
45.0
 43
13.4704
 44
0.0
 45
-13.47038418160373
 46
13.47038418160373
 79
     0
 98
        1
 10
0.0
 20
0.0
  0
HATCH
  5
180
330
1F
100
AcDbEntity
  8
0
  6
Continuous
 62
     7
370
    18
100
AcDbHatch
 10
0.0
 20
0.0
 30
0.0
210
0.0
220
0.0
230
1.0
  2
ANSI34
 70
     0
 71
     0
 91
        1
 92
        0
 93
        8
 72
     1
 10
171.1275695216175
 20
50.5636363636365
 11
225.1275695216177
 21
50.56363636363631
 72
     1
 10
225.1275695216177
 20
50.56363636363631
 11
225.1275695216177
 21
54.96363636363631
 72
     1
 10
225.1275695216177
 20
54.96363636363631
 11
220.1275695216177
 21
54.96363636363633
 72
     1
 10
220.1275695216177
 20
54.96363636363633
 11
220.1275695216177
 21
60.56363636363633
 72
     1
 10
220.1275695216177
 20
60.56363636363633
 11
174.6275695216176
 21
60.56363636363649
 72
     1
 10
174.6275695216176
 20
60.56363636363649
 11
174.6275695216175
 21
54.57574351969047
 72
     1
 10
174.6275695216175
 20
54.57574351969047
 11
171.1275695216175
 21
54.3636363636365
 72
     1
 10
171.1275695216175
 20
54.3636363636365
 11
171.1275695216175
 21
50.5636363636365
 97
        0
 75
     0
 76
     1
 52
0.0
 41
1.0
 77
     0
 78
     4
 53
45.0
 43
0.0
 44
0.0
 45
-13.47038418160373
 46
13.47038418160373
 79
     0
 53
45.0
 43
4.49013
 44
0.0
 45
-13.47038418160373
 46
13.47038418160373
 79
     0
 53
45.0
 43
8.98026
 44
0.0
 45
-13.47038418160373
 46
13.47038418160373
 79
     0
 53
45.0
 43
13.4704
 44
0.0
 45
-13.47038418160373
 46
13.47038418160373
 79
     0
 98
        1
 10
0.0
 20
0.0
  0
HATCH
  5
181
330
1F
100
AcDbEntity
  8
0
  6
Continuous
 62
     7
370
    18
100
AcDbHatch
 10
0.0
 20
0.0
 30
0.0
210
0.0
220
0.0
230
1.0
  2
ANSI31
 70
     0
 71
     0
 91
        1
 92
        0
 93
        1
 72
     2
 10
225.2141471406723
 20
67.56363636363632
 40
0.6000000000000003
 50
0.0
 51
360.0
 73
     1
 97
        0
 75
     0
 76
     1
 52
0.0
 41
1.0
 77
     0
 78
     1
 53
45.0
 43
0.0
 44
0.0
 45
-2.245064030267288
 46
2.245064030267288
 79
     0
 98
        1
 10
0.0
 20
0.0
  0
HATCH
  5
182
330
1F
100
AcDbEntity
  8
0
  6
Continuous
 62
     7
370
    18
100
AcDbHatch
 10
0.0
 20
0.0
 30
0.0
210
0.0
220
0.0
230
1.0
  2
ANSI31
 70
     0
 71
     0
 91
        1
 92
        0
 93
        4
 72
     1
 10
220.1275695216176
 20
69.06363636363633
 11
219.6275695216176
 21
69.06363636363633
 72
     1
 10
219.6275695216176
 20
69.06363636363633
 11
219.6275695216176
 21
66.06363636363632
 72
     1
 10
219.6275695216176
 20
66.06363636363632
 11
220.1275695216176
 21
66.06363636363632
 72
     1
 10
220.1275695216176
 20
66.06363636363632
 11
220.1275695216176
 21
69.06363636363633
 97
        0
 75
     0
 76
     1
 52
0.0
 41
1.0
 77
     0
 78
     1
 53
45.0
 43
0.0
 44
0.0
 45
-2.245064030267288
 46
2.245064030267288
 79
     0
 98
        1
 10
0.0
 20
0.0
  0
HATCH
  5
183
330
1F
100
AcDbEntity
  8
0
  6
Continuous
 62
     7
370
    18
100
AcDbHatch
 10
0.0
 20
0.0
 30
0.0
210
0.0
220
0.0
230
1.0
  2
ANSI34
 70
     0
 71
     0
 91
        1
 92
        0
 93
       20
 72
     1
 10
225.1275695216175
 20
55.86363636363632
 11
225.1275695216176
 21
64.56363636363629
 72
     1
 10
225.1275695216176
 20
64.56363636363629
 11
222.6275695216176
 21
64.5636363636363
 72
     1
 10
222.6275695216176
 20
64.56363636378337
 11
222.1275695216176
 21
65.06363636299977
 72
     1
 10
222.1275695216176
 20
65.0636363439834
 11
222.1275695216176
 21
70.06363636363632
 72
     1
 10
222.1275695216176
 20
70.06363636363632
 11
222.6275695216176
 21
70.56363636363632
 72
     1
 10
222.6275695216176
 20
70.56363636363632
 11
225.1275695216176
 21
70.5636363636363
 72
     1
 10
225.1275695216176
 20
70.5636363636363
 11
225.1275695216177
 21
90.56363636363632
 72
     1
 10
225.1275695216177
 20
90.56363636363632
 11
222.6275695216177
 21
90.56363636363632
 72
     1
 10
222.6275695216177
 20
90.56363636363632
 11
222.1275695216177
 21
91.06363636363632
 72
     1
 10
222.1275695216177
 20
91.06363636363632
 11
222.1275695216177
 21
96.06363638328925
 72
     1
 10
222.1275695216177
 20
96.06363636427285
 11
222.6275695216177
 21
96.56363636348925
 72
     1
 10
222.6275695216177
 20
96.56363636363632
 11
225.1275695216177
 21
96.5636363636363
 72
     1
 10
225.1275695216177
 20
96.5636363636363
 11
225.1275695216177
 21
105.2636363636363
 72
     1
 10
225.1275695216177
 20
105.2636363636363
 11
224.8117800479335
 21
105.5794258373205
 72
     1
 10
224.8117800479335
 20
105.5794258373205
 11
220.6037599978082
 21
105.7898268398268
 72
     1
 10
220.6037599978082
 20
105.7898268398268
 11
220.1275695216177
 21
105.3136363636363
 72
     1
 10
220.1275695216177
 20
105.3136363636363
 11
220.1275695216175
 21
55.79042170636254
 72
     1
 10
220.1275695216175
 20
55.79042170636254
 11
220.6269456910565
 21
55.33860517210826
 72
     1
 10
220.6269456910565
 20
55.33860517210826
 11
224.8117800479334
 21
55.5478468899521
 72
     1
 10
224.8117800479334
 20
55.5478468899521
 11
225.1275695216175
 21
55.86363636363632
 97
        0
 75
     0
 76
     1
 52
90.0
 41
1.0
 77
     0
 78
     4
 53
135.0000000000002
 43
0.0
 44
0.0
 45
-13.47038418160369
 46
-13.47038418160378
 79
     0
 53
135.0000000000002
 43
-0.0000000000000157
 44
4.49013
 45
-13.47038418160369
 46
-13.47038418160378
 79
     0
 53
135.0000000000002
 43
-0.0000000000000314
 44
8.98026
 45
-13.47038418160369
 46
-13.47038418160378
 79
     0
 53
135.0000000000002
 43
-0.000000000000047
 44
13.4704
 45
-13.47038418160369
 46
-13.47038418160378
 79
     0
 98
        1
 10
0.0
 20
0.0
  0
HATCH
  5
184
330
1F
100
AcDbEntity
  8
0
  6
Continuous
 62
     7
370
    18
100
AcDbHatch
 10
0.0
 20
0.0
 30
0.0
210
0.0
220
0.0
230
1.0
  2
ANSI31
 70
     0
 71
     0
 91
        1
 92
        0
 93
        1
 72
     2
 10
231.5341609612504
 20
93.56363636363629
 40
0.6000000000000003
 50
0.0
 51
360.0
 73
     1
 97
        0
 75
     0
 76
     1
 52
0.0
 41
1.0
 77
     0
 78
     1
 53
45.0
 43
0.0
 44
0.0
 45
-2.245064030267288
 46
2.245064030267288
 79
     0
 98
        1
 10
0.0
 20
0.0
  0
HATCH
  5
185
330
1F
100
AcDbEntity
  8
0
  6
Continuous
 62
     7
370
    18
100
AcDbHatch
 10
0.0
 20
0.0
 30
0.0
210
0.0
220
0.0
230
1.0
  2
ANSI31
 70
     0
 71
     0
 91
        1
 92
        0
 93
        4
 72
     1
 10
220.1275695216177
 20
95.06363636363632
 11
219.6275695216177
 21
95.06363636363632
 72
     1
 10
219.6275695216177
 20
95.06363636363632
 11
219.6275695216177
 21
92.06363636363632
 72
     1
 10
219.6275695216177
 20
92.06363636363632
 11
220.1275695216177
 21
92.06363636363632
 72
     1
 10
220.1275695216177
 20
92.06363636363632
 11
220.1275695216177
 21
95.06363636363632
 97
        0
 75
     0
 76
     1
 52
0.0
 41
1.0
 77
     0
 78
     1
 53
45.0
 43
0.0
 44
0.0
 45
-2.245064030267288
 46
2.245064030267288
 79
     0
 98
        1
 10
0.0
 20
0.0
  0
INSERT
  5
18B
330
1F
100
AcDbEntity
  8
O-TEKST
100
AcDbBlockReference
  2
SW_NOTE_0
 10
177.3459715797
 20
38.8402042178
 30
0.0
  0
ARC
  5
18C
330
1F
100
AcDbEntity
  8
0
  6
Continuous
 62
     7
370
    25
100
AcDbCircle
 10
81.2594221669
 20
234.7256478853
 30
0.0
 40
0.799999999999983
100
AcDbArc
 50
360.0
 51
90.0
  0
ARC
  5
18D
330
1F
100
AcDbEntity
  8
0
  6
Continuous
 62
     7
370
    25
100
AcDbCircle
 10
81.2594221669
 20
234.7256478853
 30
0.0
 40
2.0
100
AcDbArc
 50
360.0
 51
90.0
  0
LINE
  5
18E
330
1F
100
AcDbEntity
  8
0
  6
Continuous
 62
     7
370
    25
100
AcDbLine
 10
83.2594221669
 20
219.2256478853
 30
0.0
 11
83.2594221669
 21
224.2190564457
 31
0.0
  0
LINE
  5
18F
330
1F
100
AcDbEntity
  8
0
  6
Continuous
 62
     7
370
    25
100
AcDbLine
 10
83.2594221669
 20
229.7190564457
 30
0.0
 11
83.2594221669
 21
234.7256478853
 31
0.0
  0
LINE
  5
190
330
1F
100
AcDbEntity
  8
0
  6
Continuous
 62
     7
370
    25
100
AcDbLine
 10
82.0594221669
 20
234.7256478853
 30
0.0
 11
82.0594221669
 21
229.7190564457
 31
0.0
  0
LINE
  5
191
330
1F
100
AcDbEntity
  8
0
  6
Continuous
 62
     7
370
    25
100
AcDbLine
 10
82.0594221669
 20
224.2190564457
 30
0.0
 11
82.0594221669
 21
219.2256478853
 31
0.0
  0
LINE
  5
192
330
1F
100
AcDbEntity
  8
0
  6
Continuous
 62
     7
370
    25
100
AcDbLine
 10
72.0594221669
 20
235.5256478853
 30
0.0
 11
81.2594221669
 21
235.5256478853
 31
0.0
  0
LINE
  5
193
330
1F
100
AcDbEntity
  8
0
  6
Continuous
 62
     7
370
    25
100
AcDbLine
 10
81.2594221669
 20
236.7256478853
 30
0.0
 11
72.0594221669
 21
236.7256478853
 31
0.0
  0
ARC
  5
194
330
1F
100
AcDbEntity
  8
0
  6
Continuous
 62
     7
370
    25
100
AcDbCircle
 10
72.0594221669
 20
234.7256478853
 30
0.0
 40
0.7999999999999972
100
AcDbArc
 50
90.0
 51
180.0
  0
ARC
  5
195
330
1F
100
AcDbEntity
  8
0
  6
Continuous
 62
     7
370
    25
100
AcDbCircle
 10
72.0594221669
 20
234.7256478853
 30
0.0
 40
2.0
100
AcDbArc
 50
90.0
 51
180.0
  0
LINE
  5
196
330
1F
100
AcDbEntity
  8
0
  6
Continuous
 62
     7
370
    25
100
AcDbLine
 10
71.2594221669
 20
219.2256478853
 30
0.0
 11
71.2594221669
 21
224.2190564457
 31
0.0
  0
LINE
  5
197
330
1F
100
AcDbEntity
  8
0
  6
Continuous
 62
     7
370
    25
100
AcDbLine
 10
71.2594221669
 20
229.7190564457
 30
0.0
 11
71.2594221669
 21
234.7256478853
 31
0.0
  0
LINE
  5
198
330
1F
100
AcDbEntity
  8
0
  6
Continuous
 62
     7
370
    25
100
AcDbLine
 10
70.0594221669
 20
234.7256478853
 30
0.0
 11
70.0594221669
 21
229.7190564457
 31
0.0
  0
LINE
  5
199
330
1F
100
AcDbEntity
  8
0
  6
Continuous
 62
     7
370
    25
100
AcDbLine
 10
70.0594221669
 20
224.2190564457
 30
0.0
 11
70.0594221669
 21
219.2256478853
 31
0.0
  0
LINE
  5
19A
330
1F
100
AcDbEntity
  8
0
  6
Continuous
 62
     7
370
    25
100
AcDbLine
 10
101.3594221669
 20
229.7190564457
 30
0.0
 11
51.9594221669
 21
229.7190564457
 31
0.0
  0
LINE
  5
19B
330
1F
100
AcDbEntity
  8
0
  6
Continuous
 62
     7
370
    25
100
AcDbLine
 10
101.3594221669
 20
229.7190564457
 30
0.0
 11
101.6752116406
 21
229.403266972
 31
0.0
  0
LINE
  5
19C
330
1F
100
AcDbEntity
  8
0
  6
Continuous
 62
     7
370
    25
100
AcDbLine
 10
101.9094221669
 20
224.7190564457
 30
0.0
 11
101.6752116406
 21
229.403266972
 31
0.0
  0
LINE
  5
19D
330
1F
100
AcDbEntity
  8
0
  6
Continuous
 62
     7
370
    25
100
AcDbLine
 10
51.4094221669
 20
224.7190564457
 30
0.0
 11
101.9094221669
 21
224.7190564457
 31
0.0
  0
LINE
  5
19E
330
1F
100
AcDbEntity
  8
0
  6
Continuous
 62
     7
370
    25
100
AcDbLine
 10
51.6436326932
 20
229.403266972
 30
0.0
 11
51.4094221669
 21
224.7190564457
 31
0.0
  0
LINE
  5
19F
330
1F
100
AcDbEntity
  8
0
  6
Continuous
 62
     7
370
    25
100
AcDbLine
 10
51.6436326932
 20
229.403266972
 30
0.0
 11
51.9594221669
 21
229.7190564457
 31
0.0
  0
LINE
  5
1A0
330
1F
100
AcDbEntity
  8
0
  6
Continuous
 62
     7
370
    25
100
AcDbLine
 10
106.6594221669
 20
175.7190564457
 30
0.0
 11
106.6594221669
 21
229.7190564457
 31
0.0
  0
LINE
  5
1A1
330
1F
100
AcDbEntity
  8
0
  6
Continuous
 62
     7
370
    25
100
AcDbLine
 10
102.6473150108
 20
179.2190564457
 30
0.0
 11
102.8594221669
 21
175.7190564457
 31
0.0
  0
LINE
  5
1A2
330
1F
100
AcDbEntity
  8
0
  6
Continuous
 62
     7
370
    25
100
AcDbLine
 10
96.6594221669
 20
179.2190564457
 30
0.0
 11
96.6594221669
 21
224.7190564457
 31
0.0
  0
LINE
  5
1A3
330
1F
100
AcDbEntity
  8
0
  6
Continuous
 62
     7
370
    25
100
AcDbLine
 10
96.6594221669
 20
224.7190564457
 30
0.0
 11
102.2594221669
 21
224.7190564457
 31
0.0
  0
LINE
  5
1A4
330
1F
100
AcDbEntity
  8
0
  6
Continuous
 62
     7
370
    25
100
AcDbLine
 10
102.2594221669
 20
229.7190564457
 30
0.0
 11
102.2594221669
 21
224.7190564457
 31
0.0
  0
LINE
  5
1A5
330
1F
100
AcDbEntity
  8
0
  6
Continuous
 62
     7
370
    25
100
AcDbLine
 10
102.2594221669
 20
229.7190564457
 30
0.0
 11
106.6594221669
 21
229.7190564457
 31
0.0
  0
LINE
  5
1A6
330
1F
100
AcDbEntity
  8
0
  6
Continuous
 62
     7
370
    25
100
AcDbLine
 10
102.6473150108
 20
179.2190564457
 30
0.0
 11
96.6594221669
 21
179.2190564457
 31
0.0
  0
LINE
  5
1A7
330
1F
100
AcDbEntity
  8
0
  6
Continuous
 62
     7
370
    25
100
AcDbLine
 10
102.8594221669
 20
175.7190564457
 30
0.0
 11
106.6594221669
 21
175.7190564457
 31
0.0
  0
LINE
  5
1A8
330
1F
100
AcDbEntity
  8
0
  6
Continuous
 62
     7
370
    25
100
AcDbLine
 10
51.0594221669
 20
224.7190564457
 30
0.0
 11
51.0594221669
 21
229.7190564457
 31
0.0
  0
LINE
  5
1A9
330
1F
100
AcDbEntity
  8
0
  6
Continuous
 62
     7
370
    25
100
AcDbLine
 10
51.0594221669
 20
224.7190564457
 30
0.0
 11
56.6594221669
 21
224.7190564457
 31
0.0
  0
LINE
  5
1AA
330
1F
100
AcDbEntity
  8
0
  6
Continuous
 62
     7
370
    25
100
AcDbLine
 10
56.6594221669
 20
224.7190564457
 30
0.0
 11
56.6594221669
 21
179.2190564457
 31
0.0
  0
LINE
  5
1AB
330
1F
100
AcDbEntity
  8
0
  6
Continuous
 62
     7
370
    25
100
AcDbLine
 10
50.4594221669
 20
175.7190564457
 30
0.0
 11
50.6715293229
 21
179.2190564457
 31
0.0
  0
LINE
  5
1AC
330
1F
100
AcDbEntity
  8
0
  6
Continuous
 62
     7
370
    25
100
AcDbLine
 10
46.6594221669
 20
229.7190564457
 30
0.0
 11
46.6594221669
 21
175.7190564457
 31
0.0
  0
LINE
  5
1AD
330
1F
100
AcDbEntity
  8
0
  6
Continuous
 62
     7
370
    25
100
AcDbLine
 10
46.6594221669
 20
229.7190564457
 30
0.0
 11
51.0594221669
 21
229.7190564457
 31
0.0
  0
LINE
  5
1AE
330
1F
100
AcDbEntity
  8
0
  6
Continuous
 62
     7
370
    25
100
AcDbLine
 10
56.6594221669
 20
179.2190564457
 30
0.0
 11
50.6715293229
 21
179.2190564457
 31
0.0
  0
LINE
  5
1AF
330
1F
100
AcDbEntity
  8
0
  6
Continuous
 62
     7
370
    25
100
AcDbLine
 10
46.6594221669
 20
175.7190564457
 30
0.0
 11
50.4594221669
 21
175.7190564457
 31
0.0
  0
LINE
  5
1B0
330
1F
100
AcDbEntity
  8
0
  6
Continuous
 62
     7
370
    25
100
AcDbLine
 10
56.6594221669
 20
179.2190564457
 30
0.0
 11
96.6594221669
 21
179.2190564457
 31
0.0
  0
LINE
  5
1B1
330
1F
100
AcDbEntity
  8
0
  6
Continuous
 62
     7
370
    25
100
AcDbLine
 10
102.2594221669
 20
229.7190564457
 30
0.0
 11
101.3594221669
 21
229.7190564457
 31
0.0
  0
LINE
  5
1B2
330
1F
100
AcDbEntity
  8
0
  6
Continuous
 62
     7
370
    25
100
AcDbLine
 10
51.9594221669
 20
229.7190564457
 30
0.0
 11
51.0594221669
 21
229.7190564457
 31
0.0
  0
LINE
  5
1B3
330
1F
100
AcDbEntity
  8
0
  6
Continuous
 62
     7
370
    25
100
AcDbLine
 10
50.4594221669
 20
175.7190564457
 30
0.0
 11
50.8594221669
 21
175.7190564457
 31
0.0
  0
LINE
  5
1B4
330
1F
100
AcDbEntity
  8
0
  6
Continuous
 62
     7
370
    25
100
AcDbLine
 10
102.4594221669
 20
175.7190564457
 30
0.0
 11
102.8594221669
 21
175.7190564457
 31
0.0
  0
LINE
  5
1B5
330
1F
100
AcDbEntity
  8
0
  6
Continuous
 62
     7
370
    25
100
AcDbLine
 10
102.4594221669
 20
178.2190564457
 30
0.0
 11
102.4594221669
 21
170.2190564457
 31
0.0
  0
LINE
  5
1B6
330
1F
100
AcDbEntity
  8
0
  6
Continuous
 62
     7
370
    25
100
AcDbLine
 10
86.6594221669
 20
178.2190564457
 30
0.0
 11
86.6594221669
 21
170.2190564457
 31
0.0
  0
LINE
  5
1B7
330
1F
100
AcDbEntity
  8
0
  6
Continuous
 62
     7
370
    25
100
AcDbLine
 10
86.6594221669
 20
178.2190564457
 30
0.0
 11
102.4594221669
 21
178.2190564457
 31
0.0
  0
LINE
  5
1B8
330
1F
100
AcDbEntity
  8
0
  6
Continuous
 62
     7
370
    25
100
AcDbLine
 10
102.4594221669
 20
170.2190564457
 30
0.0
 11
86.6594221669
 21
170.2190564457
 31
0.0
  0
LINE
  5
1B9
330
1F
100
AcDbEntity
  8
0
  6
Continuous
 62
     7
370
    25
100
AcDbLine
 10
50.8594221669
 20
170.2190564457
 30
0.0
 11
50.8594221669
 21
178.2190564457
 31
0.0
  0
LINE
  5
1BA
330
1F
100
AcDbEntity
  8
0
  6
Continuous
 62
     7
370
    25
100
AcDbLine
 10
66.6594221669
 20
170.2190564457
 30
0.0
 11
66.6594221669
 21
178.2190564457
 31
0.0
  0
LINE
  5
1BB
330
1F
100
AcDbEntity
  8
0
  6
Continuous
 62
     7
370
    25
100
AcDbLine
 10
50.8594221669
 20
178.2190564457
 30
0.0
 11
66.6594221669
 21
178.2190564457
 31
0.0
  0
LINE
  5
1BC
330
1F
100
AcDbEntity
  8
0
  6
Continuous
 62
     7
370
    25
100
AcDbLine
 10
66.6594221669
 20
170.2190564457
 30
0.0
 11
50.8594221669
 21
170.2190564457
 31
0.0
  0
LINE
  5
1BD
330
1F
100
AcDbEntity
  8
0
  6
Continuous
 62
     7
370
    25
100
AcDbLine
 10
86.6594221669
 20
178.2190564457
 30
0.0
 11
66.6594221669
 21
178.2190564457
 31
0.0
  0
LINE
  5
1BE
330
1F
100
AcDbEntity
  8
0
  6
Continuous
 62
     7
370
    25
100
AcDbLine
 10
86.6594221669
 20
170.2190564457
 30
0.0
 11
66.6594221669
 21
170.2190564457
 31
0.0
  0
LINE
  5
1BF
330
1F
100
AcDbEntity
  8
0
  6
Continuous
 62
     7
370
    25
100
AcDbLine
 10
106.6594221669
 20
170.2190564457
 30
0.0
 11
106.6594221669
 21
174.7190564457
 31
0.0
  0
LINE
  5
1C0
330
1F
100
AcDbEntity
  8
0
  6
Continuous
 62
     7
370
    25
100
AcDbLine
 10
106.6594221669
 20
174.7190564457
 30
0.0
 11
102.4594221669
 21
174.7190564457
 31
0.0
  0
LINE
  5
1C1
330
1F
100
AcDbEntity
  8
0
  6
Continuous
 62
     7
370
    25
100
AcDbLine
 10
106.6594221669
 20
170.2190564457
 30
0.0
 11
102.4594221669
 21
170.2190564457
 31
0.0
  0
LINE
  5
1C2
330
1F
100
AcDbEntity
  8
0
  6
Continuous
 62
     7
370
    25
100
AcDbLine
 10
46.6594221669
 20
170.2190564457
 30
0.0
 11
46.6594221669
 21
174.7190564457
 31
0.0
  0
LINE
  5
1C3
330
1F
100
AcDbEntity
  8
0
  6
Continuous
 62
     7
370
    25
100
AcDbLine
 10
50.8594221669
 20
174.7190564457
 30
0.0
 11
46.6594221669
 21
174.7190564457
 31
0.0
  0
LINE
  5
1C4
330
1F
100
AcDbEntity
  8
0
  6
Continuous
 62
     7
370
    25
100
AcDbLine
 10
50.8594221669
 20
170.2190564457
 30
0.0
 11
46.6594221669
 21
170.2190564457
 31
0.0
  0
LINE
  5
1C5
330
1F
100
AcDbEntity
  8
0
  6
Continuous
 62
     7
370
    25
100
AcDbLine
 10
69.1594221669
 20
224.2190564457
 30
0.0
 11
69.1594221669
 21
224.7190564457
 31
0.0
  0
LINE
  5
1C6
330
1F
100
AcDbEntity
  8
0
  6
Continuous
 62
     7
370
    25
100
AcDbLine
 10
69.1594221669
 20
224.2190564457
 30
0.0
 11
84.1594221669
 21
224.2190564457
 31
0.0
  0
LINE
  5
1C7
330
1F
100
AcDbEntity
  8
0
  6
Continuous
 62
     7
370
    25
100
AcDbLine
 10
84.1594221669
 20
224.2190564457
 30
0.0
 11
84.1594221669
 21
224.7190564457
 31
0.0
  0
SPLINE
  5
1C8
330
1F
100
AcDbEntity
  8
0
  6
Continuous
 62
     7
370
    25
100
AcDbSpline
210
0.0
220
0.0
230
1.0
 70
    11
 71
     3
 72
    26
 73
    22
 74
     0
 42
0.000000001
 43
0.00000001
 40
0.0
 40
0.0
 40
0.0
 40
0.0
 40
0.0525376719149739
 40
0.1050348970573257
 40
0.1585749085383237
 40
0.2128466440085024
 40
0.2660104874889107
 40
0.3180045209554633
 40
0.3704807849944672
 40
0.424374626303276
 40
0.4785123923432452
 40
0.5312166189811115
 40
0.5830729394225426
 40
0.6359557906056571
 40
0.6901521276152719
 40
0.7439358686008045
 40
0.7962685295206772
 40
0.8483329090777709
 40
0.9016524469021406
 40
0.95593985918066
 40
1.0
 40
1.0
 40
1.0
 40
1.0
 10
82.50942216687407
 20
220.0256478852853
 30
0.0
 10
82.51102733622044
 20
220.0422188166066
 30
0.0
 10
82.51423643915385
 20
220.0753479219138
 30
0.0
 10
82.53918871904959
 20
220.1196385181628
 30
0.0
 10
82.57634943399417
 20
220.1540204564855
 30
0.0
 10
82.62357551226133
 20
220.1742791930921
 30
0.0
 10
82.67450340655108
 20
220.1776823167471
 30
0.0
 10
82.7230542869462
 20
220.1644719243306
 30
0.0
 10
82.76470081685838
 20
220.1363744385529
 30
0.0
 10
82.79533303298989
 20
220.0956919257065
 30
0.0
 10
82.81083098672474
 20
220.0467472554868
 30
0.0
 10
82.80924983952299
 20
219.9959530273785
 30
0.0
 10
82.79153599223848
 20
219.9490474704962
 30
0.0
 10
82.75951856936418
 20
219.9101628760492
 30
0.0
 10
82.71586307534021
 20
219.8835354743988
 30
0.0
 10
82.66567480495675
 20
219.8729404777304
 30
0.0
 10
82.61550128612414
 20
219.8793788474177
 30
0.0
 10
82.57042653760803
 20
219.9014791929343
 30
0.0
 10
82.53488869418358
 20
219.937259458281
 30
0.0
 10
82.51309014891791
 20
219.980804972505
 30
0.0
 10
82.5105570199212
 20
220.0117737398828
 30
0.0
 10
82.50942216687407
 20
220.0256478852853
 30
0.0
  0
LINE
  5
1C9
330
1F
100
AcDbEntity
  8
0
  6
Continuous
 62
     7
370
    25
100
AcDbLine
 10
82.0594221669
 20
219.2256478853
 30
0.0
 11
83.2594221669
 21
219.2256478853
 31
0.0
  0
SPLINE
  5
1CA
330
1F
100
AcDbEntity
  8
0
  6
Continuous
 62
     7
370
    25
100
AcDbSpline
210
0.0
220
0.0
230
1.0
 70
    11
 71
     3
 72
    26
 73
    22
 74
     0
 42
0.000000001
 43
0.00000001
 40
0.0
 40
0.0
 40
0.0
 40
0.0
 40
0.0525376719149684
 40
0.1050348970573256
 40
0.1585749085383239
 40
0.2128466440085006
 40
0.2660104874889095
 40
0.3180045209554641
 40
0.3704807849944685
 40
0.4243746263032773
 40
0.4785123923432413
 40
0.531216618981108
 40
0.5830729394225392
 40
0.6359557906056541
 40
0.6901521276152691
 40
0.7439358686008021
 40
0.796268529520675
 40
0.848332909077769
 40
0.901652446902135
 40
0.9559398591806598
 40
1.0
 40
1.0
 40
1.0
 40
1.0
 10
70.50942216687407
 20
220.0256478852853
 30
0.0
 10
70.51102733622045
 20
220.0090769539641
 30
0.0
 10
70.51423643915385
 20
219.9759478486569
 30
0.0
 10
70.5391887190496
 20
219.9316572524078
 30
0.0
 10
70.57634943399415
 20
219.8972753140852
 30
0.0
 10
70.62357551226134
 20
219.8770165774786
 30
0.0
 10
70.67450340655108
 20
219.8736134538236
 30
0.0
 10
70.7230542869462
 20
219.88682384624
 30
0.0
 10
70.7647008168584
 20
219.9149213320178
 30
0.0
 10
70.79533303298987
 20
219.9556038448642
 30
0.0
 10
70.81083098672475
 20
220.0045485150839
 30
0.0
 10
70.80924983952299
 20
220.0553427431922
 30
0.0
 10
70.79153599223848
 20
220.1022483000745
 30
0.0
 10
70.75951856936418
 20
220.1411328945215
 30
0.0
 10
70.71586307534021
 20
220.1677602961718
 30
0.0
 10
70.66567480495675
 20
220.1783552928403
 30
0.0
 10
70.61550128612414
 20
220.171916923153
 30
0.0
 10
70.57042653760804
 20
220.1498165776364
 30
0.0
 10
70.53488869418358
 20
220.1140363122897
 30
0.0
 10
70.51309014891793
 20
220.0704907980657
 30
0.0
 10
70.5105570199212
 20
220.0395220306879
 30
0.0
 10
70.50942216687407
 20
220.0256478852853
 30
0.0
  0
LINE
  5
1CB
330
1F
100
AcDbEntity
  8
0
  6
Continuous
 62
     7
370
    25
100
AcDbLine
 10
71.2594221669
 20
219.2256478853
 30
0.0
 11
70.0594221669
 21
219.2256478853
 31
0.0
  0
CIRCLE
  5
1CC
330
1F
100
AcDbEntity
  8
0
  6
Continuous
 62
     7
370
    25
100
AcDbCircle
 10
61.6594221669
 20
221.5190564457
 30
0.0
 40
0.5000000000000019
  0
LINE
  5
1CD
330
1F
100
AcDbEntity
  8
0
  6
PHANTOM
 62
     8
370
    18
100
AcDbLine
 10
81.2594221669
 20
235.5256478853
 30
0.0
 11
81.2594221669
 21
236.7256478853
 31
0.0
  0
LINE
  5
1CE
330
1F
100
AcDbEntity
  8
0
  6
PHANTOM
 62
     8
370
    18
100
AcDbLine
 10
82.0594221669
 20
234.7256478853
 30
0.0
 11
83.2594221669
 21
234.7256478853
 31
0.0
  0
LINE
  5
1CF
330
1F
100
AcDbEntity
  8
0
  6
PHANTOM
 62
     8
370
    18
100
AcDbLine
 10
72.0594221669
 20
235.5256478853
 30
0.0
 11
72.0594221669
 21
236.7256478853
 31
0.0
  0
LINE
  5
1D0
330
1F
100
AcDbEntity
  8
0
  6
PHANTOM
 62
     8
370
    18
100
AcDbLine
 10
71.2594221669
 20
234.7256478853
 30
0.0
 11
70.0594221669
 21
234.7256478853
 31
0.0
  0
HATCH
  5
1D1
330
1F
100
AcDbEntity
  8
0
  6
Continuous
 62
     7
370
    18
100
AcDbHatch
 10
0.0
 20
0.0
 30
0.0
210
0.0
220
0.0
230
1.0
  2
ANSI34
 70
     0
 71
     0
 91
        1
 92
        0
 93
        4
 72
     1
 10
102.4594221668741
 20
178.2190564456526
 11
86.65942216687411
 21
178.2190564456526
 72
     1
 10
86.65942216687411
 20
178.2190564456526
 11
86.65942216687411
 21
170.2190564456526
 72
     1
 10
86.65942216687411
 20
170.2190564456526
 11
102.4594221668741
 21
170.2190564456526
 72
     1
 10
102.4594221668741
 20
170.2190564456526
 11
102.4594221668741
 21
178.2190564456526
 97
        0
 75
     0
 76
     1
 52
0.0
 41
1.0
 77
     0
 78
     4
 53
45.0
 43
0.0
 44
0.0
 45
-13.47038418160373
 46
13.47038418160373
 79
     0
 53
45.0
 43
4.49013
 44
0.0
 45
-13.47038418160373
 46
13.47038418160373
 79
     0
 53
45.0
 43
8.98026
 44
0.0
 45
-13.47038418160373
 46
13.47038418160373
 79
     0
 53
45.0
 43
13.4704
 44
0.0
 45
-13.47038418160373
 46
13.47038418160373
 79
     0
 98
        1
 10
0.0
 20
0.0
  0
HATCH
  5
1D2
330
1F
100
AcDbEntity
  8
0
  6
Continuous
 62
     7
370
    18
100
AcDbHatch
 10
0.0
 20
0.0
 30
0.0
210
0.0
220
0.0
230
1.0
  2
ANSI34
 70
     0
 71
     0
 91
        1
 92
        0
 93
        4
 72
     1
 10
50.85942216687412
 20
170.2190564456526
 11
66.65942216687412
 21
170.2190564456526
 72
     1
 10
66.65942216687412
 20
170.2190564456526
 11
66.65942216687412
 21
178.2190564456526
 72
     1
 10
66.65942216687412
 20
178.2190564456526
 11
50.85942216687412
 21
178.2190564456526
 72
     1
 10
50.85942216687412
 20
178.2190564456526
 11
50.85942216687412
 21
170.2190564456526
 97
        0
 75
     0
 76
     1
 52
0.0
 41
1.0
 77
     0
 78
     4
 53
45.0
 43
0.0
 44
0.0
 45
-13.47038418160373
 46
13.47038418160373
 79
     0
 53
45.0
 43
4.49013
 44
0.0
 45
-13.47038418160373
 46
13.47038418160373
 79
     0
 53
45.0
 43
8.98026
 44
0.0
 45
-13.47038418160373
 46
13.47038418160373
 79
     0
 53
45.0
 43
13.4704
 44
0.0
 45
-13.47038418160373
 46
13.47038418160373
 79
     0
 98
        1
 10
0.0
 20
0.0
  0
HATCH
  5
1D3
330
1F
100
AcDbEntity
  8
0
  6
Continuous
 62
     7
370
    18
100
AcDbHatch
 10
0.0
 20
0.0
 30
0.0
210
0.0
220
0.0
230
1.0
  2
ANSI34
 70
     0
 71
     0
 91
        1
 92
        0
 93
        8
 72
     1
 10
51.05942216687409
 20
229.7190564456527
 11
46.65942216687409
 21
229.7190564456528
 72
     1
 10
46.65942216687409
 20
229.7190564456528
 11
46.65942216687412
 21
175.7190564456526
 72
     1
 10
46.65942216687412
 20
175.7190564456526
 11
50.45942216687411
 21
175.7190564456526
 72
     1
 10
50.45942216687411
 20
175.7190564456526
 11
50.6715293229281
 21
179.2190564456526
 72
     1
 10
50.6715293229281
 20
179.2190564456526
 11
56.65942216687406
 21
179.2190564456526
 72
     1
 10
56.65942216687406
 20
179.2190564456526
 11
56.65942216687402
 21
224.7190564456527
 72
     1
 10
56.65942216687402
 20
224.7190564456527
 11
51.05942216687408
 21
224.7190564456528
 72
     1
 10
51.05942216687408
 20
224.7190564456528
 11
51.05942216687409
 21
229.7190564456527
 97
        0
 75
     0
 76
     1
 52
0.0
 41
1.0
 77
     0
 78
     4
 53
45.0
 43
0.0
 44
0.0
 45
-13.47038418160373
 46
13.47038418160373
 79
     0
 53
45.0
 43
4.49013
 44
0.0
 45
-13.47038418160373
 46
13.47038418160373
 79
     0
 53
45.0
 43
8.98026
 44
0.0
 45
-13.47038418160373
 46
13.47038418160373
 79
     0
 53
45.0
 43
13.4704
 44
0.0
 45
-13.47038418160373
 46
13.47038418160373
 79
     0
 98
        1
 10
0.0
 20
0.0
  0
HATCH
  5
1D4
330
1F
100
AcDbEntity
  8
0
  6
Continuous
 62
     7
370
    18
100
AcDbHatch
 10
0.0
 20
0.0
 30
0.0
210
0.0
220
0.0
230
1.0
  2
ANSI34
 70
     0
 71
     0
 91
        1
 92
        0
 93
        8
 72
     1
 10
106.6594221668741
 20
229.7190564456527
 11
102.2594221668741
 21
229.7190564456527
 72
     1
 10
102.2594221668741
 20
229.7190564456527
 11
102.2594221668741
 21
224.7190564456527
 72
     1
 10
102.2594221668741
 20
224.7190564456527
 11
96.65942216687402
 21
224.7190564456527
 72
     1
 10
96.65942216687402
 20
224.7190564456527
 11
96.65942216687407
 21
179.2190564456526
 72
     1
 10
96.65942216687407
 20
179.2190564456526
 11
102.6473150108202
 21
179.2190564456526
 72
     1
 10
102.6473150108202
 20
179.2190564456526
 11
102.8594221668741
 21
175.7190564456525
 72
     1
 10
102.8594221668741
 20
175.7190564456525
 11
106.6594221668741
 21
175.7190564456525
 72
     1
 10
106.6594221668741
 20
175.7190564456525
 11
106.6594221668741
 21
229.7190564456527
 97
        0
 75
     0
 76
     1
 52
0.0
 41
1.0
 77
     0
 78
     4
 53
45.0
 43
0.0
 44
0.0
 45
-13.47038418160373
 46
13.47038418160373
 79
     0
 53
45.0
 43
4.49013
 44
0.0
 45
-13.47038418160373
 46
13.47038418160373
 79
     0
 53
45.0
 43
8.98026
 44
0.0
 45
-13.47038418160373
 46
13.47038418160373
 79
     0
 53
45.0
 43
13.4704
 44
0.0
 45
-13.47038418160373
 46
13.47038418160373
 79
     0
 98
        1
 10
0.0
 20
0.0
  0
HATCH
  5
1D5
330
1F
100
AcDbEntity
  8
0
  6
Continuous
 62
     7
370
    18
100
AcDbHatch
 10
0.0
 20
0.0
 30
0.0
210
0.0
220
0.0
230
1.0
  2
ANSI34
 70
     0
 71
     0
 91
        1
 92
        0
 93
        6
 72
     1
 10
51.95942216687408
 20
229.7190564456526
 11
51.64363269318986
 21
229.4032669719684
 72
     1
 10
51.64363269318986
 20
229.4032669719684
 11
51.40942216687407
 21
224.7190564456526
 72
     1
 10
51.40942216687407
 20
224.7190564456526
 11
101.9094221668741
 21
224.7190564456526
 72
     1
 10
101.9094221668741
 20
224.7190564456526
 11
101.6752116405583
 21
229.4032669719683
 72
     1
 10
101.6752116405583
 20
229.4032669719683
 11
101.3594221668741
 21
229.7190564456526
 72
     1
 10
101.3594221668741
 20
229.7190564456526
 11
51.95942216687408
 21
229.7190564456526
 97
        0
 75
     0
 76
     1
 52
90.0
 41
1.0
 77
     0
 78
     4
 53
135.0000000000002
 43
0.0
 44
0.0
 45
-13.47038418160369
 46
-13.47038418160378
 79
     0
 53
135.0000000000002
 43
-0.0000000000000157
 44
4.49013
 45
-13.47038418160369
 46
-13.47038418160378
 79
     0
 53
135.0000000000002
 43
-0.0000000000000314
 44
8.98026
 45
-13.47038418160369
 46
-13.47038418160378
 79
     0
 53
135.0000000000002
 43
-0.000000000000047
 44
13.4704
 45
-13.47038418160369
 46
-13.47038418160378
 79
     0
 98
        1
 10
0.0
 20
0.0
  0
INSERT
  5
1DB
330
1F
100
AcDbEntity
  8
O-TEKST
100
AcDbBlockReference
  2
SW_NOTE_1
 10
57.5332669754
 20
159.3991465194
 30
0.0
  0
ARC
  5
1DC
330
1F
100
AcDbEntity
  8
0
  6
Continuous
 62
     7
370
    25
100
AcDbCircle
 10
81.2594221669
 20
356.8475015631
 30
0.0
 40
0.8000000000000114
100
AcDbArc
 50
0.0
 51
90.0
  0
ARC
  5
1DD
330
1F
100
AcDbEntity
  8
0
  6
Continuous
 62
     7
370
    25
100
AcDbCircle
 10
81.2594221669
 20
356.8475015631
 30
0.0
 40
2.000000000000014
100
AcDbArc
 50
0.0
 51
90.0
  0
LINE
  5
1DE
330
1F
100
AcDbEntity
  8
0
  6
Continuous
 62
     7
370
    25
100
AcDbLine
 10
83.2594221669
 20
351.8409101234
 30
0.0
 11
83.2594221669
 21
356.8475015631
 31
0.0
  0
LINE
  5
1DF
330
1F
100
AcDbEntity
  8
0
  6
Continuous
 62
     7
370
    25
100
AcDbLine
 10
82.0594221669
 20
356.8475015631
 30
0.0
 11
82.0594221669
 21
352.3605180205
 31
0.0
  0
LINE
  5
1E0
330
1F
100
AcDbEntity
  8
0
  6
Continuous
 62
     7
370
    25
100
AcDbLine
 10
72.0594221669
 20
357.6475015631
 30
0.0
 11
81.2594221669
 21
357.6475015631
 31
0.0
  0
LINE
  5
1E1
330
1F
100
AcDbEntity
  8
0
  6
Continuous
 62
     7
370
    25
100
AcDbLine
 10
81.2594221669
 20
358.8475015631
 30
0.0
 11
72.0594221669
 21
358.8475015631
 31
0.0
  0
ARC
  5
1E2
330
1F
100
AcDbEntity
  8
0
  6
Continuous
 62
     7
370
    25
100
AcDbCircle
 10
72.0594221669
 20
356.8475015631
 30
0.0
 40
0.8000000000000114
100
AcDbArc
 50
90.0
 51
180.0
  0
ARC
  5
1E3
330
1F
100
AcDbEntity
  8
0
  6
Continuous
 62
     7
370
    25
100
AcDbCircle
 10
72.0594221669
 20
356.8475015631
 30
0.0
 40
2.000000000000014
100
AcDbArc
 50
90.0
 51
180.0
  0
LINE
  5
1E4
330
1F
100
AcDbEntity
  8
0
  6
Continuous
 62
     7
370
    25
100
AcDbLine
 10
71.2594221669
 20
352.3605180205
 30
0.0
 11
71.2594221669
 21
356.8475015631
 31
0.0
  0
LINE
  5
1E5
330
1F
100
AcDbEntity
  8
0
  6
Continuous
 62
     7
370
    25
100
AcDbLine
 10
70.0594221669
 20
356.8475015631
 30
0.0
 11
70.0594221669
 21
351.8409101234
 31
0.0
  0
ARC
  5
1E6
330
1F
100
AcDbEntity
  8
0
  6
Continuous
 62
     7
370
    25
100
AcDbCircle
 10
81.2594221669
 20
350.5274877425
 30
0.0
 40
2.0
100
AcDbArc
 50
41.0495291843
 51
90.0
  0
LINE
  5
1E7
330
1F
100
AcDbEntity
  8
0
  6
Continuous
 62
     7
370
    25
100
AcDbLine
 10
81.2594221669
 20
352.5274877425
 30
0.0
 11
72.0594221669
 21
352.5274877425
 31
0.0
  0
ARC
  5
1E8
330
1F
100
AcDbEntity
  8
0
  6
Continuous
 62
     7
370
    25
100
AcDbCircle
 10
72.0594221669
 20
350.5274877425
 30
0.0
 40
2.000000000000013
100
AcDbArc
 50
90.0
 51
138.9504708157
  0
CIRCLE
  5
1E9
330
1F
100
AcDbEntity
  8
0
  6
Continuous
 62
     7
370
    25
100
AcDbCircle
 10
95.6594221669
 20
343.6409101234
 30
0.0
 40
0.5000000000000029
  0
CIRCLE
  5
1EA
330
1F
100
AcDbEntity
  8
0
  6
Continuous
 62
     7
370
    25
100
AcDbCircle
 10
57.6594221669
 20
343.6409101234
 30
0.0
 40
0.4999999999999504
  0
CIRCLE
  5
1EB
330
1F
100
AcDbEntity
  8
0
  6
Continuous
 62
     7
370
    25
100
AcDbCircle
 10
57.6594221669
 20
343.6409101234
 30
0.0
 40
1.999999999999993
  0
CIRCLE
  5
1EC
330
1F
100
AcDbEntity
  8
0
  6
Continuous
 62
     7
370
    25
100
AcDbCircle
 10
95.6594221669
 20
343.6409101234
 30
0.0
 40
1.999999999999972
  0
LINE
  5
1ED
330
1F
100
AcDbEntity
  8
0
  6
Continuous
 62
     7
370
    25
100
AcDbLine
 10
46.6594221669
 20
351.8409101234
 30
0.0
 11
46.6594221669
 21
297.8409101234
 31
0.0
  0
LINE
  5
1EE
330
1F
100
AcDbEntity
  8
0
  6
Continuous
 62
     7
370
    25
100
AcDbLine
 10
46.6594221669
 20
297.8409101234
 30
0.0
 11
106.6594221669
 21
297.8409101234
 31
0.0
  0
LINE
  5
1EF
330
1F
100
AcDbEntity
  8
0
  6
Continuous
 62
     7
370
    25
100
AcDbLine
 10
106.6594221669
 20
351.8409101234
 30
0.0
 11
106.6594221669
 21
297.8409101234
 31
0.0
  0
LINE
  5
1F0
330
1F
100
AcDbEntity
  8
0
  6
Continuous
 62
     7
370
    25
100
AcDbLine
 10
46.6594221669
 20
351.8409101234
 30
0.0
 11
106.6594221669
 21
351.8409101234
 31
0.0
  0
LINE
  5
1F1
330
1F
100
AcDbEntity
  8
0
  6
Continuous
 62
     7
370
    25
100
AcDbLine
 10
106.6594221669
 20
292.3409101234
 30
0.0
 11
81.6594221669
 21
292.3409101234
 31
0.0
  0
LINE
  5
1F2
330
1F
100
AcDbEntity
  8
0
  6
Continuous
 62
     7
370
    25
100
AcDbLine
 10
81.6594221669
 20
292.3409101234
 30
0.0
 11
81.6594221669
 21
296.8409101234
 31
0.0
  0
LINE
  5
1F3
330
1F
100
AcDbEntity
  8
0
  6
Continuous
 62
     7
370
    25
100
AcDbLine
 10
106.6594221669
 20
296.8409101234
 30
0.0
 11
106.6594221669
 21
292.3409101234
 31
0.0
  0
LINE
  5
1F4
330
1F
100
AcDbEntity
  8
0
  6
Continuous
 62
     7
370
    25
100
AcDbLine
 10
106.6594221669
 20
296.8409101234
 30
0.0
 11
81.6594221669
 21
296.8409101234
 31
0.0
  0
LINE
  5
1F5
330
1F
100
AcDbEntity
  8
0
  6
Continuous
 62
     7
370
    25
100
AcDbLine
 10
46.6594221669
 20
292.3409101234
 30
0.0
 11
46.6594221669
 21
296.8409101234
 31
0.0
  0
LINE
  5
1F6
330
1F
100
AcDbEntity
  8
0
  6
Continuous
 62
     7
370
    25
100
AcDbLine
 10
71.6594221669
 20
292.3409101234
 30
0.0
 11
71.6594221669
 21
296.8409101234
 31
0.0
  0
LINE
  5
1F7
330
1F
100
AcDbEntity
  8
0
  6
Continuous
 62
     7
370
    25
100
AcDbLine
 10
71.6594221669
 20
296.8409101234
 30
0.0
 11
46.6594221669
 21
296.8409101234
 31
0.0
  0
LINE
  5
1F8
330
1F
100
AcDbEntity
  8
0
  6
Continuous
 62
     7
370
    25
100
AcDbLine
 10
71.6594221669
 20
292.3409101234
 30
0.0
 11
46.6594221669
 21
292.3409101234
 31
0.0
  0
LINE
  5
1F9
330
1F
100
AcDbEntity
  8
0
  6
Continuous
 62
     7
370
    25
100
AcDbLine
 10
102.4594221669
 20
296.8409101234
 30
0.0
 11
102.4594221669
 21
297.8409101234
 31
0.0
  0
LINE
  5
1FA
330
1F
100
AcDbEntity
  8
0
  6
Continuous
 62
     7
370
    25
100
AcDbLine
 10
50.8594221669
 20
296.8409101234
 30
0.0
 11
50.8594221669
 21
297.8409101234
 31
0.0
  0
LINE
  5
1FB
330
1F
100
AcDbEntity
  8
0
  6
Continuous
 62
     7
370
    25
100
AcDbLine
 10
81.6594221669
 20
292.3409101234
 30
0.0
 11
71.6594221669
 21
292.3409101234
 31
0.0
  0
LINE
  5
1FC
330
1F
100
AcDbEntity
  8
0
  6
PHANTOM
 62
     8
370
    18
100
AcDbLine
 10
81.2594221669
 20
357.6475015631
 30
0.0
 11
81.2594221669
 21
358.8475015631
 31
0.0
  0
LINE
  5
1FD
330
1F
100
AcDbEntity
  8
0
  6
PHANTOM
 62
     8
370
    18
100
AcDbLine
 10
82.0594221669
 20
356.8475015631
 30
0.0
 11
83.2594221669
 21
356.8475015631
 31
0.0
  0
LINE
  5
1FE
330
1F
100
AcDbEntity
  8
0
  6
PHANTOM
 62
     8
370
    18
100
AcDbLine
 10
72.0594221669
 20
357.6475015631
 30
0.0
 11
72.0594221669
 21
358.8475015631
 31
0.0
  0
LINE
  5
1FF
330
1F
100
AcDbEntity
  8
0
  6
PHANTOM
 62
     8
370
    18
100
AcDbLine
 10
71.2594221669
 20
356.8475015631
 30
0.0
 11
70.0594221669
 21
356.8475015631
 31
0.0
  0
LINE
  5
200
330
1F
100
AcDbEntity
  8
0
  6
PHANTOM
 62
     8
370
    18
100
AcDbLine
 10
81.2594221669
 20
351.8409101234
 30
0.0
 11
81.2594221669
 21
352.5274877425
 31
0.0
  0
LINE
  5
201
330
1F
100
AcDbEntity
  8
0
  6
PHANTOM
 62
     8
370
    18
100
AcDbLine
 10
72.0594221669
 20
351.8409101234
 30
0.0
 11
72.0594221669
 21
352.5274877425
 31
0.0
  0
SPLINE
  5
202
330
1F
100
AcDbEntity
  8
0
  6
PHANTOM
 62
     8
370
    18
100
AcDbSpline
210
0.0
220
0.0
230
1.0
 70
    11
 71
     3
 72
    50
 73
    46
 74
     0
 42
0.000000001
 43
0.00000001
 40
0.0
 40
0.0
 40
0.0
 40
0.0
 40
0.007510057607586
 40
0.0307840818633719
 40
0.0540896216503687
 40
0.0774530321799366
 40
0.1008875052689681
 40
0.1243714442502655
 40
0.1478496111130565
 40
0.1712681066341177
 40
0.1946085684033936
 40
0.2178873555448034
 40
0.2411325688644615
 40
0.2643692026923278
 40
0.2876200148847636
 40
0.3109114943585597
 40
0.3342709587517126
 40
0.3577077813592284
 40
0.3811932160035424
 40
0.4046689731920852
 40
0.4280859658858773
 40
0.4514327357822489
 40
0.4747280352953151
 40
0.5170095719363148
 40
0.5402933281796883
 40
0.5636196600134875
 40
0.5870122222591656
 40
0.6104719768042804
 40
0.6339611783849958
 40
0.6574198107800229
 40
0.6808061042482496
 40
0.7041180703537845
 40
0.7273797178978585
 40
0.7506186561638363
 40
0.7738582437058236
 40
0.7971222546946427
 40
0.8204387771758379
 40
0.8438307487183327
 40
0.8672933233715755
 40
0.8907823115786455
 40
0.9142380023433031
 40
0.9376253398799205
 40
0.9609478265106441
 40
0.9842297769387529
 40
1.0
 40
1.0
 40
1.0
 40
1.0
 10
97.5926416469822
 20
343.6409101269766
 30
0.0
 10
97.59219958260726
 20
343.6712856070585
 30
0.0
 10
97.59038753979515
 20
343.7957961387135
 30
0.0
 10
97.56327975003428
 20
344.0138733335781
 30
0.0
 10
97.48889853167917
 20
344.287764460207
 30
0.0
 10
97.37428173529733
 20
344.5482952969419
 30
0.0
 10
97.22228005856245
 20
344.7897110169004
 30
0.0
 10
97.03635941291009
 20
345.0067049830367
 30
0.0
 10
96.82096394000622
 20
345.194368209838
 30
0.0
 10
96.58095338835726
 20
345.3482723992989
 30
0.0
 10
96.32161028079919
 20
345.4648031201622
 30
0.0
 10
96.04860895838549
 20
345.5416295211434
 30
0.0
 10
95.76776481940581
 20
345.5777526044519
 30
0.0
 10
95.4847719516641
 20
345.5729487973204
 30
0.0
 10
95.20524741479214
 20
345.527236109613
 30
0.0
 10
94.93492070001028
 20
345.4409557215425
 30
0.0
 10
94.67960731762287
 20
345.3153842161016
 30
0.0
 10
94.44490908654824
 20
345.1531847867494
 30
0.0
 10
94.23600956004182
 20
344.9582147706357
 30
0.0
 10
94.05768302564852
 20
344.7350318962289
 30
0.0
 10
93.91418138339283
 20
344.4886600658353
 30
0.0
 10
93.80885140657047
 20
344.2244240197182
 30
0.0
 10
93.7259483965371
 20
343.8733618220164
 30
0.0
 10
93.71658065577222
 20
343.5091137221221
 30
0.0
 10
93.78106707117992
 20
343.1543519885452
 30
0.0
 10
93.87229630417235
 20
342.8851664382156
 30
0.0
 10
94.00258062361999
 20
342.6318282620417
 30
0.0
 10
94.1690057338043
 20
342.3998107666167
 30
0.0
 10
94.36758386494037
 20
342.1942851892819
 30
0.0
 10
94.59369340190038
 20
342.0199758162848
 30
0.0
 10
94.84230168076853
 20
341.8810365424194
 30
0.0
 10
95.10795286602949
 20
341.7806010600822
 30
0.0
 10
95.3848725608554
 20
341.7204189134549
 30
0.0
 10
95.6672787486961
 20
341.7010857026123
 30
0.0
 10
95.94953072982324
 20
341.7226893019514
 30
0.0
 10
96.22598322307229
 20
341.7851292973979
 30
0.0
 10
96.49084753911727
 20
341.887764664335
 30
0.0
 10
96.73835643505234
 20
342.0287690140817
 30
0.0
 10
96.96306734390916
 20
342.2049344695967
 30
0.0
 10
97.15998354061456
 20
342.4120618631735
 30
0.0
 10
97.32445458254581
 20
342.6453918554042
 30
0.0
 10
97.45276406144383
 20
342.8997641343357
 30
0.0
 10
97.54126278684356
 20
343.1695763545926
 30
0.0
 10
97.58616086152836
 20
343.4191032160005
 30
0.0
 10
97.59077738276446
 20
343.5771051005146
 30
0.0
 10
97.5926416469822
 20
343.6409101269766
 30
0.0
  0
SPLINE
  5
203
330
1F
100
AcDbEntity
  8
0
  6
PHANTOM
 62
     8
370
    18
100
AcDbSpline
210
0.0
220
0.0
230
1.0
 70
    11
 71
     3
 72
    50
 73
    46
 74
     0
 42
0.000000001
 43
0.00000001
 40
0.0
 40
0.0
 40
0.0
 40
0.0
 40
0.0075100569490622
 40
0.0307840813085697
 40
0.0540896211645922
 40
0.0774530316999448
 40
0.1008875047801904
 40
0.1243714438074041
 40
0.1478496107448106
 40
0.1712681062953459
 40
0.19460856805156
 40
0.2178873551888766
 40
0.24113256851806
 40
0.2643692023383731
 40
0.287620014508842
 40
0.3109114939775763
 40
0.3342709583737699
 40
0.357707780942936
 40
0.3811932155101508
 40
0.4046689726508498
 40
0.4280859653449818
 40
0.4514327352326108
 40
0.4747280346997462
 40
0.5170095714750199
 40
0.5402933276790407
 40
0.563619659441773
 40
0.5870122216273427
 40
0.6104719761677113
 40
0.6339611777425294
 40
0.6574198100569465
 40
0.6808061034255233
 40
0.7041180695100026
 40
0.7273797170824475
 40
0.7506186553301256
 40
0.773858242833402
 40
0.797122253923791
 40
0.8204387767029386
 40
0.8438307485039532
 40
0.8672933230681057
 40
0.8907823108831493
 40
0.9142380013220245
 40
0.9376253388203621
 40
0.9609478255915817
 40
0.9842297761666148
 40
1.0
 40
1.0
 40
1.0
 40
1.0
 10
59.59264164743791
 20
343.6409101262486
 30
0.0
 10
59.5921995830016
 20
343.6712856036904
 30
0.0
 10
59.59038753981162
 20
343.7957961331971
 30
0.0
 10
59.56327975071127
 20
344.0138733262835
 30
0.0
 10
59.48889853380652
 20
344.2877644542648
 30
0.0
 10
59.37428173897371
 20
344.5482952922798
 30
0.0
 10
59.22228006242042
 20
344.7897110129238
 30
0.0
 10
59.03635941619456
 20
345.0067049794687
 30
0.0
 10
58.82096394314674
 20
345.1943682073218
 30
0.0
 10
58.58095339167123
 20
345.3482723981942
 30
0.0
 10
58.32161028399474
 20
345.4648031196276
 30
0.0
 10
58.04860896132273
 20
345.5416295204655
 30
0.0
 10
57.76776482220077
 20
345.577752604158
 30
0.0
 10
57.4847719542843
 20
345.5729487979123
 30
0.0
 10
57.20524741722632
 20
345.52723611047
 30
0.0
 10
56.93492070239975
 20
345.4409557220744
 30
0.0
 10
56.67960731984419
 20
345.3153842169068
 30
0.0
 10
56.44490908838107
 20
345.1531847884996
 30
0.0
 10
56.23600956186336
 20
344.9582147729485
 30
0.0
 10
56.0576830278963
 20
344.7350318985286
 30
0.0
 10
55.9141813854575
 20
344.4886600682879
 30
0.0
 10
55.80885140748153
 20
344.2244240226393
 30
0.0
 10
55.72594839619184
 20
343.8733618245084
 30
0.0
 10
55.71658065617174
 20
343.5091137240517
 30
0.0
 10
55.78106707077811
 20
343.1543519900013
 30
0.0
 10
55.87229630289876
 20
342.8851664398104
 30
0.0
 10
56.00258062247378
 20
342.6318282640087
 30
0.0
 10
56.16900573284928
 20
342.3998107688331
 30
0.0
 10
56.36758386308973
 20
342.1942851908918
 30
0.0
 10
56.59369339887667
 20
342.0199758171464
 30
0.0
 10
56.84230167746547
 20
341.881036543802
 30
0.0
 10
57.10795286281351
 20
341.7806010622297
 30
0.0
 10
57.3848725574026
 20
341.7204189141485
 30
0.0
 10
57.66727874524108
 20
341.7010857007675
 30
0.0
 10
57.94953072695078
 20
341.7226893006022
 30
0.0
 10
58.2259832211058
 20
341.785129299886
 30
0.0
 10
58.49084753943568
 20
341.8877646680668
 30
0.0
 10
58.73835644069192
 20
342.0287690121503
 30
0.0
 10
58.96306735574475
 20
342.2049344588375
 30
0.0
 10
59.15998355442423
 20
342.4120618468907
 30
0.0
 10
59.32445459249699
 20
342.6453918387717
 30
0.0
 10
59.45276406569376
 20
342.8997641198396
 30
0.0
 10
59.54126278798459
 20
343.1695763422705
 30
0.0
 10
59.58616086265044
 20
343.4191032082011
 30
0.0
 10
59.5907773833781
 20
343.5771050965968
 30
0.0
 10
59.59264164743791
 20
343.6409101262486
 30
0.0
  0
LINE
  5
204
330
1F
100
AcDbEntity
  8
0
  6
Continuous
 62
     7
370
    25
100
AcDbLine
 10
338.0693877034
 20
92.9636363636
 30
0.0
 11
343.0759791431
 21
92.9636363636
 31
0.0
  0
LINE
  5
205
330
1F
100
AcDbEntity
  8
0
  6
Continuous
 62
     7
370
    25
100
AcDbLine
 10
343.0759791431
 20
94.1636363636
 30
0.0
 11
338.0693877034
 21
94.1636363636
 31
0.0
  0
LINE
  5
206
330
1F
100
AcDbEntity
  8
0
  6
Continuous
 62
     7
370
    25
100
AcDbLine
 10
344.4759791431
 20
94.1636363636
 30
0.0
 11
343.0759791431
 21
94.1636363636
 31
0.0
  0
LINE
  5
207
330
1F
100
AcDbEntity
  8
0
  6
Continuous
 62
     7
370
    25
100
AcDbLine
 10
343.0759791431
 20
92.9636363636
 30
0.0
 11
344.4759791431
 21
92.9636363636
 31
0.0
  0
LINE
  5
208
330
1F
100
AcDbEntity
  8
0
  6
Continuous
 62
     7
370
    25
100
AcDbLine
 10
338.1559653225
 20
68.1636363636
 30
0.0
 11
338.0693877034
 21
68.1636363636
 31
0.0
  0
LINE
  5
209
330
1F
100
AcDbEntity
  8
0
  6
Continuous
 62
     7
370
    25
100
AcDbLine
 10
338.0693877034
 20
66.9636363636
 30
0.0
 11
338.1559653225
 21
66.9636363636
 31
0.0
  0
ARC
  5
20A
330
1F
100
AcDbEntity
  8
0
  6
Continuous
 62
     7
370
    25
100
AcDbCircle
 10
344.4759791431
 20
93.5636363636
 30
0.0
 40
0.6000000000000085
100
AcDbArc
 50
270.0
 51
90.0
  0
ARC
  5
20B
330
1F
100
AcDbEntity
  8
0
  6
Continuous
 62
     7
370
    25
100
AcDbCircle
 10
338.1559653225
 20
67.5636363636
 30
0.0
 40
0.6000000000000085
100
AcDbArc
 50
270.0
 51
90.0
  0
LINE
  5
20C
330
1F
100
AcDbEntity
  8
0
  6
Continuous
 62
     7
370
    25
100
AcDbLine
 10
338.0693877034
 20
110.5636363636
 30
0.0
 11
284.0693877034
 21
110.5636363636
 31
0.0
  0
LINE
  5
20D
330
1F
100
AcDbEntity
  8
0
  6
Continuous
 62
     7
370
    25
100
AcDbLine
 10
338.0693877034
 20
110.5636363636
 30
0.0
 11
338.0693877034
 21
50.5636363636
 31
0.0
  0
LINE
  5
20E
330
1F
100
AcDbEntity
  8
0
  6
Continuous
 62
     7
370
    25
100
AcDbLine
 10
284.0693877034
 20
110.5636363636
 30
0.0
 11
284.0693877034
 21
50.5636363636
 31
0.0
  0
LINE
  5
20F
330
1F
100
AcDbEntity
  8
0
  6
Continuous
 62
     7
370
    25
100
AcDbLine
 10
338.0693877034
 20
50.5636363636
 30
0.0
 11
284.0693877034
 21
50.5636363636
 31
0.0
  0
LINE
  5
210
330
1F
100
AcDbEntity
  8
0
  6
Continuous
 62
     7
370
    25
100
AcDbLine
 10
283.0693877034
 20
50.5636363636
 30
0.0
 11
283.0693877034
 21
67.5636363636
 31
0.0
  0
LINE
  5
211
330
1F
100
AcDbEntity
  8
0
  6
Continuous
 62
     7
370
    25
100
AcDbLine
 10
278.5693877034
 20
50.5636363636
 30
0.0
 11
278.5693877034
 21
67.5636363636
 31
0.0
  0
LINE
  5
212
330
1F
100
AcDbEntity
  8
0
  6
Continuous
 62
     7
370
    25
100
AcDbLine
 10
278.5693877034
 20
67.5636363636
 30
0.0
 11
283.0693877034
 21
67.5636363636
 31
0.0
  0
LINE
  5
213
330
1F
100
AcDbEntity
  8
0
  6
Continuous
 62
     7
370
    25
100
AcDbLine
 10
278.5693877034
 20
50.5636363636
 30
0.0
 11
283.0693877034
 21
50.5636363636
 31
0.0
  0
LINE
  5
214
330
1F
100
AcDbEntity
  8
0
  6
Continuous
 62
     7
370
    25
100
AcDbLine
 10
278.5693877034
 20
110.5636363636
 30
0.0
 11
283.0693877034
 21
110.5636363636
 31
0.0
  0
LINE
  5
215
330
1F
100
AcDbEntity
  8
0
  6
Continuous
 62
     7
370
    25
100
AcDbLine
 10
283.0693877034
 20
93.5636363636
 30
0.0
 11
283.0693877034
 21
110.5636363636
 31
0.0
  0
LINE
  5
216
330
1F
100
AcDbEntity
  8
0
  6
Continuous
 62
     7
370
    25
100
AcDbLine
 10
278.5693877034
 20
93.5636363636
 30
0.0
 11
283.0693877034
 21
93.5636363636
 31
0.0
  0
LINE
  5
217
330
1F
100
AcDbEntity
  8
0
  6
Continuous
 62
     7
370
    25
100
AcDbLine
 10
278.5693877034
 20
93.5636363636
 30
0.0
 11
278.5693877034
 21
110.5636363636
 31
0.0
  0
LINE
  5
218
330
1F
100
AcDbEntity
  8
0
  6
Continuous
 62
     7
370
    25
100
AcDbLine
 10
283.0693877034
 20
54.7636363636
 30
0.0
 11
284.0693877034
 21
54.7636363636
 31
0.0
  0
LINE
  5
219
330
1F
100
AcDbEntity
  8
0
  6
Continuous
 62
     7
370
    25
100
AcDbLine
 10
283.0693877034
 20
106.3636363636
 30
0.0
 11
284.0693877034
 21
106.3636363636
 31
0.0
  0
LINE
  5
21A
330
1F
100
AcDbEntity
  8
0
  6
Continuous
 62
     7
370
    25
100
AcDbLine
 10
278.5693877034
 20
67.5636363636
 30
0.0
 11
278.5693877034
 21
93.5636363636
 31
0.0
  0
LINE
  5
21B
330
1F
100
AcDbEntity
  8
0
  6
PHANTOM
 62
     8
370
    18
100
AcDbLine
 10
343.0759791431
 20
92.9636363636
 30
0.0
 11
343.0759791431
 21
94.1636363636
 31
0.0
  0
LINE
  5
21C
330
1F
100
AcDbEntity
  8
0
  6
Continuous
 62
     7
370
    25
100
AcDbLine
 10
225.6003181661
 20
264.8104458455
 30
0.0
 11
225.6710288442
 21
264.8512662511
 31
0.0
  0
LINE
  5
21D
330
1F
100
AcDbEntity
  8
0
  6
Continuous
 62
     7
370
    25
100
AcDbLine
 10
225.1710694779
 20
265.7173151134
 30
0.0
 11
225.1003587998
 21
265.6764947078
 31
0.0
  0
LINE
  5
21E
330
1F
100
AcDbEntity
  8
0
  6
Continuous
 62
     7
370
    25
100
AcDbLine
 10
225.7741423236
 20
265.1012791232
 30
0.0
 11
225.806486348
 21
265.1709482857
 31
0.0
  0
LINE
  5
21F
330
1F
100
AcDbEntity
  8
0
  6
Continuous
 62
     7
370
    25
100
AcDbLine
 10
225.5156470003
 20
265.6747514008
 30
0.0
 11
225.4391403643
 21
265.6815824146
 31
0.0
  0
SPLINE
  5
220
330
1F
100
AcDbEntity
  8
0
  6
Continuous
 62
     7
370
    25
100
AcDbSpline
210
0.0
220
0.0
230
1.0
 70
     8
 71
     3
 72
     9
 73
     5
 74
     0
 42
0.000000001
 43
0.00000001
 40
0.0
 40
0.0
 40
0.0
 40
0.0
 40
0.768409153417242
 40
1.0
 40
1.0
 40
1.0
 40
1.0
 10
225.5232684819972
 20
265.6795366921252
 30
0.0
 10
225.5181461893736
 20
265.6775135370781
 30
0.0
 10
225.5114800888973
 20
265.6748806233002
 30
0.0
 10
225.5145177581952
 20
265.6747931169637
 30
0.0
 10
225.5152212545996
 20
265.6747728512972
 30
0.0
  0
SPLINE
  5
221
330
1F
100
AcDbEntity
  8
0
  6
Continuous
 62
     7
370
    25
100
AcDbSpline
210
0.0
220
0.0
230
1.0
 70
     8
 71
     3
 72
     9
 73
     5
 74
     0
 42
0.000000001
 43
0.00000001
 40
0.0
 40
0.0
 40
0.0
 40
0.0
 40
0.864655802771304
 40
1.0
 40
1.0
 40
1.0
 40
1.0
 10
225.8054917739344
 20
265.1687503615701
 30
0.0
 10
225.807213882094
 20
265.1709238143736
 30
0.0
 10
225.8092055510959
 20
265.1734374768005
 30
0.0
 10
225.8128496215551
 20
265.1748324721515
 30
0.0
 10
225.813342825346
 20
265.1750212766774
 30
0.0
  0
LINE
  5
222
330
1F
100
AcDbEntity
  8
0
  6
Continuous
 62
     7
370
    25
100
AcDbLine
 10
225.8136732814
 20
265.1755311559
 30
0.0
 11
226.1886842954
 21
265.3920204062
 31
0.0
  0
LINE
  5
223
330
1F
100
AcDbEntity
  8
0
  6
Continuous
 62
     7
370
    25
100
AcDbLine
 10
225.8982207322
 20
265.8951725734
 30
0.0
 11
225.523209718
 21
265.678683323
 31
0.0
  0
LINE
  5
224
330
1F
100
AcDbEntity
  8
0
  6
Continuous
 62
     7
370
    25
100
AcDbLine
 10
198.730260481
 20
280.3221999701
 30
0.0
 11
198.8009711591
 21
280.3630203757
 31
0.0
  0
LINE
  5
225
330
1F
100
AcDbEntity
  8
0
  6
Continuous
 62
     7
370
    25
100
AcDbLine
 10
198.3010117928
 20
281.2290692381
 30
0.0
 11
198.2303011147
 21
281.1882488325
 31
0.0
  0
LINE
  5
226
330
1F
100
AcDbEntity
  8
0
  6
Continuous
 62
     7
370
    25
100
AcDbLine
 10
198.9040846386
 20
280.6130332479
 30
0.0
 11
198.9364286629
 21
280.6827024103
 31
0.0
  0
LINE
  5
227
330
1F
100
AcDbEntity
  8
0
  6
Continuous
 62
     7
370
    25
100
AcDbLine
 10
198.6455893152
 20
281.1865055255
 30
0.0
 11
198.5690826792
 21
281.1933365392
 31
0.0
  0
SPLINE
  5
228
330
1F
100
AcDbEntity
  8
0
  6
Continuous
 62
     7
370
    25
100
AcDbSpline
210
0.0
220
0.0
230
1.0
 70
     8
 71
     3
 72
     9
 73
     5
 74
     0
 42
0.000000001
 43
0.00000001
 40
0.0
 40
0.0
 40
0.0
 40
0.0
 40
0.4862498428574551
 40
1.0
 40
1.0
 40
1.0
 40
1.0
 10
198.9368120001961
 20
280.6826137265846
 30
0.0
 10
198.9365229914279
 20
280.6823444877879
 30
0.0
 10
198.9359286287304
 20
280.6817907831427
 30
0.0
 10
198.9413474354289
 20
280.6849629414172
 30
0.0
 10
198.9441313482218
 20
280.6865926382292
 30
0.0
  0
SPLINE
  5
229
330
1F
100
AcDbEntity
  8
0
  6
Continuous
 62
     7
370
    25
100
AcDbSpline
210
0.0
220
0.0
230
1.0
 70
     8
 71
     3
 72
     9
 73
     5
 74
     0
 42
0.000000001
 43
0.00000001
 40
0.0
 40
0.0
 40
0.0
 40
0.0
 40
0.8054483687330463
 40
1.0
 40
1.0
 40
1.0
 40
1.0
 10
198.6532809667329
 20
281.191270716586
 30
0.0
 10
198.6477603643005
 20
281.1892318198979
 30
0.0
 10
198.6409062906607
 20
281.1867004389093
 30
0.0
 10
198.6442637473444
 20
281.1865297391846
 30
0.0
 10
198.6449169460192
 20
281.1864965292747
 30
0.0
  0
LINE
  5
22A
330
1F
100
AcDbEntity
  8
0
  6
Continuous
 62
     7
370
    25
100
AcDbLine
 10
198.9436155963
 20
280.6872852805
 30
0.0
 11
199.3186266104
 21
280.9037745308
 31
0.0
  0
LINE
  5
22B
330
1F
100
AcDbEntity
  8
0
  6
Continuous
 62
     7
370
    25
100
AcDbLine
 10
199.028163047
 20
281.4069266979
 30
0.0
 11
198.6531520329
 21
281.1904374476
 31
0.0
  0
LINE
  5
22C
330
1F
100
AcDbEntity
  8
0
  6
Continuous
 62
     7
370
    25
100
AcDbLine
 10
220.6919045083
 20
287.7208595269
 30
0.0
 11
220.6909610471
 21
287.691436063
 31
0.0
  0
LINE
  5
22D
330
1F
100
AcDbEntity
  8
0
  6
Continuous
 62
     7
370
    25
100
AcDbLine
 10
239.0766808192
 20
298.3341649806
 30
0.0
 11
239.0757373579
 21
298.3047415167
 31
0.0
  0
SPLINE
  5
22E
330
1F
100
AcDbEntity
  8
0
  6
Continuous
 62
     7
370
    25
100
AcDbSpline
210
0.0
220
0.0
230
1.0
 70
     8
 71
     3
 72
    19
 73
    15
 74
     0
 42
0.000000001
 43
0.00000001
 40
0.0
 40
0.0
 40
0.0
 40
0.0
 40
0.0518601634993079
 40
0.1429120057517646
 40
0.2338499192101509
 40
0.3245069232336772
 40
0.4147821222821738
 40
0.5048319211865588
 40
0.5949309157886394
 40
0.6853442172431968
 40
0.7763692641802843
 40
0.8683417977499767
 40
0.9615110751074876
 40
1.0
 40
1.0
 40
1.0
 40
1.0
 10
247.1635419185092
 20
298.8866183040562
 30
0.0
 10
247.1626584929015
 20
298.9302252696293
 30
0.0
 10
247.1602240207169
 20
299.050393786161
 30
0.0
 10
247.1349078171024
 20
299.2512664431262
 30
0.0
 10
247.0819440696957
 20
299.4874459096054
 30
0.0
 10
247.0053212101228
 20
299.7225079045587
 30
0.0
 10
246.9072685176652
 20
299.952997186685
 30
0.0
 10
246.7894142214338
 20
300.1758253142466
 30
0.0
 10
246.6534538813703
 20
300.3880985215637
 30
0.0
 10
246.5009264544001
 20
300.5869811759433
 30
0.0
 10
246.3332722779334
 20
300.769810309865
 30
0.0
 10
246.1515996570297
 20
300.9333511892083
 30
0.0
 10
245.996221380154
 20
301.0475495505944
 30
0.0
 10
245.9013134147649
 20
301.1043000190791
 30
0.0
 10
245.8735680446388
 20
301.1208904364005
 30
0.0
  0
SPLINE
  5
22F
330
1F
100
AcDbEntity
  8
0
  6
Continuous
 62
     7
370
    25
100
AcDbSpline
210
0.0
220
0.0
230
1.0
 70
     8
 71
     3
 72
    18
 73
    14
 74
     0
 42
0.000000001
 43
0.00000001
 40
0.0
 40
0.0
 40
0.0
 40
0.0
 40
0.0493490732860554
 40
0.1421722525072135
 40
0.2371510247034948
 40
0.3345568901346316
 40
0.4338141569815948
 40
0.5341772756377906
 40
0.6348466303037122
 40
0.7348009251319565
 40
0.8332574757926187
 40
0.9296274911203584
 40
1.0
 40
1.0
 40
1.0
 40
1.0
 10
245.2736168050572
 20
300.0816318015437
 30
0.0
 10
245.2882290611252
 20
300.0728057378791
 30
0.0
 10
245.3303262520362
 20
300.0473782826419
 30
0.0
 10
245.4092478243458
 20
299.9877379009046
 30
0.0
 10
245.5071082668452
 20
299.8964355286191
 30
0.0
 10
245.6056320660543
 20
299.7844025288439
 30
0.0
 10
245.6993474865878
 20
299.655449988978
 30
0.0
 10
245.7835160277364
 20
299.5143922873631
 30
0.0
 10
245.854043018811
 20
299.3674191051844
 30
0.0
 10
245.908097107333
 20
299.2212542592085
 30
0.0
 10
245.9439301746275
 20
299.083715356579
 30
0.0
 10
245.9612517642981
 20
298.9699791227298
 30
0.0
 10
245.9628622319644
 20
298.9113586584569
 30
0.0
 10
245.9635419185092
 20
298.8866183040562
 30
0.0
  0
LINE
  5
230
330
1F
100
AcDbEntity
  8
0
  6
Continuous
 62
     7
370
    25
100
AcDbLine
 10
247.1635419185
 20
294.3367018955
 30
0.0
 11
247.1635419185
 21
298.8866183041
 31
0.0
  0
LINE
  5
231
330
1F
100
AcDbEntity
  8
0
  6
Continuous
 62
     7
370
    25
100
AcDbLine
 10
245.9635419185
 20
298.8866183041
 30
0.0
 11
245.9635419185
 21
294.3367018955
 31
0.0
  0
LINE
  5
232
330
1F
100
AcDbEntity
  8
0
  6
Continuous
 62
     7
370
    25
100
AcDbLine
 10
238.7682344181
 20
303.8371091159
 30
0.0
 11
245.2736168051
 21
300.0816318015
 31
0.0
  0
LINE
  5
233
330
1F
100
AcDbEntity
  8
0
  6
Continuous
 62
     7
370
    25
100
AcDbLine
 10
245.8735680446
 20
301.1208904364
 30
0.0
 11
239.3681856577
 21
304.8763677508
 31
0.0
  0
SPLINE
  5
234
330
1F
100
AcDbEntity
  8
0
  6
Continuous
 62
     7
370
    25
100
AcDbSpline
210
0.0
220
0.0
230
1.0
 70
     8
 71
     3
 72
    22
 73
    18
 74
     0
 42
0.000000001
 43
0.00000001
 40
0.0
 40
0.0
 40
0.0
 40
0.0
 40
0.0462433714881275
 40
0.1289595926908927
 40
0.2014605294156465
 40
0.2712047010033181
 40
0.3385672744587754
 40
0.4042289728485947
 40
0.4748118188524689
 40
0.5434715019313128
 40
0.6110409242135812
 40
0.6783430107782135
 40
0.7464734919003957
 40
0.8164400712347549
 40
0.8890243198419839
 40
0.9645359346469629
 40
1.0
 40
1.0
 40
1.0
 40
1.0
 10
239.3681856577226
 20
304.8763677507851
 30
0.0
 10
239.3298253070568
 20
304.8974649301306
 30
0.0
 10
239.2228492143078
 20
304.9562989547224
 30
0.0
 10
239.0493682371316
 20
305.0257030694545
 30
0.0
 10
238.8505564553519
 20
305.0760356584291
 30
0.0
 10
238.662084467343
 20
305.0957139372601
 30
0.0
 10
238.4795259530325
 20
305.0873555390853
 30
0.0
 10
238.2997292236117
 20
305.0504752539942
 30
0.0
 10
238.1272013350022
 20
304.98345112736
 30
0.0
 10
237.9676089145743
 20
304.8862770359864
 30
0.0
 10
237.8293494772247
 20
304.7653118723174
 30
0.0
 10
237.7132869630156
 20
304.6238359757584
 30
0.0
 10
237.6196428227144
 20
304.4640685071638
 30
0.0
 10
237.5484430909711
 20
304.2870994722409
 30
0.0
 10
237.500621506488
 20
304.0934696364787
 30
0.0
 10
237.4804902674921
 20
303.9238162201459
 30
0.0
 10
237.4788005277961
 20
303.8186685923719
 30
0.0
 10
237.4782605442707
 20
303.7850669749924
 30
0.0
  0
SPLINE
  5
235
330
1F
100
AcDbEntity
  8
0
  6
Continuous
 62
     7
370
    25
100
AcDbSpline
210
0.0
220
0.0
230
1.0
 70
     8
 71
     3
 72
     9
 73
     5
 74
     0
 42
0.000000001
 43
0.00000001
 40
0.0
 40
0.0
 40
0.0
 40
0.0
 40
0.4329951549954018
 40
1.0
 40
1.0
 40
1.0
 40
1.0
 10
238.6782605442707
 20
303.7850669749924
 30
0.0
 10
238.6785460374105
 20
303.8010765423861
 30
0.0
 10
238.6792053822938
 20
303.8380505528546
 30
0.0
 10
238.6836043081706
 20
303.8621370953583
 30
0.0
 10
238.6860985204555
 20
303.8757942816572
 30
0.0
  0
SPLINE
  5
236
330
1F
100
AcDbEntity
  8
0
  6
Continuous
 62
     7
370
    25
100
AcDbSpline
210
0.0
220
0.0
230
1.0
 70
     8
 71
     3
 72
    11
 73
     7
 74
     0
 42
0.000000001
 43
0.00000001
 40
0.0
 40
0.0
 40
0.0
 40
0.0
 40
0.1212054704909437
 40
0.4122060879478314
 40
0.7125782139591096
 40
1.0
 40
1.0
 40
1.0
 40
1.0
 10
238.6284763400874
 20
303.8917948352927
 30
0.0
 10
238.6276634818624
 20
303.8917452232927
 30
0.0
 10
238.6248990430328
 20
303.8915764984953
 30
0.0
 10
238.647180229247
 20
303.8896775285827
 30
0.0
 10
238.6949497346853
 20
303.8755924885782
 30
0.0
 10
238.7441676484816
 20
303.8497470973127
 30
0.0
 10
238.768234418141
 20
303.8371091159282
 30
0.0
  0
LINE
  5
237
330
1F
100
AcDbEntity
  8
0
  6
Continuous
 62
     7
370
    25
100
AcDbLine
 10
238.6782605443
 20
298.534199997
 30
0.0
 11
238.6782605443
 21
303.785066975
 31
0.0
  0
LINE
  5
238
330
1F
100
AcDbEntity
  8
0
  6
Continuous
 62
     7
370
    25
100
AcDbLine
 10
237.4782605443
 20
303.785066975
 30
0.0
 11
237.4782605443
 21
299.2269452515
 31
0.0
  0
SPLINE
  5
239
330
1F
100
AcDbEntity
  8
0
  6
Continuous
 62
     7
370
    25
100
AcDbSpline
210
0.0
220
0.0
230
1.0
 70
     8
 71
     3
 72
    17
 73
    13
 74
     0
 42
0.000000001
 43
0.00000001
 40
0.0
 40
0.0
 40
0.0
 40
0.0
 40
0.0055759292120754
 40
0.1232441371088521
 40
0.2404167814508687
 40
0.3572968678013329
 40
0.47424080768023
 40
0.5915927019633012
 40
0.7097386109548172
 40
0.8291143096935865
 40
0.9500433213654372
 40
1.0
 40
1.0
 40
1.0
 40
1.0
 10
228.6956322911622
 20
283.7026151336919
 30
0.0
 10
228.6948041715623
 20
283.7063300965126
 30
0.0
 10
228.6765003370571
 20
283.7884415024889
 30
0.0
 10
228.6188694919949
 20
283.94868063933
 30
0.0
 10
228.5229390717595
 20
284.1791352074323
 30
0.0
 10
228.404518243232
 20
284.4019726017673
 30
0.0
 10
228.2687097594623
 20
284.6142433251698
 30
0.0
 10
228.1161414429835
 20
284.8131266483794
 30
0.0
 10
227.9484983351022
 20
284.9959556012521
 30
0.0
 10
227.7668226845558
 20
285.1594965301514
 30
0.0
 10
227.6114451285177
 20
285.2736948797467
 30
0.0
 10
227.5165371173094
 20
285.3304453489808
 30
0.0
 10
227.4887917337885
 20
285.3470357665214
 30
0.0
  0
SPLINE
  5
23A
330
1F
100
AcDbEntity
  8
0
  6
Continuous
 62
     7
370
    25
100
AcDbSpline
210
0.0
220
0.0
230
1.0
 70
     8
 71
     3
 72
    13
 73
     9
 74
     0
 42
0.000000001
 43
0.00000001
 40
0.0
 40
0.0
 40
0.0
 40
0.0
 40
0.1105893865104918
 40
0.3186025823109093
 40
0.5314463795555207
 40
0.7497291999463322
 40
0.9721609401268639
 40
1.0
 40
1.0
 40
1.0
 40
1.0
 10
226.8888404942069
 20
284.3077771316646
 30
0.0
 10
226.9034542216706
 20
284.2989521754083
 30
0.0
 10
226.9455556516001
 20
284.27352791056
 30
0.0
 10
227.024423181967
 20
284.2138468555361
 30
0.0
 10
227.1225160325046
 20
284.1227193992191
 30
0.0
 10
227.2201448889949
 20
284.0100128436857
 30
0.0
 10
227.2885286506552
 20
283.9210564431912
 30
0.0
 10
227.3194277707016
 20
283.8687390499163
 30
0.0
 10
227.3228648574605
 20
283.8629194854946
 30
0.0
  0
LINE
  5
23B
330
1F
100
AcDbEntity
  8
0
  6
Continuous
 62
     7
370
    25
100
AcDbLine
 10
220.3834581073
 20
288.063254446
 30
0.0
 11
226.8888404942
 21
284.3077771317
 31
0.0
  0
LINE
  5
23C
330
1F
100
AcDbEntity
  8
0
  6
Continuous
 62
     7
370
    25
100
AcDbLine
 10
227.4887917338
 20
285.3470357665
 30
0.0
 11
220.9834093469
 21
289.1025130809
 31
0.0
  0
SPLINE
  5
23D
330
1F
100
AcDbEntity
  8
0
  6
Continuous
 62
     7
370
    25
100
AcDbSpline
210
0.0
220
0.0
230
1.0
 70
     8
 71
     3
 72
    19
 73
    15
 74
     0
 42
0.000000001
 43
0.00000001
 40
0.0
 40
0.0
 40
0.0
 40
0.0
 40
0.0579334941775577
 40
0.1615600154546733
 40
0.2523888728767452
 40
0.3397640669546757
 40
0.4241556052764224
 40
0.506416294731814
 40
0.5948421764617123
 40
0.6808587280641926
 40
0.7655094056942996
 40
0.8498251663029455
 40
0.9351787360014596
 40
1.0
 40
1.0
 40
1.0
 40
1.0
 10
220.9834093468723
 20
289.1025130809059
 30
0.0
 10
220.9450489956027
 20
289.1236102605214
 30
0.0
 10
220.8380729011699
 20
289.1824442858658
 30
0.0
 10
220.6645919433704
 20
289.2518483919365
 30
0.0
 10
220.4657800909995
 20
289.3021810124652
 30
0.0
 10
220.2773083456023
 20
289.3218591828494
 30
0.0
 10
220.0947489694035
 20
289.3135011699366
 30
0.0
 10
219.9149554333588
 20
289.2766194574139
 30
0.0
 10
219.7424149371428
 20
289.2096009663504
 30
0.0
 10
219.5828687814936
 20
289.1124061947287
 30
0.0
 10
219.4444406564403
 20
288.9915164340693
 30
0.0
 10
219.3290058583925
 20
288.8497599498524
 30
0.0
 10
219.241492584094
 20
288.70514250724
 30
0.0
 10
219.2035213516024
 20
288.603465925324
 30
0.0
 10
219.1871314996872
 20
288.5595783817417
 30
0.0
  0
SPLINE
  5
23E
330
1F
100
AcDbEntity
  8
0
  6
Continuous
 62
     7
370
    25
100
AcDbSpline
210
0.0
220
0.0
230
1.0
 70
     8
 71
     3
 72
     9
 73
     5
 74
     0
 42
0.000000001
 43
0.00000001
 40
0.0
 40
0.0
 40
0.0
 40
0.0
 40
0.4329951549954013
 40
1.0
 40
1.0
 40
1.0
 40
1.0
 10
220.2934842334203
 20
288.0112123051133
 30
0.0
 10
220.2937697265602
 20
288.0272218725069
 30
0.0
 10
220.2944290714435
 20
288.0641958829754
 30
0.0
 10
220.2988279973202
 20
288.0882824254791
 30
0.0
 10
220.3013222096052
 20
288.1019396117781
 30
0.0
  0
SPLINE
  5
23F
330
1F
100
AcDbEntity
  8
0
  6
Continuous
 62
     7
370
    25
100
AcDbSpline
210
0.0
220
0.0
230
1.0
 70
     8
 71
     3
 72
    11
 73
     7
 74
     0
 42
0.000000001
 43
0.00000001
 40
0.0
 40
0.0
 40
0.0
 40
0.0
 40
0.1212054704909445
 40
0.4122060879478314
 40
0.7125782139591107
 40
1.0
 40
1.0
 40
1.0
 40
1.0
 10
220.243700029237
 20
288.1179401654136
 30
0.0
 10
220.242887171012
 20
288.1178905534135
 30
0.0
 10
220.2401227321825
 20
288.1177218286161
 30
0.0
 10
220.2624039183967
 20
288.1158228587035
 30
0.0
 10
220.310173423835
 20
288.1017378186991
 30
0.0
 10
220.3593913376313
 20
288.0758924274336
 30
0.0
 10
220.3834581072907
 20
288.063254446049
 30
0.0
  0
LINE
  5
240
330
1F
100
AcDbEntity
  8
0
  6
Continuous
 62
     7
370
    25
100
AcDbLine
 10
220.2934842334
 20
287.9208945433
 30
0.0
 11
220.2934842334
 21
288.0112123051
 31
0.0
  0
LINE
  5
241
330
1F
100
AcDbEntity
  8
0
  6
Continuous
 62
     7
370
    25
100
AcDbLine
 10
225.4550862708
 20
266.8075827592
 30
0.0
 11
225.3829257635
 21
266.8561186027
 31
0.0
  0
LINE
  5
242
330
1F
100
AcDbEntity
  8
0
  6
Continuous
 62
     7
370
    25
100
AcDbLine
 10
198.5850285867
 20
282.3193368832
 30
0.0
 11
198.5128680761
 21
282.367872729
 31
0.0
  0
LWPOLYLINE
  5
243
330
1F
100
AcDbEntity
  8
0
  6
Continuous
 62
     7
370
    25
100
AcDbPolyline
 90
       24
 70
   128
 43
0.0
 10
225.4857667585
 20
265.5424200116
 10
225.5688568757
 20
265.4382752118
 10
225.6357404833
 20
265.3196826211
 10
225.6814571303
 20
265.1954377095
 10
225.7026162219
 20
265.0747551537
 10
225.6976484852
 20
264.9665854267
 10
225.6669223544
 20
264.8789509824
 10
225.6127166462
 20
264.8183512666
 10
225.5390515499
 20
264.7892806829
 10
225.4513904687
 20
264.7938952637
 10
225.356234824
 20
264.8318527665
 10
225.2606418747
 20
264.900338057
 10
225.1717013125
 20
264.9942718945
 10
225.096009452
 20
265.106687636
 10
225.0391800122
 20
265.2292479202
 10
225.0054277728
 20
265.3528630115
 10
224.9972559829
 20
265.4683649442
 10
225.0152707067
 20
265.5671874682
 10
225.0581358747
 20
265.6420013689
 10
225.1226723734
 20
265.6872580418
 10
225.2040938259
 20
265.6996010062
 10
225.2963615756
 20
265.6781148412
 10
225.3926325456
 20
265.6243930771
 10
225.4857667585
 20
265.5424200116
  0
LWPOLYLINE
  5
244
330
1F
100
AcDbEntity
  8
0
  6
Continuous
 62
     7
370
    25
100
AcDbPolyline
 90
        9
 70
   128
 43
0.0
 10
225.5564774366
 20
265.5832404172
 10
225.6395675538
 20
265.4790956174
 10
225.7064511615
 20
265.3605030267
 10
225.7521678084
 20
265.2362581151
 10
225.7733269
 20
265.1155755593
 10
225.7683591633
 20
265.0074058323
 10
225.7376330325
 20
264.919771388
 10
225.6834273243
 20
264.8591716722
 10
225.6710288442
 20
264.8512662511
  0
ARC
  5
245
330
1F
100
AcDbEntity
  8
0
  6
Continuous
 62
     7
370
    25
100
AcDbCircle
 10
225.2758123614
 20
265.3974268744
 30
0.0
 40
0.3365999957440359
100
AcDbArc
 50
33.5064416673
 51
108.1303028547
  0
LWPOLYLINE
  5
246
330
1F
100
AcDbEntity
  8
0
  6
Continuous
 62
     7
370
    25
100
AcDbPolyline
 90
       24
 70
   128
 43
0.0
 10
198.6157090734
 20
280.2999125077
 10
198.5225748605
 20
280.3254699154
 10
198.4263038905
 20
280.3829002474
 10
198.3340361408
 20
280.4679441586
 10
198.2526146883
 20
280.5742943312
 10
198.1880781896
 20
280.6940632594
 10
198.1452130216
 20
280.8183682296
 10
198.1271982978
 20
280.937990111
 10
198.1353700877
 20
281.0440570958
 10
198.1691223271
 20
281.128702681
 10
198.2259517669
 20
281.1856490907
 10
198.3016436274
 20
281.2106728703
 10
198.3905841896
 20
281.2019181204
 10
198.486177139
 20
281.1600341409
 10
198.5813327836
 20
281.0881272749
 10
198.6689938648
 20
280.9915305257
 10
198.7426589611
 20
280.8774080322
 10
198.7968646693
 20
280.7542237378
 10
198.8275908001
 20
280.6311136581
 10
198.8325585368
 20
280.5172083044
 10
198.8113994452
 20
280.4209555157
 10
198.7656827983
 20
280.3494939211
 10
198.6987991906
 20
280.3081235002
 10
198.6157090734
 20
280.2999125077
  0
LWPOLYLINE
  5
247
330
1F
100
AcDbEntity
  8
0
  6
Continuous
 62
     7
370
    25
100
AcDbPolyline
 90
       13
 70
   128
 43
0.0
 10
198.3010117928
 20
281.2290692381
 10
198.3723543055
 20
281.2514932759
 10
198.4612948678
 20
281.242738526
 10
198.5568878171
 20
281.2008545465
 10
198.6520434617
 20
281.1289476805
 10
198.7397045429
 20
281.0323509313
 10
198.8133696392
 20
280.9182284378
 10
198.8675753474
 20
280.7950441434
 10
198.8983014782
 20
280.6719340637
 10
198.9032692149
 20
280.55802871
 10
198.8821101233
 20
280.4617759213
 10
198.8363934764
 20
280.3903143267
 10
198.8009711591
 20
280.3630203757
  0
LINE
  5
248
330
1F
100
AcDbEntity
  8
0
  6
Continuous
 62
     7
370
    25
100
AcDbLine
 10
233.128513076
 20
271.2601552306
 30
0.0
 11
233.128513076
 21
271.0410560111
 31
0.0
  0
LINE
  5
249
330
1F
100
AcDbEntity
  8
0
  6
Continuous
 62
     7
370
    25
100
AcDbLine
 10
268.5061818231
 20
291.6832486806
 30
0.0
 11
233.128513076
 21
271.2601552306
 31
0.0
  0
LINE
  5
24A
330
1F
100
AcDbEntity
  8
0
  6
Continuous
 62
     7
370
    25
100
AcDbLine
 10
268.5242519831
 20
291.4745811424
 30
0.0
 11
268.5061818231
 21
291.6832486806
 31
0.0
  0
LINE
  5
24B
330
1F
100
AcDbEntity
  8
0
  6
Continuous
 62
     7
370
    25
100
AcDbLine
 10
233.128513076
 20
271.2601552306
 30
0.0
 11
197.7508443288
 21
291.6832486806
 31
0.0
  0
LINE
  5
24C
330
1F
100
AcDbEntity
  8
0
  6
Continuous
 62
     7
370
    25
100
AcDbLine
 10
197.7327741688
 20
291.4745811424
 30
0.0
 11
197.7508443288
 21
291.6832486806
 31
0.0
  0
LINE
  5
24D
330
1F
100
AcDbEntity
  8
0
  6
Continuous
 62
     7
370
    25
100
AcDbLine
 10
198.1974380853
 20
291.9411036738
 30
0.0
 11
233.128513076
 21
271.7758233118
 31
0.0
  0
LINE
  5
24E
330
1F
100
AcDbEntity
  8
0
  6
Continuous
 62
     7
370
    25
100
AcDbLine
 10
233.128513076
 20
271.2601552306
 30
0.0
 11
233.128513076
 21
271.7758233118
 31
0.0
  0
LINE
  5
24F
330
1F
100
AcDbEntity
  8
0
  6
Continuous
 62
     7
370
    25
100
AcDbLine
 10
198.1974380853
 20
291.9411036738
 30
0.0
 11
197.7508443288
 21
291.6832486806
 31
0.0
  0
LINE
  5
250
330
1F
100
AcDbEntity
  8
0
  6
Continuous
 62
     7
370
    25
100
AcDbLine
 10
233.128513076
 20
271.7758233118
 30
0.0
 11
268.0595880666
 21
291.9411036738
 31
0.0
  0
LINE
  5
251
330
1F
100
AcDbEntity
  8
0
  6
Continuous
 62
     7
370
    25
100
AcDbLine
 10
268.5061818231
 20
291.6832486806
 30
0.0
 11
268.0595880666
 21
291.9411036738
 31
0.0
  0
ELLIPSE
  5
252
330
1F
100
AcDbEntity
  8
0
  6
Continuous
 62
     7
370
    25
100
AcDbEllipse
 10
242.3209012314
 20
297.2477564006
 30
0.0
 11
2.751362417692349
 21
0.4195921460243425
 31
0.0
210
0.0
220
0.0
230
1.0
 40
0.5589502158
 41
2.520335264445678
 42
4.982254099127299
  0
LINE
  5
253
330
1F
100
AcDbEntity
  8
0
  6
Continuous
 62
     7
370
    25
100
AcDbLine
 10
243.2804611169
 20
295.8774061579
 30
0.0
 11
245.8564351373
 21
294.3903280092
 31
0.0
  0
LWPOLYLINE
  5
254
330
1F
100
AcDbEntity
  8
0
  6
Continuous
 62
     7
370
    25
100
AcDbPolyline
 90
       17
 70
   128
 43
0.0
 10
247.2706486997
 20
295.2067361211
 10
247.3950115308
 20
295.1192559339
 10
247.487421451
 20
295.0194505083
 10
247.5443271989
 20
294.9111553108
 10
247.5635419185
 20
294.7985320652
 10
247.5443271989
 20
294.6859088195
 10
247.487421451
 20
294.577613622
 10
247.3950115308
 20
294.4778081964
 10
247.2706486997
 20
294.3903280092
 10
247.1191121515
 20
294.318534875
 10
246.9462253509
 20
294.2651877636
 10
246.7586322405
 20
294.2323367746
 10
246.5635419185
 20
294.2212443531
 10
246.3684515965
 20
294.2323367746
 10
246.1808584861
 20
294.2651877636
 10
246.0079716855
 20
294.318534875
 10
245.8564351373
 20
294.3903280092
  0
LINE
  5
255
330
1F
100
AcDbEntity
  8
0
  6
Continuous
 62
     7
370
    25
100
AcDbLine
 10
247.2706486997
 20
295.2067361211
 30
0.0
 11
247.1635419185
 21
295.2685675497
 31
0.0
  0
LINE
  5
256
330
1F
100
AcDbEntity
  8
0
  6
Continuous
 62
     7
370
    25
100
AcDbLine
 10
245.9635419185
 20
295.9613128042
 30
0.0
 11
244.6946746792
 21
296.6938142697
 31
0.0
  0
ELLIPSE
  5
257
330
1F
100
AcDbEntity
  8
0
  6
Continuous
 62
     7
370
    25
100
AcDbEllipse
 10
242.3209012314
 20
297.2477564006
 30
0.0
 11
2.751362417692349
 21
0.4195921460243425
 31
0.0
210
0.0
220
0.0
230
1.0
 40
0.5589502158
 41
5.661927918035556
 42
8.123846752717059
  0
LINE
  5
258
330
1F
100
AcDbEntity
  8
0
  6
Continuous
 62
     7
370
    25
100
AcDbLine
 10
241.3613413459
 20
298.6181066433
 30
0.0
 11
238.7853673255
 21
300.105184792
 31
0.0
  0
LWPOLYLINE
  5
259
330
1F
100
AcDbEntity
  8
0
  6
Continuous
 62
     7
370
    25
100
AcDbPolyline
 90
       10
 70
   128
 43
0.0
 10
237.3711537631
 20
299.2887766802
 10
237.246790932
 20
299.3762568674
 10
237.1543810118
 20
299.476062293
 10
237.0974752639
 20
299.5843574904
 10
237.0782605443
 20
299.6969807361
 10
237.0974752639
 20
299.8096039817
 10
237.1543810118
 20
299.9178991792
 10
237.246790932
 20
300.0177046048
 10
237.3711537631
 20
300.105184792
 10
237.4782605443
 20
300.1588109058
  0
LINE
  5
25A
330
1F
100
AcDbEntity
  8
0
  6
Continuous
 62
     7
370
    25
100
AcDbLine
 10
238.6782605443
 20
300.1588109058
 30
0.0
 11
238.7853673255
 21
300.105184792
 31
0.0
  0
LINE
  5
25B
330
1F
100
AcDbEntity
  8
0
  6
Continuous
 62
     7
370
    25
100
AcDbLine
 10
237.3711537631
 20
299.2887766802
 30
0.0
 11
239.9471277835
 21
297.8016985315
 31
0.0
  0
LINE
  5
25C
330
1F
100
AcDbEntity
  8
0
  6
Continuous
 62
     7
370
    25
100
AcDbLine
 10
268.0595880666
 20
291.9411036738
 30
0.0
 11
233.128513076
 21
312.1063840358
 31
0.0
  0
LINE
  5
25D
330
1F
100
AcDbEntity
  8
0
  6
Continuous
 62
     7
370
    25
100
AcDbLine
 10
233.128513076
 20
312.1063840358
 30
0.0
 11
198.1974380853
 21
291.9411036738
 31
0.0
  0
LINE
  5
25E
330
1F
100
AcDbEntity
  8
0
  6
Continuous
 62
     7
370
    25
100
AcDbLine
 10
226.3098983684
 20
286.080508816
 30
0.0
 11
228.8858723888
 21
284.5934306674
 31
0.0
  0
ELLIPSE
  5
25F
330
1F
100
AcDbEntity
  8
0
  6
Continuous
 62
     7
370
    25
100
AcDbEllipse
 10
223.9361249205
 20
286.6344509469
 30
0.0
 11
2.751362417692349
 21
0.4195921460243425
 31
0.0
210
0.0
220
0.0
230
1.0
 40
0.5589502158
 41
5.661927918035592
 42
8.123846752717093
  0
LINE
  5
260
330
1F
100
AcDbEntity
  8
0
  6
Continuous
 62
     7
370
    25
100
AcDbLine
 10
220.4005910146
 20
289.4918793383
 30
0.0
 11
222.9765650351
 21
288.0048011897
 31
0.0
  0
LWPOLYLINE
  5
261
330
1F
100
AcDbEntity
  8
0
  6
Continuous
 62
     7
370
    25
100
AcDbPolyline
 90
       17
 70
   128
 43
0.0
 10
220.4005910146
 20
289.4918793383
 10
220.2490544664
 20
289.5636724726
 10
220.0761676658
 20
289.617019584
 10
219.8885745554
 20
289.649870573
 10
219.6934842334
 20
289.6609629945
 10
219.4983939114
 20
289.649870573
 10
219.3108008011
 20
289.617019584
 10
219.1379140004
 20
289.5636724726
 10
218.9863774522
 20
289.4918793383
 10
218.8620146211
 20
289.4043991511
 10
218.7696047009
 20
289.3045937255
 10
218.712698953
 20
289.196298528
 10
218.6934842334
 20
289.0836752824
 10
218.712698953
 20
288.9710520368
 10
218.7696047009
 20
288.8627568393
 10
218.8620146211
 20
288.7629514137
 10
218.9863774522
 20
288.6754712265
  0
LINE
  5
262
330
1F
100
AcDbEntity
  8
0
  6
Continuous
 62
     7
370
    25
100
AcDbLine
 10
221.5623514727
 20
287.1883930778
 30
0.0
 11
218.9863774522
 21
288.6754712265
 31
0.0
  0
ELLIPSE
  5
263
330
1F
100
AcDbEntity
  8
0
  6
Continuous
 62
     7
370
    25
100
AcDbEllipse
 10
223.9361249205
 20
286.6344509469
 30
0.0
 11
2.751362417692349
 21
0.4195921460243425
 31
0.0
210
0.0
220
0.0
230
1.0
 40
0.5589502158
 41
2.520335264445718
 42
4.982254099127319
  0
LINE
  5
264
330
1F
100
AcDbEntity
  8
0
  6
Continuous
 62
     7
370
    25
100
AcDbLine
 10
227.4716588265
 20
283.7770225556
 30
0.0
 11
224.895684806
 21
285.2641007042
 31
0.0
  0
LWPOLYLINE
  5
265
330
1F
100
AcDbEntity
  8
0
  6
Continuous
 62
     7
370
    25
100
AcDbPolyline
 90
       17
 70
   128
 43
0.0
 10
227.4716588265
 20
283.7770225556
 10
227.6231953746
 20
283.7052294213
 10
227.7960821753
 20
283.6518823099
 10
227.9836752856
 20
283.6190313209
 10
228.1787656077
 20
283.6079388994
 10
228.3738559297
 20
283.6190313209
 10
228.56144904
 20
283.6518823099
 10
228.7343358407
 20
283.7052294213
 10
228.8858723888
 20
283.7770225556
 10
229.01023522
 20
283.8645027427
 10
229.1026451402
 20
283.9643081683
 10
229.1595508881
 20
284.0726033658
 10
229.1787656077
 20
284.1852266115
 10
229.1595508881
 20
284.2978498571
 10
229.1026451402
 20
284.4061450546
 10
229.01023522
 20
284.5059504802
 10
228.8858723888
 20
284.5934306674
  0
SPLINE
  5
266
330
1F
100
AcDbEntity
  8
0
  6
Continuous
 62
     7
370
    25
100
AcDbSpline
210
0.0
220
0.0
230
1.0
 70
     8
 71
     3
 72
     9
 73
     5
 74
     0
 42
0.000000001
 43
0.00000001
 40
0.0
 40
0.0
 40
0.0
 40
0.0
 40
0.4392233923832352
 40
0.9999999999999999
 40
0.9999999999999999
 40
0.9999999999999999
 40
0.9999999999999999
 10
225.9265152025113
 20
284.6690149830717
 30
0.0
 10
225.9442185389651
 20
284.6846208712374
 30
0.0
 10
225.9845245353234
 20
284.7201515110812
 30
0.0
 10
226.0121552618215
 20
284.7744708495719
 30
0.0
 10
226.0276499268931
 20
284.8049318639387
 30
0.0
  0
LINE
  5
267
330
1F
100
AcDbEntity
  8
0
  6
Continuous
 62
     7
370
    25
100
AcDbLine
 10
222.9765650351
 20
288.0048011897
 30
0.0
 11
222.9765650351
 21
287.9518887938
 31
0.0
  0
LINE
  5
268
330
1F
100
AcDbEntity
  8
0
  6
Continuous
 62
     7
370
    25
100
AcDbLine
 10
226.3098983684
 20
286.0275964202
 30
0.0
 11
226.3098983684
 21
286.080508816
 31
0.0
  0
LINE
  5
269
330
1F
100
AcDbEntity
  8
0
  6
Continuous
 62
     7
370
    25
100
AcDbLine
 10
221.5623514727
 20
286.8617767531
 30
0.0
 11
221.5623514727
 21
287.1883930778
 31
0.0
  0
SPLINE
  5
26A
330
1F
100
AcDbEntity
  8
0
  6
Continuous
 62
     7
370
    25
100
AcDbSpline
210
0.0
220
0.0
230
1.0
 70
     8
 71
     3
 72
    14
 73
    10
 74
     0
 42
0.000000001
 43
0.00000001
 40
0.0
 40
0.0
 40
0.0
 40
0.0
 40
0.1367177042793348
 40
0.2958695908990531
 40
0.4507325289640671
 40
0.6072410138987123
 40
0.7689530332709715
 40
0.9318742873226994
 40
0.9999999999999999
 40
0.9999999999999999
 40
0.9999999999999999
 40
0.9999999999999999
 10
222.5454649963998
 20
286.815154435522
 30
0.0
 10
222.4774814723894
 20
286.7491652011394
 30
0.0
 10
222.3303589212694
 20
286.6063584748018
 30
0.0
 10
222.0971653252022
 20
286.4636782023862
 30
0.0
 10
221.8866799601721
 20
286.3914749815992
 30
0.0
 10
221.7220603808123
 20
286.4105733088239
 30
0.0
 10
221.6117566945852
 20
286.5262198568204
 30
0.0
 10
221.5668879419997
 20
286.6959370879076
 30
0.0
 10
221.5633844888215
 20
286.8240127921339
 30
0.0
 10
221.5623514726864
 20
286.8617767530747
 30
0.0
  0
SPLINE
  5
26B
330
1F
100
AcDbEntity
  8
0
  6
Continuous
 62
     7
370
    25
100
AcDbSpline
210
0.0
220
0.0
230
1.0
 70
     8
 71
     3
 72
    12
 73
     8
 74
     0
 42
0.000000001
 43
0.00000001
 40
0.0
 40
0.0
 40
0.0
 40
0.0
 40
0.2113731346349617
 40
0.465501032027114
 40
0.7167049765078822
 40
0.9624146320145229
 40
1.0
 40
1.0
 40
1.0
 40
1.0
 10
221.8523878061018
 20
285.398583751526
 30
0.0
 10
221.953969791964
 20
285.472223987162
 30
0.0
 10
222.177680905185
 20
285.6343997799677
 30
0.0
 10
222.60593003952
 20
285.8400699371338
 30
0.0
 10
223.1046307471053
 20
286.0085867694984
 30
0.0
 10
223.486634887999
 20
286.1064048513504
 30
0.0
 10
223.7016567523687
 20
286.128322721791
 30
0.0
 10
223.7301841715857
 20
286.1312306134151
 30
0.0
  0
SPLINE
  5
26C
330
1F
100
AcDbEntity
  8
0
  6
Continuous
 62
     7
370
    25
100
AcDbSpline
210
0.0
220
0.0
230
1.0
 70
     8
 71
     3
 72
    13
 73
     9
 74
     0
 42
0.000000001
 43
0.00000001
 40
0.0
 40
0.0
 40
0.0
 40
0.0
 40
0.171721404462155
 40
0.3614423459984977
 40
0.551635939223741
 40
0.7413453742959095
 40
0.931071340877267
 40
1.0
 40
1.0
 40
1.0
 40
1.0
 10
224.8976131205887
 20
285.4572882264227
 30
0.0
 10
224.7659874604787
 20
285.4714098060264
 30
0.0
 10
224.488939368933
 20
285.5011331644928
 30
0.0
 10
224.0576236913457
 20
285.4789575204252
 30
0.0
 10
223.6272639785048
 20
285.4157590139422
 30
0.0
 10
223.223491294836
 20
285.3097354222028
 30
0.0
 10
222.9230138215324
 20
285.2051931452054
 30
0.0
 10
222.7733354185475
 20
285.1277084900944
 30
0.0
 10
222.7334477436633
 20
285.1070596678866
 30
0.0
  0
SPLINE
  5
26D
330
1F
100
AcDbEntity
  8
0
  6
Continuous
 62
     7
370
    25
100
AcDbSpline
210
0.0
220
0.0
230
1.0
 70
     8
 71
     3
 72
    12
 73
     8
 74
     0
 42
0.000000001
 43
0.00000001
 40
0.0
 40
0.0
 40
0.0
 40
0.0
 40
0.0649865132042965
 40
0.3314096165711479
 40
0.606690653703854
 40
0.8840301610603156
 40
1.0
 40
1.0
 40
1.0
 40
1.0
 10
244.3112915133616
 20
295.2823204367668
 30
0.0
 10
244.328486970711
 20
295.2986093172603
 30
0.0
 10
244.4161780876205
 20
295.3816771935402
 30
0.0
 10
244.5328306281494
 20
295.6087606008168
 30
0.0
 10
244.6458678178495
 20
295.9264469522149
 30
0.0
 10
244.6900840320028
 20
296.1918606682702
 30
0.0
 10
244.6936293260527
 20
296.3272712479306
 30
0.0
 10
244.6946746792431
 20
296.3671979449741
 30
0.0
  0
LINE
  5
26E
330
1F
100
AcDbEntity
  8
0
  6
Continuous
 62
     7
370
    25
100
AcDbLine
 10
241.3613413459
 20
298.6181066433
 30
0.0
 11
241.3613413459
 21
298.2914903186
 31
0.0
  0
LINE
  5
26F
330
1F
100
AcDbEntity
  8
0
  6
Continuous
 62
     7
370
    25
100
AcDbLine
 10
244.6946746792
 20
296.367197945
 30
0.0
 11
244.6946746792
 21
296.6938142697
 31
0.0
  0
LINE
  5
270
330
1F
100
AcDbEntity
  8
0
  6
Continuous
 62
     7
370
    25
100
AcDbLine
 10
239.9471277835
 20
297.4750822068
 30
0.0
 11
239.9471277835
 21
297.8016985315
 31
0.0
  0
SPLINE
  5
271
330
1F
100
AcDbEntity
  8
0
  6
Continuous
 62
     7
370
    25
100
AcDbSpline
210
0.0
220
0.0
230
1.0
 70
     8
 71
     3
 72
    17
 73
    13
 74
     0
 42
0.000000001
 43
0.00000001
 40
0.0
 40
0.0
 40
0.0
 40
0.0
 40
0.1044470981075533
 40
0.2087902129766534
 40
0.3157956877549842
 40
0.4246331632758952
 40
0.5307059021898981
 40
0.6339201106150653
 40
0.7382310554169108
 40
0.8460100907425587
 40
0.9545950658353397
 40
1.0
 40
1.0
 40
1.0
 40
1.0
 10
241.3613413459098
 20
298.2914903185926
 30
0.0
 10
241.3515641677577
 20
298.1987056486212
 30
0.0
 10
241.3320195452101
 20
298.0132286812826
 30
0.0
 10
241.1842699473539
 20
297.7238218497451
 30
0.0
 10
240.9752015697186
 20
297.4560446154011
 30
0.0
 10
240.727047874469
 20
297.2313263709802
 30
0.0
 10
240.4824145120566
 20
297.0761490796127
 30
0.0
 10
240.2713296703341
 20
297.005003872209
 30
0.0
 10
240.1068720776394
 20
297.0238163099876
 30
0.0
 10
239.9965230887362
 20
297.1395428124482
 30
0.0
 10
239.9516651507472
 20
297.3092409569085
 30
0.0
 10
239.9481610041353
 20
297.4373178849725
 30
0.0
 10
239.9471277835367
 20
297.4750822067699
 30
0.0
  0
SPLINE
  5
272
330
1F
100
AcDbEntity
  8
0
  6
Continuous
 62
     7
370
    25
100
AcDbSpline
210
0.0
220
0.0
230
1.0
 70
     8
 71
     3
 72
    17
 73
    13
 74
     0
 42
0.000000001
 43
0.00000001
 40
0.0
 40
0.0
 40
0.0
 40
0.0
 40
0.0930408510720529
 40
0.2058461130575825
 40
0.3173534566422331
 40
0.4264219310058697
 40
0.5322191865052285
 40
0.6343576963998312
 40
0.7329954294165375
 40
0.8288674628850157
 40
0.9232089031064921
 40
1.0
 40
1.0
 40
1.0
 40
1.0
 10
240.2398107971916
 20
296.0136903348731
 30
0.0
 10
240.3405357642249
 20
296.0867662136749
 30
0.0
 10
240.5633824247267
 20
296.2484412782974
 30
0.0
 10
240.9910770667892
 20
296.452391738509
 30
0.0
 10
241.4881159473728
 20
296.6254455495024
 30
0.0
 10
242.0195175435763
 20
296.7436798755825
 30
0.0
 10
242.5628931757918
 20
296.8036711976378
 30
0.0
 10
243.0982800260299
 20
296.802355050712
 30
0.0
 10
243.6060704898196
 20
296.7397487957311
 30
0.0
 10
244.062666005335
 20
296.6162232631643
 30
0.0
 10
244.43776794395
 20
296.4523594620073
 30
0.0
 10
244.61170941476
 20
296.3125461673951
 30
0.0
 10
244.6897609446674
 20
296.2498087333889
 30
0.0
  0
SPLINE
  5
273
330
1F
100
AcDbEntity
  8
0
  6
Continuous
 62
     7
370
    25
100
AcDbSpline
210
0.0
220
0.0
230
1.0
 70
     8
 71
     3
 72
    17
 73
    13
 74
     0
 42
0.000000001
 43
0.00000001
 40
0.0
 40
0.0
 40
0.0
 40
0.0
 40
0.0630261783644415
 40
0.1755051770322413
 40
0.2871661680709087
 40
0.3992037343696418
 40
0.5113672139054666
 40
0.6234400419686421
 40
0.7353082415766365
 40
0.8475057578986053
 40
0.9590834164625625
 40
1.0
 40
1.0
 40
1.0
 40
1.0
 10
244.4486227004396
 20
295.4795386243253
 30
0.0
 10
244.4209962870492
 20
295.5249641634409
 30
0.0
 10
244.3440666889253
 20
295.6514579076462
 30
0.0
 10
244.1017181935808
 20
295.8259165356274
 30
0.0
 10
243.7467282655948
 20
295.9825295213377
 30
0.0
 10
243.3292501344229
 20
296.0770045660224
 30
0.0
 10
242.8865986529116
 20
296.1119386847841
 30
0.0
 10
242.4420128786138
 20
296.0930824896348
 30
0.0
 10
242.0105948888186
 20
296.0285693670548
 30
0.0
 10
241.6069539979592
 20
295.92269346415
 30
0.0
 10
241.3059508094378
 20
295.8177569686247
 30
0.0
 10
241.1562973360431
 20
295.7401305471972
 30
0.0
 10
241.1161429750558
 20
295.719302167625
 30
0.0
  0
LWPOLYLINE
  5
274
330
1F
100
AcDbEntity
  8
0
  6
Continuous
 62
     7
370
    25
100
AcDbPolyline
 90
       48
 70
   128
 43
0.0
 10
197.0660672355
 20
281.5716325131
 10
197.0786855727
 20
281.7820165796
 10
197.11631541
 20
281.9740775153
 10
197.1782852419
 20
282.1443879883
 10
197.2634892153
 20
282.2899088042
 10
197.3704068634
 20
282.4080431406
 10
197.4971302381
 20
282.4966828874
 10
197.6413979579
 20
282.5542462663
 10
197.8006355618
 20
282.5797060573
 10
197.9720014511
 20
282.57260793
 10
198.1524375973
 20
282.5330785506
 10
198.3387241132
 20
282.4618233218
 10
198.5275367115
 20
282.3601137948
 10
198.7155060269
 20
282.2297649785
 10
198.8992777425
 20
282.0731029507
 10
199.0755724477
 20
281.892923349
 10
199.2412441593
 20
281.6924414826
 10
199.3933364617
 20
281.4752349552
 10
199.5291352642
 20
281.2451798224
 10
199.6462172338
 20
281.0063814235
 10
199.7424930402
 20
280.7631011216
 10
199.8162446391
 20
280.5196802594
 10
199.8661559317
 20
280.280462688
 10
199.8913362497
 20
280.0497172506
 10
199.8913362497
 20
279.8315616051
 10
199.8661559317
 20
279.629888744
 10
199.8162446391
 20
279.4482975244
 10
199.7424930402
 20
279.2900284459
 10
199.6462172338
 20
279.1579058239
 10
199.5291352642
 20
279.0542873898
 10
199.3933364617
 20
278.9810222169
 10
199.2412441593
 20
278.9394177241
 10
199.0755724477
 20
278.9302163444
 10
198.8992777425
 20
278.9535822767
 10
198.7155060269
 20
279.0090985554
 10
198.5275367115
 20
279.0957744912
 10
198.3387241132
 20
279.21206335
 10
198.1524375973
 20
279.3558899543
 10
197.9720014511
 20
279.5246877149
 10
197.8006355618
 20
279.7154444319
 10
197.6413979579
 20
279.924756047
 10
197.4971302381
 20
280.1488873896
 10
197.3704068634
 20
280.3838388306
 10
197.2634892153
 20
280.6254176558
 10
197.1782852419
 20
280.8693128855
 10
197.11631541
 20
281.1111722035
 10
197.0786855727
 20
281.3466796246
 10
197.0660672355
 20
281.5716325131
  0
LWPOLYLINE
  5
275
330
1F
100
AcDbEntity
  8
0
  6
Continuous
 62
     7
370
    25
100
AcDbPolyline
 90
       48
 70
   128
 43
0.0
 10
223.9361249205
 20
266.0598783885
 10
223.9487432578
 20
266.2702624549
 10
223.9863730951
 20
266.4623233907
 10
224.048342927
 20
266.6326338637
 10
224.1335469004
 20
266.7781546796
 10
224.2404645485
 20
266.8962890159
 10
224.3671879232
 20
266.9849287628
 10
224.511455643
 20
267.0424921416
 10
224.6706932469
 20
267.0679519327
 10
224.8420591361
 20
267.0608538054
 10
225.0224952824
 20
267.021324426
 10
225.2087817983
 20
266.9500691971
 10
225.3975943966
 20
266.8483596701
 10
225.585563712
 20
266.7180108539
 10
225.7693354276
 20
266.5613488261
 10
225.9456301328
 20
266.3811692244
 10
226.1113018444
 20
266.180687358
 10
226.2633941468
 20
265.9634808306
 10
226.3991929493
 20
265.7334256978
 10
226.5162749189
 20
265.4946272989
 10
226.6125507253
 20
265.2513469969
 10
226.6863023242
 20
265.0079261348
 10
226.7362136168
 20
264.7687085634
 10
226.7613939347
 20
264.537963126
 10
226.7613939347
 20
264.3198074805
 10
226.7362136168
 20
264.1181346194
 10
226.6863023242
 20
263.9365433998
 10
226.6125507253
 20
263.7782743213
 10
226.5162749189
 20
263.6461516993
 10
226.3991929493
 20
263.5425332652
 10
226.2633941468
 20
263.4692680923
 10
226.1113018444
 20
263.4276635994
 10
225.9456301328
 20
263.4184622198
 10
225.7693354276
 20
263.4418281521
 10
225.585563712
 20
263.4973444308
 10
225.3975943966
 20
263.5840203666
 10
225.2087817983
 20
263.7003092254
 10
225.0224952824
 20
263.8441358297
 10
224.8420591361
 20
264.0129335903
 10
224.6706932469
 20
264.2036903073
 10
224.511455643
 20
264.4130019224
 10
224.3671879232
 20
264.637133265
 10
224.2404645485
 20
264.872084706
 10
224.1335469004
 20
265.1136635312
 10
224.048342927
 20
265.3575587609
 10
223.9863730951
 20
265.5994180789
 10
223.9487432578
 20
265.8349254999
 10
223.9361249205
 20
266.0598783885
  0
LINE
  5
276
330
1F
100
AcDbEntity
  8
0
  6
Continuous
 62
     7
370
    25
100
AcDbLine
 10
190.7021062048
 20
291.9411036738
 30
0.0
 11
190.7021062048
 21
247.8478998319
 31
0.0
  0
LINE
  5
277
330
1F
100
AcDbEntity
  8
0
  6
Continuous
 62
     7
370
    25
100
AcDbLine
 10
190.7021062048
 20
291.9411036738
 30
0.0
 11
233.128513076
 21
267.4488603191
 31
0.0
  0
LINE
  5
278
330
1F
100
AcDbEntity
  8
0
  6
Continuous
 62
     7
370
    25
100
AcDbLine
 10
233.128513076
 20
267.4488603191
 30
0.0
 11
233.128513076
 21
223.3556564773
 31
0.0
  0
LINE
  5
279
330
1F
100
AcDbEntity
  8
0
  6
Continuous
 62
     7
370
    25
100
AcDbLine
 10
190.7021062048
 20
247.8478998319
 30
0.0
 11
233.128513076
 21
223.3556564773
 31
0.0
  0
LINE
  5
27A
330
1F
100
AcDbEntity
  8
0
  6
Continuous
 62
     7
370
    25
100
AcDbLine
 10
233.128513076
 20
267.4488603191
 30
0.0
 11
275.5549199472
 21
291.9411036738
 31
0.0
  0
LINE
  5
27B
330
1F
100
AcDbEntity
  8
0
  6
Continuous
 62
     7
370
    25
100
AcDbLine
 10
233.128513076
 20
316.4333470285
 30
0.0
 11
190.7021062048
 21
291.9411036738
 31
0.0
  0
LINE
  5
27C
330
1F
100
AcDbEntity
  8
0
  6
Continuous
 62
     7
370
    25
100
AcDbLine
 10
275.5549199472
 20
291.9411036738
 30
0.0
 11
233.128513076
 21
316.4333470285
 31
0.0
  0
LINE
  5
27D
330
1F
100
AcDbEntity
  8
0
  6
Continuous
 62
     7
370
    25
100
AcDbLine
 10
233.128513076
 20
271.0410560111
 30
0.0
 11
269.3323802727
 21
291.9411036738
 31
0.0
  0
LINE
  5
27E
330
1F
100
AcDbEntity
  8
0
  6
Continuous
 62
     7
370
    25
100
AcDbLine
 10
269.3323802727
 20
291.9411036738
 30
0.0
 11
233.128513076
 21
312.8411513364
 31
0.0
  0
LINE
  5
27F
330
1F
100
AcDbEntity
  8
0
  6
Continuous
 62
     7
370
    25
100
AcDbLine
 10
233.128513076
 20
312.8411513364
 30
0.0
 11
196.9246458792
 21
291.9411036738
 31
0.0
  0
LINE
  5
280
330
1F
100
AcDbEntity
  8
0
  6
Continuous
 62
     7
370
    25
100
AcDbLine
 10
196.9246458792
 20
291.9411036738
 30
0.0
 11
233.128513076
 21
271.0410560111
 31
0.0
  0
LINE
  5
281
330
1F
100
AcDbEntity
  8
0
  6
Continuous
 62
     7
370
    25
100
AcDbLine
 10
275.5549199472
 20
291.9411036738
 30
0.0
 11
275.5549199472
 21
247.8478998319
 31
0.0
  0
LINE
  5
282
330
1F
100
AcDbEntity
  8
0
  6
Continuous
 62
     7
370
    25
100
AcDbLine
 10
233.128513076
 20
223.3556564773
 30
0.0
 11
275.5549199472
 21
247.8478998319
 31
0.0
  0
LINE
  5
283
330
1F
100
AcDbEntity
  8
0
  6
Continuous
 62
     7
370
    25
100
AcDbLine
 10
233.128513076
 20
312.1063840358
 30
0.0
 11
233.128513076
 21
312.8411513364
 31
0.0
  0
LINE
  5
284
330
1F
100
AcDbEntity
  8
0
  6
Continuous
 62
     7
370
    25
100
AcDbLine
 10
244.4421066409
 20
229.8868550218
 30
0.0
 11
245.1493283561
 21
229.4785846159
 31
0.0
  0
LINE
  5
285
330
1F
100
AcDbEntity
  8
0
  6
Continuous
 62
     7
370
    25
100
AcDbLine
 10
245.1493283561
 20
229.4785846159
 30
0.0
 11
233.128513076
 21
222.5391156654
 31
0.0
  0
LINE
  5
286
330
1F
100
AcDbEntity
  8
0
  6
Continuous
 62
     7
370
    25
100
AcDbLine
 10
233.128513076
 20
222.5391156654
 30
0.0
 11
215.4508435463
 21
232.7442170632
 31
0.0
  0
LINE
  5
287
330
1F
100
AcDbEntity
  8
0
  6
Continuous
 62
     7
370
    25
100
AcDbLine
 10
215.4508435463
 20
232.7442170632
 30
0.0
 11
216.1580652616
 21
233.1524874691
 31
0.0
  0
LINE
  5
288
330
1F
100
AcDbEntity
  8
0
  6
Continuous
 62
     7
370
    25
100
AcDbLine
 10
233.128513076
 20
218.8646820119
 30
0.0
 11
245.1493283561
 21
225.8041509624
 31
0.0
  0
LINE
  5
289
330
1F
100
AcDbEntity
  8
0
  6
Continuous
 62
     7
370
    25
100
AcDbLine
 10
233.128513076
 20
222.5391156654
 30
0.0
 11
233.128513076
 21
218.8646820119
 31
0.0
  0
LINE
  5
28A
330
1F
100
AcDbEntity
  8
0
  6
Continuous
 62
     7
370
    25
100
AcDbLine
 10
245.1493283561
 20
225.8041509624
 30
0.0
 11
245.1493283561
 21
229.4785846159
 31
0.0
  0
LINE
  5
28B
330
1F
100
AcDbEntity
  8
0
  6
Continuous
 62
     7
370
    25
100
AcDbLine
 10
233.128513076
 20
218.8646820119
 30
0.0
 11
215.4508435463
 21
229.0697834097
 31
0.0
  0
LINE
  5
28C
330
1F
100
AcDbEntity
  8
0
  6
Continuous
 62
     7
370
    25
100
AcDbLine
 10
215.4508435463
 20
229.0697834097
 30
0.0
 11
215.4508435463
 21
232.7442170632
 31
0.0
  0
LINE
  5
28D
330
1F
100
AcDbEntity
  8
0
  6
Continuous
 62
     7
370
    25
100
AcDbLine
 10
211.3496242154
 20
234.8662810036
 30
0.0
 11
211.3496242154
 21
235.9283413993
 31
0.0
  0
LINE
  5
28E
330
1F
100
AcDbEntity
  8
0
  6
Continuous
 62
     7
370
    25
100
AcDbLine
 10
215.4508435463
 20
232.4986974793
 30
0.0
 11
211.3496242154
 21
234.8662810036
 31
0.0
  0
LINE
  5
28F
330
1F
100
AcDbEntity
  8
0
  6
Continuous
 62
     7
370
    25
100
AcDbLine
 10
260.564256186
 20
238.1319134509
 30
0.0
 11
260.564256186
 21
239.1939738466
 31
0.0
  0
LINE
  5
290
330
1F
100
AcDbEntity
  8
0
  6
Continuous
 62
     7
370
    25
100
AcDbLine
 10
260.564256186
 20
238.1319134509
 30
0.0
 11
245.1493283561
 21
229.233065032
 31
0.0
  0
LINE
  5
291
330
1F
100
AcDbEntity
  8
0
  6
Continuous
 62
     7
370
    25
100
AcDbLine
 10
208.3797757344
 20
233.1518239688
 30
0.0
 11
208.3797757344
 21
236.8262576223
 31
0.0
  0
LINE
  5
292
330
1F
100
AcDbEntity
  8
0
  6
Continuous
 62
     7
370
    25
100
AcDbLine
 10
209.0869974497
 20
237.2345280282
 30
0.0
 11
208.3797757344
 21
236.8262576223
 31
0.0
  0
LINE
  5
293
330
1F
100
AcDbEntity
  8
0
  6
Continuous
 62
     7
370
    25
100
AcDbLine
 10
211.3496242154
 20
234.8662810036
 30
0.0
 11
208.3797757344
 21
233.1518239688
 31
0.0
  0
LINE
  5
294
330
1F
100
AcDbEntity
  8
0
  6
Continuous
 62
     7
370
    25
100
AcDbLine
 10
208.3797757344
 20
236.8262576223
 30
0.0
 11
190.7021062048
 21
247.0313590201
 31
0.0
  0
LINE
  5
295
330
1F
100
AcDbEntity
  8
0
  6
Continuous
 62
     7
370
    25
100
AcDbLine
 10
190.7021062048
 20
247.0313590201
 30
0.0
 11
191.40932792
 21
247.439629426
 31
0.0
  0
LINE
  5
296
330
1F
100
AcDbEntity
  8
0
  6
Continuous
 62
     7
370
    25
100
AcDbLine
 10
190.7021062048
 20
243.3569253666
 30
0.0
 11
190.7021062048
 21
247.0313590201
 31
0.0
  0
LINE
  5
297
330
1F
100
AcDbEntity
  8
0
  6
Continuous
 62
     7
370
    25
100
AcDbLine
 10
208.3797757344
 20
233.1518239688
 30
0.0
 11
190.7021062048
 21
243.3569253666
 31
0.0
  0
LINE
  5
298
330
1F
100
AcDbEntity
  8
0
  6
Continuous
 62
     7
370
    25
100
AcDbLine
 10
263.534104667
 20
236.4174564161
 30
0.0
 11
263.534104667
 21
240.0918900696
 31
0.0
  0
LINE
  5
299
330
1F
100
AcDbEntity
  8
0
  6
Continuous
 62
     7
370
    25
100
AcDbLine
 10
263.534104667
 20
240.0918900696
 30
0.0
 11
262.8268829517
 21
240.5001604755
 31
0.0
  0
LINE
  5
29A
330
1F
100
AcDbEntity
  8
0
  6
Continuous
 62
     7
370
    25
100
AcDbLine
 10
263.534104667
 20
236.4174564161
 30
0.0
 11
260.564256186
 21
238.1319134509
 31
0.0
  0
LINE
  5
29B
330
1F
100
AcDbEntity
  8
0
  6
Continuous
 62
     7
370
    25
100
AcDbLine
 10
275.5549199472
 20
247.0313590201
 30
0.0
 11
274.8476982319
 21
247.439629426
 31
0.0
  0
LINE
  5
29C
330
1F
100
AcDbEntity
  8
0
  6
Continuous
 62
     7
370
    25
100
AcDbLine
 10
275.5549199472
 20
247.0313590201
 30
0.0
 11
263.534104667
 21
240.0918900696
 31
0.0
  0
LINE
  5
29D
330
1F
100
AcDbEntity
  8
0
  6
Continuous
 62
     7
370
    25
100
AcDbLine
 10
275.5549199472
 20
247.0313590201
 30
0.0
 11
275.5549199472
 21
243.3569253666
 31
0.0
  0
LINE
  5
29E
330
1F
100
AcDbEntity
  8
0
  6
Continuous
 62
     7
370
    25
100
AcDbLine
 10
263.534104667
 20
236.4174564161
 30
0.0
 11
275.5549199472
 21
243.3569253666
 31
0.0
  0
ARC
  5
29F
330
1F
100
AcDbEntity
  8
0
  6
PHANTOM
 62
     8
370
    18
100
AcDbCircle
 10
225.1442396552
 20
265.1263700494
 30
0.0
 40
0.6254726507959777
100
AcDbArc
 50
2.6805001359
 51
44.0773401434
  0
LWPOLYLINE
  5
2A0
330
1F
100
AcDbEntity
  8
0
  6
PHANTOM
 62
     8
370
    18
100
AcDbPolyline
 90
        3
 70
   128
 43
0.0
 10
225.4836418362
 20
265.6499780133
 10
225.5113108524
 20
265.6325605281
 10
225.5935801254
 20
265.5614667957
  0
ARC
  5
2A1
330
1F
100
AcDbEntity
  8
0
  6
PHANTOM
 62
     8
370
    18
100
AcDbCircle
 10
225.410704871
 20
265.2783190507
 30
0.0
 40
0.4100871355365527
100
AcDbArc
 50
344.8216645304
 51
75.1729589369
  0
LWPOLYLINE
  5
2A2
330
1F
100
AcDbEntity
  8
0
  6
PHANTOM
 62
     8
370
    18
100
AcDbPolyline
 90
        7
 70
   128
 43
0.0
 10
225.7471218528
 20
265.6007893647
 10
225.8072713276
 20
265.5217772831
 10
225.8506758763
 20
265.431346597
 10
225.8721002696
 20
265.3404045819
 10
225.8689604096
 20
265.2599201868
 10
225.8416350097
 20
265.1996010177
 10
225.8128869728
 20
265.1750821177
  0
LWPOLYLINE
  5
2A3
330
1F
100
AcDbEntity
  8
0
  6
PHANTOM
 62
     8
370
    18
100
AcDbPolyline
 90
        5
 70
   128
 43
0.0
 10
225.524048535
 20
265.679162001
 10
225.543463083
 20
265.6874920222
 10
225.6067524178
 20
265.6889643357
 10
225.6774823663
 20
265.6588528187
 10
225.7471218528
 20
265.6007893647
  0
ARC
  5
2A4
330
1F
100
AcDbEntity
  8
0
  6
PHANTOM
 62
     8
370
    18
100
AcDbCircle
 10
198.2976441636
 20
280.6497905164
 30
0.0
 40
0.6015831569855193
100
AcDbArc
 50
1.6750344644
 51
58.3195893226
  0
ARC
  5
2A5
330
1F
100
AcDbEntity
  8
0
  6
PHANTOM
 62
     8
370
    18
100
AcDbCircle
 10
198.5410372783
 20
280.790484834
 30
0.0
 40
0.409818737785329
100
AcDbArc
 50
344.7518398575
 51
75.019813723
  0
LWPOLYLINE
  5
2A6
330
1F
100
AcDbEntity
  8
0
  6
PHANTOM
 62
     8
370
    18
100
AcDbPolyline
 90
       11
 70
   128
 43
0.0
 10
198.6540400657
 20
281.1909438677
 10
198.6595539867
 20
281.1938209152
 10
198.7197034615
 20
281.2033858914
 10
198.789342948
 20
281.1810453057
 10
198.8600728965
 20
281.1294937623
 10
198.9233622313
 20
281.0549491383
 10
198.9715773246
 20
280.9664026155
 10
198.9989027245
 20
280.8745342112
 10
199.0020425845
 20
280.790424611
 10
198.9806181912
 20
280.7242186739
 10
198.9432557514
 20
280.6870785732
  0
ELLIPSE
  5
2A7
330
1F
100
AcDbEntity
  8
0
  6
PHANTOM
 62
     8
370
    18
100
AcDbEllipse
 10
228.1787656077
 20
283.8586102867
 30
0.0
 11
0.9719132093901521
 21
1.118823213653172
 31
0.0
210
0.0
220
0.0
230
1.0
 40
0.2103456271
 41
4.942891763678167
 42
5.260219206961326
  0
LINE
  5
2A8
330
1F
100
AcDbEntity
  8
0
  6
PHANTOM
 62
     8
370
    18
100
AcDbLine
 10
228.8858723888
 20
284.2668143426
 30
0.0
 11
228.8858723888
 21
284.5934306674
 31
0.0
  0
LINE
  5
2A9
330
1F
100
AcDbEntity
  8
0
  6
PHANTOM
 62
     8
370
    18
100
AcDbLine
 10
228.2484045705
 20
284.634816681
 30
0.0
 11
228.8858723888
 21
284.2668143426
 31
0.0
  0
ELLIPSE
  5
2AA
330
1F
100
AcDbEntity
  8
0
  6
PHANTOM
 62
     8
370
    18
100
AcDbEllipse
 10
228.1787656077
 20
283.8586102867
 30
0.0
 11
1.454810710865587
 21
0.2824325670698045
 31
0.0
210
0.0
220
0.0
230
1.0
 40
0.2102392455
 41
2.208719138283839
 42
2.246282341710334
  0
ELLIPSE
  5
2AB
330
1F
100
AcDbEntity
  8
0
  6
PHANTOM
 62
     8
370
    18
100
AcDbEllipse
 10
228.1787656077
 20
283.8586102867
 30
0.0
 11
1.454810710865587
 21
0.2824325670698045
 31
0.0
210
0.0
220
0.0
230
1.0
 40
0.2102392455
 41
1.022905250688865
 42
1.311597675062846
  0
ELLIPSE
  5
2AC
330
1F
100
AcDbEntity
  8
0
  6
PHANTOM
 62
     8
370
    18
100
AcDbEllipse
 10
219.6934842334
 20
288.7570589576
 30
0.0
 11
-1.324465191199721
 21
1.514395808255244
 31
0.0
210
0.0
220
0.0
230
1.0
 40
0.399372059
 41
3.410277639227994
 42
3.589549201433746
  0
LINE
  5
2AD
330
1F
100
AcDbEntity
  8
0
  6
PHANTOM
 62
     8
370
    18
100
AcDbLine
 10
220.4005910146
 20
289.3043916965
 30
0.0
 11
220.4005910146
 21
289.4918793383
 31
0.0
  0
ELLIPSE
  5
2AE
330
1F
100
AcDbEntity
  8
0
  6
PHANTOM
 62
     8
370
    18
100
AcDbEllipse
 10
219.6934842334
 20
288.7570589576
 30
0.0
 11
-0.6493379314115658
 21
1.904253231899304
 31
0.0
210
0.0
220
0.0
230
1.0
 40
0.3993691531
 41
4.006966225485835
 42
4.107374522293426
  0
ELLIPSE
  5
2AF
330
1F
100
AcDbEntity
  8
0
  6
PHANTOM
 62
     8
370
    18
100
AcDbEllipse
 10
246.5635419185
 20
294.4719157404
 30
0.0
 11
0.9719132093901807
 21
1.118823213653173
 31
0.0
210
0.0
220
0.0
230
1.0
 40
0.2103456271
 41
5.118322152357199
 42
5.260219206961372
  0
LINE
  5
2B0
330
1F
100
AcDbEntity
  8
0
  6
PHANTOM
 62
     8
370
    18
100
AcDbLine
 10
247.2706486997
 20
295.2067361211
 30
0.0
 11
247.2706486997
 21
294.8801197963
 31
0.0
  0
LINE
  5
2B1
330
1F
100
AcDbEntity
  8
0
  6
PHANTOM
 62
     8
370
    18
100
AcDbLine
 10
244.6946746792
 20
296.367197945
 30
0.0
 11
245.9635419185
 21
295.6346964795
 31
0.0
  0
LINE
  5
2B2
330
1F
100
AcDbEntity
  8
0
  6
PHANTOM
 62
     8
370
    18
100
AcDbLine
 10
247.1635419185
 20
294.941951225
 30
0.0
 11
247.2706486997
 21
294.8801197963
 31
0.0
  0
ELLIPSE
  5
2B3
330
1F
100
AcDbEntity
  8
0
  6
PHANTOM
 62
     8
370
    18
100
AcDbEllipse
 10
246.5635419185
 20
294.4719157404
 30
0.0
 11
1.454810710865587
 21
0.2824325670698613
 31
0.0
210
0.0
220
0.0
230
1.0
 40
0.2102392455
 41
1.954741334072788
 42
2.246282341710049
  0
ELLIPSE
  5
2B4
330
1F
100
AcDbEntity
  8
0
  6
PHANTOM
 62
     8
370
    18
100
AcDbEllipse
 10
246.5635419185
 20
294.4719157404
 30
0.0
 11
1.454810710865587
 21
0.2824325670698613
 31
0.0
210
0.0
220
0.0
230
1.0
 40
0.2102392455
 41
1.022905250688893
 42
1.105266176089592
  0
ELLIPSE
  5
2B5
330
1F
100
AcDbEntity
  8
0
  6
PHANTOM
 62
     8
370
    18
100
AcDbEllipse
 10
238.0782605443
 20
299.3703644113
 30
0.0
 11
-1.324465191199721
 21
1.514395808255244
 31
0.0
210
0.0
220
0.0
230
1.0
 40
0.399372059
 41
3.410277639228028
 42
4.633654730249317
  0
LINE
  5
2B6
330
1F
100
AcDbEntity
  8
0
  6
PHANTOM
 62
     8
370
    18
100
AcDbLine
 10
238.7853673255
 20
299.7785684673
 30
0.0
 11
241.3613413459
 21
298.2914903186
 31
0.0
  0
LINE
  5
2B7
330
1F
100
AcDbEntity
  8
0
  6
PHANTOM
 62
     8
370
    18
100
AcDbLine
 10
238.7853673255
 20
299.7785684673
 30
0.0
 11
238.7853673255
 21
300.105184792
 31
0.0
  0
ELLIPSE
  5
2B8
330
1F
100
AcDbEntity
  8
0
  6
PHANTOM
 62
     8
370
    18
100
AcDbEllipse
 10
238.0782605443
 20
299.3703644113
 30
0.0
 11
-0.649337931411594
 21
1.904253231899304
 31
0.0
210
0.0
220
0.0
230
1.0
 40
0.3993691531
 41
4.006966225485785
 42
4.791073601098761
  0
LWPOLYLINE
  5
2B9
330
1F
100
AcDbEntity
  8
0
  6
PHANTOM
 62
     8
370
    18
100
AcDbPolyline
 90
       14
 70
   128
 43
0.0
 10
245.273477474
 20
300.0817123104
 10
245.2303555832
 20
300.1151443197
 10
245.17912167
 20
300.1931847667
 10
245.152673805
 20
300.2968661518
 10
245.152673805
 20
300.4196737921
 10
245.17912167
 20
300.5538912321
 10
245.2303555832
 20
300.6910850962
 10
245.3031563295
 20
300.8226349895
 10
245.3929495702
 20
300.9402751484
 10
245.4940932659
 20
301.0366138089
 10
245.6002321861
 20
301.1055976589
 10
245.7046972322
 20
301.1428921892
 10
245.800924481
 20
301.1461540474
 10
245.8737440913
 20
301.1207886875
  0
LWPOLYLINE
  5
2BA
330
1F
100
AcDbEntity
  8
0
  6
PHANTOM
 62
     8
370
    18
100
AcDbPolyline
 90
       14
 70
   128
 43
0.0
 10
245.9635419752
 20
298.8864677027
 10
245.9709289142
 20
298.8324336874
 10
246.0128891431
 20
298.7490571458
 10
246.0894489111
 20
298.6743240776
 10
246.1957976863
 20
298.6129302365
 10
246.3252531841
 20
298.5687332232
 10
246.4696812395
 20
298.5445100986
 10
246.6200069065
 20
298.5417828908
 10
246.7667846707
 20
298.5607229602
 10
246.9007919452
 20
298.6001402326
 10
247.0136085603
 20
298.6575579758
 10
247.098145833
 20
298.7293684219
 10
247.1490919757
 20
298.8110594564
 10
247.1635418058
 20
298.8868306253
  0
LWPOLYLINE
  5
2BB
330
1F
100
AcDbEntity
  8
0
  6
PHANTOM
 62
     8
370
    18
100
AcDbPolyline
 90
       14
 70
   128
 43
0.0
 10
238.7682344181
 20
303.8371091159
 10
238.7249731962
 20
303.870621634
 10
238.673739283
 20
303.9486620811
 10
238.6472914181
 20
304.0523434662
 10
238.6472914181
 20
304.1751511065
 10
238.673739283
 20
304.3093685465
 10
238.7249731962
 20
304.4465624106
 10
238.7977739425
 20
304.5781123039
 10
238.8875671833
 20
304.6957524627
 10
238.988710879
 20
304.7920911233
 10
239.0948497992
 20
304.8610749733
 10
239.1993148453
 20
304.8983695036
 10
239.2955420941
 20
304.9016313618
 10
239.3681856577
 20
304.8763677508
  0
LWPOLYLINE
  5
2BC
330
1F
100
AcDbEntity
  8
0
  6
PHANTOM
 62
     8
370
    18
100
AcDbPolyline
 90
       14
 70
   128
 43
0.0
 10
238.6782605268
 20
303.7849833439
 10
238.6638106014
 20
303.7095081274
 10
238.6128644588
 20
303.6278170929
 10
238.528327186
 20
303.5560066468
 10
238.415510571
 20
303.4985889035
 10
238.2815032964
 20
303.4591716311
 10
238.1347255323
 20
303.4402315617
 10
237.9843998652
 20
303.4429587696
 10
237.8399718099
 20
303.4671818941
 10
237.7105163121
 20
303.5113789074
 10
237.6041675368
 20
303.5727727486
 10
237.5276077689
 20
303.6475058167
 10
237.4856475399
 20
303.7308823583
 10
237.478260651
 20
303.7852736068
  0
LWPOLYLINE
  5
2BD
330
1F
100
AcDbEntity
  8
0
  6
PHANTOM
 62
     8
370
    18
100
AcDbPolyline
 90
       14
 70
   128
 43
0.0
 10
226.8887011632
 20
284.3078576405
 10
226.8455792723
 20
284.3412896498
 10
226.7943453591
 20
284.4193300968
 10
226.7678974942
 20
284.5230114819
 10
226.7678974942
 20
284.6458191223
 10
226.7943453591
 20
284.7800365622
 10
226.8455792723
 20
284.9172304263
 10
226.9183800186
 20
285.0487803196
 10
227.0081732594
 20
285.1664204785
 10
227.1093169551
 20
285.2627591391
 10
227.2154558753
 20
285.331742989
 10
227.3199209213
 20
285.3690375193
 10
227.4161481702
 20
285.3722993776
 10
227.4889677804
 20
285.3469340176
  0
LWPOLYLINE
  5
2BE
330
1F
100
AcDbEntity
  8
0
  6
PHANTOM
 62
     8
370
    18
100
AcDbPolyline
 90
       14
 70
   128
 43
0.0
 10
220.3834581073
 20
288.063254446
 10
220.3401968854
 20
288.0967669642
 10
220.2889629722
 20
288.1748074112
 10
220.2625151073
 20
288.2784887963
 10
220.2625151073
 20
288.4012964366
 10
220.2889629722
 20
288.5355138766
 10
220.3401968854
 20
288.6727077407
 10
220.4129976317
 20
288.804257634
 10
220.5027908725
 20
288.9218977929
 10
220.6039345682
 20
289.0182364534
 10
220.7100734884
 20
289.0872203034
 10
220.8145385344
 20
289.1245148337
 10
220.9107657832
 20
289.1277766919
 10
220.9834093469
 20
289.1025130809
  0
LWPOLYLINE
  5
2BF
330
1F
100
AcDbEntity
  8
0
  6
PHANTOM
 62
     8
370
    18
100
AcDbPolyline
 90
        3
 70
   128
 43
0.0
 10
220.2934842159
 20
288.011128674
 10
220.2790342906
 20
287.9356534575
 10
220.2769436027
 20
287.9304432462
  0
SPLINE
  5
2C0
330
1F
100
AcDbEntity
  8
0
  6
PHANTOM
 62
     8
370
    18
100
AcDbSpline
210
0.0
220
0.0
230
1.0
 70
     8
 71
     3
 72
     9
 73
     5
 74
     0
 42
0.000000001
 43
0.00000001
 40
0.0
 40
0.0
 40
0.0
 40
0.0
 40
0.2936821598176218
 40
1.0
 40
1.0
 40
1.0
 40
1.0
 10
226.7597413431181
 20
264.4788051666373
 30
0.0
 10
226.7595401585712
 20
264.5037421682042
 30
0.0
 10
226.7588551168004
 20
264.588653698351
 30
0.0
 10
226.7476396634769
 20
264.6787799677923
 30
0.0
 10
226.7397179887088
 20
264.7424377597678
 30
0.0
  0
LWPOLYLINE
  5
2C1
330
1F
100
AcDbEntity
  8
0
  6
PHANTOM
 62
     8
370
    18
100
AcDbPolyline
 90
       34
 70
   128
 43
0.0
 10
225.4550862708
 20
266.8075827592
 10
225.2696691062
 20
266.9109724466
 10
225.0727909303
 20
266.9873804904
 10
224.8825974835
 20
267.0271795155
 10
224.7031673904
 20
267.029151682
 10
224.5381708065
 20
266.9929789912
 10
224.3909982188
 20
266.9193656006
 10
224.2650258643
 20
266.8100324981
 10
224.1634910372
 20
266.6675914082
 10
224.0889683978
 20
266.4953539584
 10
224.0429317413
 20
266.2971758971
 10
224.0335525822
 20
265.8838006389
 10
224.0693269591
 20
265.6362279932
 10
224.1338509347
 20
265.3803926315
 10
224.2260480524
 20
265.1215456855
 10
224.3437036843
 20
264.8651503146
 10
224.4837423912
 20
264.616936553
 10
224.6427931076
 20
264.3828097721
 10
224.8174909531
 20
264.1684091448
 10
225.0043055099
 20
263.9785512695
 10
225.199292512
 20
263.8169392733
 10
225.3982401118
 20
263.6863569362
 10
225.5970309086
 20
263.5891781193
 10
225.7917687365
 20
263.5276523065
 10
225.9786001562
 20
263.5036129282
 10
226.1535069428
 20
263.5178793059
 10
226.3123432782
 20
263.5699943193
 10
226.4511705305
 20
263.6584989533
 10
226.5667007451
 20
263.7813287851
 10
226.656520198
 20
263.9359228611
 10
226.7189916501
 20
264.1190258049
 10
226.7530746768
 20
264.3265886219
 10
226.7597413431
 20
264.4788051666
 10
226.7597413431
 20
264.4788051666
  0
SPLINE
  5
2C2
330
1F
100
AcDbEntity
  8
0
  6
PHANTOM
 62
     8
370
    18
100
AcDbSpline
210
0.0
220
0.0
230
1.0
 70
     8
 71
     3
 72
     9
 73
     5
 74
     0
 42
0.000000001
 43
0.00000001
 40
0.0
 40
0.0
 40
0.0
 40
0.0
 40
0.2936821406772013
 40
0.9999999999999999
 40
0.9999999999999999
 40
0.9999999999999999
 40
0.9999999999999999
 10
199.8896836584532
 20
279.9905592905471
 30
0.0
 10
199.8894824739442
 20
280.0154962900496
 30
0.0
 10
199.8887974322573
 20
280.1004078187011
 30
0.0
 10
199.8775819794262
 20
280.1905340861449
 30
0.0
 10
199.8696603047912
 20
280.2541918784345
 30
0.0
  0
LWPOLYLINE
  5
2C3
330
1F
100
AcDbEntity
  8
0
  6
PHANTOM
 62
     8
370
    18
100
AcDbPolyline
 90
       34
 70
   128
 43
0.0
 10
198.5850285867
 20
282.3193368832
 10
198.3996114228
 20
282.4227265705
 10
198.2027332469
 20
282.4991346145
 10
198.0125398003
 20
282.5389336398
 10
197.8331097069
 20
282.5409058066
 10
197.6681131225
 20
282.5047331163
 10
197.5209405349
 20
282.4311197262
 10
197.394968181
 20
282.321786624
 10
197.2934333537
 20
282.1793455343
 10
197.2189107133
 20
282.0071080848
 10
197.1728740561
 20
281.8089300241
 10
197.1634948972
 20
281.3955547644
 10
197.1992692735
 20
281.1479821189
 10
197.2637932483
 20
280.8921467577
 10
197.3559903662
 20
280.6332998124
 10
197.4736459985
 20
280.3769044415
 10
197.6136847048
 20
280.1286906793
 10
197.7727354198
 20
279.8945638984
 10
197.9474332652
 20
279.680163272
 10
198.1342478228
 20
279.4903053974
 10
198.3292348247
 20
279.3286933997
 10
198.5281824237
 20
279.1981110607
 10
198.726973221
 20
279.1009322447
 10
198.9217110515
 20
279.0394064348
 10
199.1085424734
 20
279.0153670555
 10
199.2834492595
 20
279.0296334244
 10
199.4422855916
 20
279.0817484256
 10
199.581112841
 20
279.1702530522
 10
199.6966430551
 20
279.2930828854
 10
199.7864625095
 20
279.4476769677
 10
199.8489339634
 20
279.6307799171
 10
199.8830169915
 20
279.8383427374
 10
199.8896836585
 20
279.9905592905
 10
199.8896836585
 20
279.9905592905
  0
ENDSEC
  0
SECTION
  2
OBJECTS
  0
DICTIONARY
  5
C
330
0
100
AcDbDictionary
281
     1
  3
ACAD_DETAILVIEWSTYLE
350
2CB
  3
ACAD_GROUP
350
D
  3
ACAD_LAYOUT
350
1A
  3
ACAD_MATERIAL
350
43
  3
ACAD_MLEADERSTYLE
350
6B
  3
ACAD_MLINESTYLE
350
17
  3
ACAD_PLOTSETTINGS
350
19
  3
ACAD_PLOTSTYLENAME
350
E
  3
ACAD_SCALELIST
350
47
  3
ACAD_SECTIONVIEWSTYLE
350
2CC
  3
ACAD_TABLESTYLE
350
69
  3
ACAD_VISUALSTYLE
350
2A
  3
ACDB_RECOMPOSE_DATA
350
2C8
  3
AcDbVariableDictionary
350
2C4
  0
SUN
  5
6D
330
29
100
AcDbSun
 90
        1
290
     0
 63
     7
421
 16777215
 40
1.0
291
     1
 91
  2455826
 92
 54000000
292
     0
 70
     2
 71
   256
280
     1
  0
DICTIONARY
  5
2CB
102
{ACAD_REACTORS
330
C
102
}
330
C
100
AcDbDictionary
281
     1
  0
DICTIONARY
  5
D
102
{ACAD_REACTORS
330
C
102
}
330
C
100
AcDbDictionary
281
     1
  0
DICTIONARY
  5
1A
102
{ACAD_REACTORS
330
C
102
}
330
C
100
AcDbDictionary
281
     1
  3
Layout1
350
1E
  3
Layout2
350
26
  3
Model
350
22
  0
DICTIONARY
  5
43
102
{ACAD_REACTORS
330
C
102
}
330
C
100
AcDbDictionary
281
     1
  3
ByBlock
350
45
  3
ByLayer
350
44
  3
Global
350
46
  0
DICTIONARY
  5
6B
102
{ACAD_REACTORS
330
C
102
}
330
C
100
AcDbDictionary
281
     1
  3
Standard
350
6C
  0
DICTIONARY
  5
17
102
{ACAD_REACTORS
330
C
102
}
330
C
100
AcDbDictionary
281
     1
  3
Standard
350
18
  0
DICTIONARY
  5
19
102
{ACAD_REACTORS
330
C
102
}
330
C
100
AcDbDictionary
281
     1
  0
ACDBDICTIONARYWDFLT
  5
E
102
{ACAD_REACTORS
330
C
102
}
330
C
100
AcDbDictionary
281
     1
  3
Normal
350
F
100
AcDbDictionaryWithDefault
340
F
  0
DICTIONARY
  5
47
102
{ACAD_REACTORS
330
C
102
}
330
C
100
AcDbDictionary
281
     1
  3
A0
350
48
  3
A1
350
49
  3
A2
350
4A
  3
A3
350
4B
  3
A4
350
4C
  3
A5
350
4D
  3
A6
350
4E
  3
A7
350
4F
  3
A8
350
50
  3
A9
350
51
  3
B0
350
52
  3
B1
350
53
  3
B2
350
54
  3
B3
350
55
  3
B4
350
56
  3
B5
350
57
  3
B6
350
58
  3
B7
350
59
  3
B8
350
5A
  3
B9
350
5B
  3
C0
350
5C
  3
C1
350
5D
  3
C2
350
5E
  3
C3
350
5F
  3
C4
350
60
  3
C5
350
61
  3
C6
350
62
  3
C7
350
63
  3
C8
350
64
  3
C9
350
65
  3
D0
350
66
  3
D1
350
67
  3
D2
350
68
  0
DICTIONARY
  5
2CC
102
{ACAD_REACTORS
330
C
102
}
330
C
100
AcDbDictionary
281
     1
  0
DICTIONARY
  5
69
102
{ACAD_REACTORS
330
C
102
}
330
C
100
AcDbDictionary
281
     1
  3
Standard
350
6A
  0
DICTIONARY
  5
2A
102
{ACAD_REACTORS
330
C
102
}
330
C
100
AcDbDictionary
281
     1
  3
2dWireframe
350
2F
  3
Basic
350
32
  3
Brighten
350
36
  3
ColorChange
350
3A
  3
Conceptual
350
34
  3
Dim
350
35
  3
EdgeColorOff
350
3D
  3
Facepattern
350
39
  3
Flat
350
2B
  3
FlatWithEdges
350
2C
  3
Gouraud
350
2D
  3
GouraudWithEdges
350
2E
  3
Hidden
350
31
  3
JitterOff
350
3B
  3
Linepattern
350
38
  3
OverhangOff
350
3C
  3
Realistic
350
33
  3
Shaded
350
42
  3
Shaded with edges
350
41
  3
Shades of Gray
350
3E
  3
Sketchy
350
3F
  3
Thicken
350
37
  3
Wireframe
350
30
  3
X-Ray
350
40
  0
XRECORD
  5
2C8
102
{ACAD_REACTORS
330
C
102
}
330
C
100
AcDbXrecord
280
     1
 90
        1
330
6A
  0
DICTIONARY
  5
2C4
102
{ACAD_REACTORS
330
C
102
}
330
C
100
AcDbDictionary
281
     1
  3
CANNOSCALE
350
2C5
  3
CMLEADERSTYLE
350
2CA
  3
CTABLESTYLE
350
2C9
  3
SECTIONTHICKNESSINC
350
2CD
  0
LAYOUT
  5
1E
102
{ACAD_REACTORS
330
1A
102
}
330
1A
100
AcDbPlotSettings
  1

  2
none_device
  4

  6

 40
0.0
 41
0.0
 42
0.0
 43
0.0
 44
0.0
 45
0.0
 46
0.0
 47
0.0
 48
0.0
 49
0.0
140
0.0
141
0.0
142
1.0
143
1.0
 70
   688
 72
     1
 73
     0
 74
     5
  7

 75
    16
 76
     0
 77
     2
 78
   300
147
1.0
148
0.0
149
0.0
100
AcDbLayout
  1
Layout1
 70
     1
 71
     1
 10
0.0
 20
0.0
 11
420.0
 21
297.0
 12
0.0
 22
0.0
 32
0.0
 14
1.0000000000E+20
 24
1.0000000000E+20
 34
1.0000000000E+20
 15
-1.0000000000E+20
 25
-1.0000000000E+20
 35
-1.0000000000E+20
146
0.0
 13
0.0
 23
0.0
 33
0.0
 16
1.0
 26
0.0
 36
0.0
 17
0.0
 27
1.0
 37
0.0
 76
     0
330
1B
  0
LAYOUT
  5
26
102
{ACAD_REACTORS
330
1A
102
}
330
1A
100
AcDbPlotSettings
  1

  2
none_device
  4

  6

 40
0.0
 41
0.0
 42
0.0
 43
0.0
 44
0.0
 45
0.0
 46
0.0
 47
0.0
 48
0.0
 49
0.0
140
0.0
141
0.0
142
1.0
143
1.0
 70
   688
 72
     1
 73
     0
 74
     5
  7

 75
    16
 76
     0
 77
     2
 78
   300
147
1.0
148
0.0
149
0.0
100
AcDbLayout
  1
Layout2
 70
     1
 71
     2
 10
0.0
 20
0.0
 11
0.0
 21
0.0
 12
0.0
 22
0.0
 32
0.0
 14
0.0
 24
0.0
 34
0.0
 15
0.0
 25
0.0
 35
0.0
146
0.0
 13
0.0
 23
0.0
 33
0.0
 16
1.0
 26
0.0
 36
0.0
 17
0.0
 27
1.0
 37
0.0
 76
     0
330
23
  0
LAYOUT
  5
22
102
{ACAD_REACTORS
330
1A
102
}
330
1A
100
AcDbPlotSettings
  1

  2
none_device
  4
Letter_(8.50_x_11.00_Inches)
  6

 40
6.35
 41
6.35
 42
6.35000508
 43
6.35000508
 44
215.9
 45
279.4
 46
0.0
 47
0.0
 48
0.0
 49
0.0
140
0.0
141
0.0
142
1.0
143
1.0
 70
  1712
 72
     1
 73
     0
 74
     0
  7

 75
     0
 76
     0
 77
     2
 78
   300
147
1.0
148
0.0
149
0.0
100
AcDbLayout
  1
Model
 70
     1
 71
     0
 10
0.0
 20
0.0
 11
594.0
 21
420.0
 12
0.0
 22
0.0
 32
0.0
 14
0.0
 24
0.0
 34
0.0
 15
594.0
 25
420.0
 35
0.0
146
0.0
 13
0.0
 23
0.0
 33
0.0
 16
1.0
 26
0.0
 36
0.0
 17
0.0
 27
1.0
 37
0.0
 76
     0
330
1F
331
29
  0
MATERIAL
  5
45
102
{ACAD_REACTORS
330
43
102
}
330
43
100
AcDbMaterial
  1
ByBlock
 72
     1
 94
      127
  0
MATERIAL
  5
44
102
{ACAD_REACTORS
330
43
102
}
330
43
100
AcDbMaterial
  1
ByLayer
 72
     1
 94
      127
  0
MATERIAL
  5
46
102
{ACAD_REACTORS
330
43
102
}
330
43
100
AcDbMaterial
  1
Global
 72
     1
 94
      127
  0
MLEADERSTYLE
  5
6C
102
{ACAD_REACTORS
330
6B
102
}
330
6B
100
AcDbMLeaderStyle
179
     2
170
     2
171
     1
172
     0
 90
        2
 40
0.0
 41
0.0
173
     1
 91
-1056964608
340
14
 92
       -2
290
     1
 42
2.0
291
     1
 43
8.0
  3
Standard
341
0
 44
4.0
300

342
11
174
     1
178
     6
175
     1
176
     0
 93
-1056964608
 45
4.0
292
     0
297
     0
 46
4.0
343
0
 94
-1056964608
 47
1.0
 49
1.0
140
1.0
293
     1
141
0.0
294
     1
177
     0
142
1.0
295
     0
296
     0
143
3.75
271
     0
272
     9
273
     9
298
     0
  0
MLINESTYLE
  5
18
102
{ACAD_REACTORS
330
17
102
}
330
17
100
AcDbMlineStyle
  2
Standard
 70
     0
  3

 62
   256
 51
90.0
 52
90.0
 71
     2
 49
0.5
 62
   256
  6
BYLAYER
 49
-0.5
 62
   256
  6
BYLAYER
  0
ACDBPLACEHOLDER
  5
F
102
{ACAD_REACTORS
330
E
102
}
330
E
  0
SCALE
  5
48
102
{ACAD_REACTORS
330
47
102
}
330
47
100
AcDbScale
 70
     0
300
1:1
140
1.0
141
1.0
290
     1
  0
SCALE
  5
49
102
{ACAD_REACTORS
330
47
102
}
330
47
100
AcDbScale
 70
     0
300
1:2
140
1.0
141
2.0
290
     0
  0
SCALE
  5
4A
102
{ACAD_REACTORS
330
47
102
}
330
47
100
AcDbScale
 70
     0
300
1:4
140
1.0
141
4.0
290
     0
  0
SCALE
  5
4B
102
{ACAD_REACTORS
330
47
102
}
330
47
100
AcDbScale
 70
     0
300
1:5
140
1.0
141
5.0
290
     0
  0
SCALE
  5
4C
102
{ACAD_REACTORS
330
47
102
}
330
47
100
AcDbScale
 70
     0
300
1:8
140
1.0
141
8.0
290
     0
  0
SCALE
  5
4D
102
{ACAD_REACTORS
330
47
102
}
330
47
100
AcDbScale
 70
     0
300
1:10
140
1.0
141
10.0
290
     0
  0
SCALE
  5
4E
102
{ACAD_REACTORS
330
47
102
}
330
47
100
AcDbScale
 70
     0
300
1:16
140
1.0
141
16.0
290
     0
  0
SCALE
  5
4F
102
{ACAD_REACTORS
330
47
102
}
330
47
100
AcDbScale
 70
     0
300
1:20
140
1.0
141
20.0
290
     0
  0
SCALE
  5
50
102
{ACAD_REACTORS
330
47
102
}
330
47
100
AcDbScale
 70
     0
300
1:30
140
1.0
141
30.0
290
     0
  0
SCALE
  5
51
102
{ACAD_REACTORS
330
47
102
}
330
47
100
AcDbScale
 70
     0
300
1:40
140
1.0
141
40.0
290
     0
  0
SCALE
  5
52
102
{ACAD_REACTORS
330
47
102
}
330
47
100
AcDbScale
 70
     0
300
1:50
140
1.0
141
50.0
290
     0
  0
SCALE
  5
53
102
{ACAD_REACTORS
330
47
102
}
330
47
100
AcDbScale
 70
     0
300
1:100
140
1.0
141
100.0
290
     0
  0
SCALE
  5
54
102
{ACAD_REACTORS
330
47
102
}
330
47
100
AcDbScale
 70
     0
300
2:1
140
2.0
141
1.0
290
     0
  0
SCALE
  5
55
102
{ACAD_REACTORS
330
47
102
}
330
47
100
AcDbScale
 70
     0
300
4:1
140
4.0
141
1.0
290
     0
  0
SCALE
  5
56
102
{ACAD_REACTORS
330
47
102
}
330
47
100
AcDbScale
 70
     0
300
8:1
140
8.0
141
1.0
290
     0
  0
SCALE
  5
57
102
{ACAD_REACTORS
330
47
102
}
330
47
100
AcDbScale
 70
     0
300
10:1
140
10.0
141
1.0
290
     0
  0
SCALE
  5
58
102
{ACAD_REACTORS
330
47
102
}
330
47
100
AcDbScale
 70
     0
300
100:1
140
100.0
141
1.0
290
     0
  0
SCALE
  5
59
102
{ACAD_REACTORS
330
47
102
}
330
47
100
AcDbScale
 70
     0
300
1/128" = 1'-0"
140
0.0078125
141
12.0
290
     0
  0
SCALE
  5
5A
102
{ACAD_REACTORS
330
47
102
}
330
47
100
AcDbScale
 70
     0
300
1/64" = 1'-0"
140
0.015625
141
12.0
290
     0
  0
SCALE
  5
5B
102
{ACAD_REACTORS
330
47
102
}
330
47
100
AcDbScale
 70
     0
300
1/32" = 1'-0"
140
0.03125
141
12.0
290
     0
  0
SCALE
  5
5C
102
{ACAD_REACTORS
330
47
102
}
330
47
100
AcDbScale
 70
     0
300
1/16" = 1'-0"
140
0.0625
141
12.0
290
     0
  0
SCALE
  5
5D
102
{ACAD_REACTORS
330
47
102
}
330
47
100
AcDbScale
 70
     0
300
3/32" = 1'-0"
140
0.09375
141
12.0
290
     0
  0
SCALE
  5
5E
102
{ACAD_REACTORS
330
47
102
}
330
47
100
AcDbScale
 70
     0
300
1/8" = 1'-0"
140
0.125
141
12.0
290
     0
  0
SCALE
  5
5F
102
{ACAD_REACTORS
330
47
102
}
330
47
100
AcDbScale
 70
     0
300
3/16" = 1'-0"
140
0.1875
141
12.0
290
     0
  0
SCALE
  5
60
102
{ACAD_REACTORS
330
47
102
}
330
47
100
AcDbScale
 70
     0
300
1/4" = 1'-0"
140
0.25
141
12.0
290
     0
  0
SCALE
  5
61
102
{ACAD_REACTORS
330
47
102
}
330
47
100
AcDbScale
 70
     0
300
3/8" = 1'-0"
140
0.375
141
12.0
290
     0
  0
SCALE
  5
62
102
{ACAD_REACTORS
330
47
102
}
330
47
100
AcDbScale
 70
     0
300
1/2" = 1'-0"
140
0.5
141
12.0
290
     0
  0
SCALE
  5
63
102
{ACAD_REACTORS
330
47
102
}
330
47
100
AcDbScale
 70
     0
300
3/4" = 1'-0"
140
0.75
141
12.0
290
     0
  0
SCALE
  5
64
102
{ACAD_REACTORS
330
47
102
}
330
47
100
AcDbScale
 70
     0
300
1" = 1'-0"
140
1.0
141
12.0
290
     0
  0
SCALE
  5
65
102
{ACAD_REACTORS
330
47
102
}
330
47
100
AcDbScale
 70
     0
300
1-1/2" = 1'-0"
140
1.5
141
12.0
290
     0
  0
SCALE
  5
66
102
{ACAD_REACTORS
330
47
102
}
330
47
100
AcDbScale
 70
     0
300
3" = 1'-0"
140
3.0
141
12.0
290
     0
  0
SCALE
  5
67
102
{ACAD_REACTORS
330
47
102
}
330
47
100
AcDbScale
 70
     0
300
6" = 1'-0"
140
6.0
141
12.0
290
     0
  0
SCALE
  5
68
102
{ACAD_REACTORS
330
47
102
}
330
47
100
AcDbScale
 70
     0
300
1'-0" = 1'-0"
140
12.0
141
12.0
290
     0
  0
TABLESTYLE
  5
6A
102
{ACAD_REACTORS
330
69
102
}
102
{ACAD_XDICTIONARY
360
2C6
102
}
330
69
100
AcDbTableStyle
  3
Standard
 70
     0
 71
     0
 40
0.06
 41
0.06
280
     0
281
     0
  7
Standard
140
4.5
170
     2
 62
     0
 63
   257
283
     0
 90
        4
 91
        0
  1

274
    -2
284
     1
 64
     0
275
    -2
285
     1
 65
     0
276
    -2
286
     1
 66
     0
277
    -2
287
     1
 67
     0
278
    -2
288
     1
 68
     0
279
    -2
289
     1
 69
     0
  7
Standard
140
6.0
170
     5
 62
     0
 63
   257
283
     0
 90
        4
 91
        0
  1

274
    -2
284
     1
 64
     0
275
    -2
285
     1
 65
     0
276
    -2
286
     1
 66
     0
277
    -2
287
     1
 67
     0
278
    -2
288
     1
 68
     0
279
    -2
289
     1
 69
     0
  7
Standard
140
4.5
170
     5
 62
     0
 63
   257
283
     0
 90
        4
 91
        0
  1

274
    -2
284
     1
 64
     0
275
    -2
285
     1
 65
     0
276
    -2
286
     1
 66
     0
277
    -2
287
     1
 67
     0
278
    -2
288
     1
 68
     0
279
    -2
289
     1
 69
     0
  0
VISUALSTYLE
  5
2F
102
{ACAD_REACTORS
330
2A
102
}
330
2A
100
AcDbVisualStyle
  2
2dWireframe
 70
     4
177
     3
291
     0
 70
    58
 90
        0
176
     1
 90
        2
176
     1
 90
        0
176
     1
 90
        0
176
     1
 40
0.6
176
     1
 40
30.0
176
     1
 62
     7
420
 16777215
176
     1
 90
        1
176
     1
 90
        4
176
     1
 62
     7
176
     1
 62
   257
176
     1
 90
        1
176
     1
 90
        1
176
     1
 40
1.0
176
     1
 90
        0
176
     1
 62
   257
176
     1
 40
1.0
176
     1
 90
        1
176
     1
 90
        6
176
     1
 90
        2
176
     1
 62
     7
176
     1
 90
        5
176
     1
 90
        0
176
     1
 90
        0
176
     1
290
     0
176
     1
 90
        1
176
     1
 40
0.0
176
     1
 90
        0
176
     1
290
     1
176
     1
290
     1
176
     1
290
     0
176
     1
290
     0
176
     1
290
     0
176
     1
290
     0
176
     1
290
     0
176
     1
290
     0
176
     1
290
     0
176
     1
 90
       50
176
     1
 40
0.0
176
     1
 40
1.0
176
     1
 90
        0
176
     1
 62
    18
420
        0
176
     1
 90
       50
176
     1
 90
        3
176
     1
 62
     5
420
      255
176
     1
290
     0
176
     1
 90
       50
176
     1
 90
       50
176
     1
 90
       50
176
     1
290
     0
176
     1
 90
       50
176
     1
 62
   256
176
     0
 40
1.0
176
     0
 90
        2
176
     1
  1
strokes_ogs.tif
176
     1
290
     0
176
     1
 40
1.0
176
     1
 40
1.0
176
     1
  0
VISUALSTYLE
  5
32
102
{ACAD_REACTORS
330
2A
102
}
330
2A
100
AcDbVisualStyle
  2
Basic
 70
     7
177
     3
291
     1
 70
    58
 90
        1
176
     1
 90
        0
176
     1
 90
        1
176
     1
 90
        0
176
     1
 40
0.6
176
     1
 40
30.0
176
     1
 62
     7
420
 16777215
176
     1
 90
        0
176
     1
 90
        4
176
     1
 62
     7
176
     1
 62
   257
176
     1
 90
        1
176
     1
 90
        1
176
     1
 40
1.0
176
     1
 90
        8
176
     1
 62
     7
176
     1
 40
1.0
176
     1
 90
        1
176
     1
 90
        6
176
     1
 90
        2
176
     1
 62
     7
176
     1
 90
        5
176
     1
 90
        0
176
     1
 90
        0
176
     1
290
     0
176
     1
 90
        1
176
     1
 40
0.0
176
     1
 90
        0
176
     1
290
     0
176
     1
290
     1
176
     1
290
     1
176
     1
290
     0
176
     1
290
     0
176
     1
290
     0
176
     1
290
     0
176
     1
290
     0
176
     1
290
     0
176
     1
 90
       50
176
     1
 40
0.0
176
     1
 40
1.0
176
     1
 90
        0
176
     1
 62
    18
420
        0
176
     1
 90
       50
176
     1
 90
        3
176
     1
 62
     5
420
      255
176
     1
290
     0
176
     1
 90
       50
176
     1
 90
       50
176
     1
 90
       50
176
     1
290
     0
176
     1
 90
       50
176
     1
 62
   256
176
     0
 40
1.0
176
     0
 90
        2
176
     1
  1
strokes_ogs.tif
176
     1
290
     0
176
     1
 40
1.0
176
     1
 40
1.0
176
     1
  0
VISUALSTYLE
  5
36
102
{ACAD_REACTORS
330
2A
102
}
330
2A
100
AcDbVisualStyle
  2
Brighten
 70
    12
177
     3
291
     1
 70
    58
 90
        2
176
     1
 90
        2
176
     1
 90
        0
176
     1
 90
        0
176
     1
 40
0.6
176
     1
 40
30.0
176
     1
 62
     7
420
 16777215
176
     1
 90
        1
176
     1
 90
        4
176
     1
 62
     7
176
     1
 62
   257
176
     1
 90
        1
176
     1
 90
        1
176
     1
 40
1.0
176
     1
 90
        8
176
     1
 62
     7
176
     1
 40
1.0
176
     1
 90
        1
176
     1
 90
        6
176
     1
 90
        2
176
     1
 62
     7
176
     1
 90
        5
176
     1
 90
        0
176
     1
 90
        0
176
     1
290
     0
176
     1
 90
        1
176
     1
 40
50.0
176
     1
 90
        0
176
     1
290
     0
176
     1
290
     1
176
     1
290
     1
176
     1
290
     0
176
     1
290
     0
176
     1
290
     0
176
     1
290
     0
176
     1
290
     0
176
     1
290
     0
176
     1
 90
       50
176
     1
 40
0.0
176
     1
 40
1.0
176
     1
 90
        0
176
     1
 62
    18
420
        0
176
     1
 90
       50
176
     1
 90
        3
176
     1
 62
     5
420
      255
176
     1
290
     0
176
     1
 90
       50
176
     1
 90
       50
176
     1
 90
       50
176
     1
290
     0
176
     1
 90
       50
176
     1
 62
   256
176
     0
 40
1.0
176
     0
 90
        2
176
     1
  1
strokes_ogs.tif
176
     1
290
     0
176
     1
 40
1.0
176
     1
 40
1.0
176
     1
  0
VISUALSTYLE
  5
3A
102
{ACAD_REACTORS
330
2A
102
}
330
2A
100
AcDbVisualStyle
  2
ColorChange
 70
    16
177
     3
291
     1
 70
    58
 90
        2
176
     1
 90
        2
176
     1
 90
        3
176
     1
 90
        0
176
     1
 40
0.6
176
     1
 40
30.0
176
     1
 62
     8
420
  8421504
176
     1
 90
        1
176
     1
 90
        4
176
     1
 62
     7
176
     1
 62
   257
176
     1
 90
        1
176
     1
 90
        1
176
     1
 40
1.0
176
     1
 90
        8
176
     1
 62
     8
420
  8421504
176
     1
 40
1.0
176
     1
 90
        1
176
     1
 90
        6
176
     1
 90
        2
176
     1
 62
     7
176
     1
 90
        5
176
     1
 90
        0
176
     1
 90
        0
176
     1
290
     0
176
     1
 90
        1
176
     1
 40
0.0
176
     1
 90
        0
176
     1
290
     0
176
     1
290
     1
176
     1
290
     1
176
     1
290
     0
176
     1
290
     0
176
     1
290
     0
176
     1
290
     0
176
     1
290
     0
176
     1
290
     0
176
     1
 90
       50
176
     1
 40
0.0
176
     1
 40
1.0
176
     1
 90
        0
176
     1
 62
    18
420
        0
176
     1
 90
       50
176
     1
 90
        3
176
     1
 62
     5
420
      255
176
     1
290
     0
176
     1
 90
       50
176
     1
 90
       50
176
     1
 90
       50
176
     1
290
     0
176
     1
 90
       50
176
     1
 62
   256
176
     0
 40
1.0
176
     0
 90
        2
176
     1
  1
strokes_ogs.tif
176
     1
290
     0
176
     1
 40
1.0
176
     1
 40
1.0
176
     1
  0
VISUALSTYLE
  5
34
102
{ACAD_REACTORS
330
2A
102
}
330
2A
100
AcDbVisualStyle
  2
Conceptual
 70
     9
177
     3
291
     0
 70
    58
 90
        3
176
     1
 90
        2
176
     1
 90
        0
176
     1
 90
        0
176
     1
 40
0.6
176
     1
 40
30.0
176
     1
 62
     7
420
 16777215
176
     1
 90
        2
176
     1
 90
        2
176
     1
 62
     7
176
     1
 62
   257
176
     1
 90
        1
176
     1
 90
        1
176
     1
 40
179.0
176
     1
 90
        8
176
     1
 62
     7
176
     1
 40
1.0
176
     1
 90
        1
176
     1
 90
        6
176
     1
 90
        2
176
     1
 62
     7
176
     1
 90
        3
176
     1
 90
        0
176
     1
 90
        0
176
     1
290
     0
176
     1
 90
        1
176
     1
 40
0.0
176
     1
 90
        0
176
     1
290
     0
176
     1
290
     1
176
     1
290
     1
176
     1
290
     0
176
     1
290
     0
176
     1
290
     0
176
     1
290
     0
176
     1
290
     0
176
     1
290
     0
176
     1
 90
       50
176
     1
 40
0.0
176
     1
 40
1.0
176
     1
 90
        0
176
     1
 62
    18
420
        0
176
     1
 90
       50
176
     1
 90
        3
176
     1
 62
     5
420
      255
176
     1
290
     0
176
     1
 90
       50
176
     1
 90
       50
176
     1
 90
       50
176
     1
290
     0
176
     1
 90
       50
176
     1
 62
   256
176
     0
 40
1.0
176
     0
 90
        2
176
     1
  1
strokes_ogs.tif
176
     1
290
     0
176
     1
 40
1.0
176
     1
 40
1.0
176
     1
  0
VISUALSTYLE
  5
35
102
{ACAD_REACTORS
330
2A
102
}
330
2A
100
AcDbVisualStyle
  2
Dim
 70
    11
177
     3
291
     1
 70
    58
 90
        2
176
     1
 90
        2
176
     1
 90
        0
176
     1
 90
        0
176
     1
 40
0.6
176
     1
 40
30.0
176
     1
 62
     7
420
 16777215
176
     1
 90
        1
176
     1
 90
        4
176
     1
 62
     7
176
     1
 62
   257
176
     1
 90
        1
176
     1
 90
        1
176
     1
 40
1.0
176
     1
 90
        8
176
     1
 62
     7
176
     1
 40
1.0
176
     1
 90
        1
176
     1
 90
        6
176
     1
 90
        2
176
     1
 62
     7
176
     1
 90
        5
176
     1
 90
        0
176
     1
 90
        0
176
     1
290
     0
176
     1
 90
        1
176
     1
 40
-50.0
176
     1
 90
        0
176
     1
290
     0
176
     1
290
     1
176
     1
290
     1
176
     1
290
     0
176
     1
290
     0
176
     1
290
     0
176
     1
290
     0
176
     1
290
     0
176
     1
290
     0
176
     1
 90
       50
176
     1
 40
0.0
176
     1
 40
1.0
176
     1
 90
        0
176
     1
 62
    18
420
        0
176
     1
 90
       50
176
     1
 90
        3
176
     1
 62
     5
420
      255
176
     1
290
     0
176
     1
 90
       50
176
     1
 90
       50
176
     1
 90
       50
176
     1
290
     0
176
     1
 90
       50
176
     1
 62
   256
176
     0
 40
1.0
176
     0
 90
        2
176
     1
  1
strokes_ogs.tif
176
     1
290
     0
176
     1
 40
1.0
176
     1
 40
1.0
176
     1
  0
VISUALSTYLE
  5
3D
102
{ACAD_REACTORS
330
2A
102
}
330
2A
100
AcDbVisualStyle
  2
EdgeColorOff
 70
    22
177
     3
291
     1
 70
    58
 90
        2
176
     0
 90
        2
176
     0
 90
        0
176
     0
 90
        0
176
     0
 40
0.6
176
     0
 40
30.0
176
     0
 62
     7
420
 16777215
176
     0
 90
        1
176
     0
 90
        4
176
     0
 62
     7
176
     0
 62
   257
176
     0
 90
        1
176
     0
 90
        1
176
     0
 40
1.0
176
     0
 90
        8
176
     2
 62
     7
176
     0
 40
1.0
176
     0
 90
        1
176
     0
 90
        6
176
     0
 90
        2
176
     0
 62
     7
176
     0
 90
        5
176
     0
 90
        0
176
     0
 90
        0
176
     0
290
     0
176
     0
 90
        1
176
     0
 40
0.0
176
     0
 90
        0
176
     0
290
     0
176
     0
290
     1
176
     0
290
     1
176
     0
290
     0
176
     0
290
     0
176
     0
290
     0
176
     0
290
     0
176
     0
290
     0
176
     0
290
     0
176
     0
 90
       50
176
     0
 40
0.0
176
     0
 40
1.0
176
     0
 90
        0
176
     0
 62
    18
420
        0
176
     0
 90
       50
176
     0
 90
        3
176
     0
 62
     5
420
      255
176
     0
290
     0
176
     0
 90
       50
176
     0
 90
       50
176
     0
 90
       50
176
     0
290
     0
176
     0
 90
       50
176
     0
 62
   256
176
     0
 40
1.0
176
     0
 90
        2
176
     0
  1
strokes_ogs.tif
176
     0
290
     0
176
     0
 40
1.0
176
     0
 40
1.0
176
     0
  0
VISUALSTYLE
  5
39
102
{ACAD_REACTORS
330
2A
102
}
330
2A
100
AcDbVisualStyle
  2
Facepattern
 70
    15
177
     3
291
     1
 70
    58
 90
        2
176
     1
 90
        2
176
     1
 90
        0
176
     1
 90
        0
176
     1
 40
0.6
176
     1
 40
30.0
176
     1
 62
     7
420
 16777215
176
     1
 90
        1
176
     1
 90
        4
176
     1
 62
     7
176
     1
 62
   257
176
     1
 90
        1
176
     1
 90
        1
176
     1
 40
1.0
176
     1
 90
        8
176
     1
 62
     7
176
     1
 40
1.0
176
     1
 90
        1
176
     1
 90
        6
176
     1
 90
        2
176
     1
 62
     7
176
     1
 90
        5
176
     1
 90
        0
176
     1
 90
        0
176
     1
290
     0
176
     1
 90
        1
176
     1
 40
0.0
176
     1
 90
        0
176
     1
290
     0
176
     1
290
     1
176
     1
290
     1
176
     1
290
     0
176
     1
290
     0
176
     1
290
     0
176
     1
290
     0
176
     1
290
     0
176
     1
290
     0
176
     1
 90
       50
176
     1
 40
0.0
176
     1
 40
1.0
176
     1
 90
        0
176
     1
 62
    18
420
        0
176
     1
 90
       50
176
     1
 90
        3
176
     1
 62
     5
420
      255
176
     1
290
     0
176
     1
 90
       50
176
     1
 90
       50
176
     1
 90
       50
176
     1
290
     0
176
     1
 90
       50
176
     1
 62
   256
176
     0
 40
1.0
176
     0
 90
        2
176
     1
  1
strokes_ogs.tif
176
     1
290
     0
176
     1
 40
1.0
176
     1
 40
1.0
176
     1
  0
VISUALSTYLE
  5
2B
102
{ACAD_REACTORS
330
2A
102
}
330
2A
100
AcDbVisualStyle
  2
Flat
 70
     0
177
     3
291
     1
 70
    58
 90
        2
176
     1
 90
        1
176
     1
 90
        1
176
     1
 90
        2
176
     1
 40
0.6
176
     1
 40
30.0
176
     1
 62
     7
420
 16777215
176
     1
 90
        0
176
     1
 90
        0
176
     1
 62
     7
176
     1
 62
   257
176
     1
 90
        1
176
     1
 90
        1
176
     1
 40
1.0
176
     1
 90
        8
176
     1
 62
     7
176
     1
 40
1.0
176
     1
 90
        1
176
     1
 90
        6
176
     1
 90
        2
176
     1
 62
     7
176
     1
 90
        5
176
     1
 90
        0
176
     1
 90
        0
176
     1
290
     0
176
     1
 90
       13
176
     1
 40
0.0
176
     1
 90
        0
176
     1
290
     0
176
     1
290
     1
176
     1
290
     1
176
     1
290
     0
176
     1
290
     0
176
     1
290
     0
176
     1
290
     0
176
     1
290
     0
176
     1
290
     0
176
     1
 90
       50
176
     1
 40
0.0
176
     1
 40
1.0
176
     1
 90
        0
176
     1
 62
    18
420
        0
176
     1
 90
       50
176
     1
 90
        3
176
     1
 62
     5
420
      255
176
     1
290
     0
176
     1
 90
       50
176
     1
 90
       50
176
     1
 90
       50
176
     1
290
     0
176
     1
 90
       50
176
     1
 62
   256
176
     0
 40
1.0
176
     0
 90
        2
176
     1
  1
strokes_ogs.tif
176
     1
290
     0
176
     1
 40
1.0
176
     1
 40
1.0
176
     1
  0
VISUALSTYLE
  5
2C
102
{ACAD_REACTORS
330
2A
102
}
330
2A
100
AcDbVisualStyle
  2
FlatWithEdges
 70
     1
177
     3
291
     1
 70
    58
 90
        2
176
     1
 90
        1
176
     1
 90
        1
176
     1
 90
        2
176
     1
 40
0.6
176
     1
 40
30.0
176
     1
 62
     7
420
 16777215
176
     1
 90
        1
176
     1
 90
        0
176
     1
 62
     7
176
     1
 62
   257
176
     1
 90
        1
176
     1
 90
        1
176
     1
 40
1.0
176
     1
 90
        0
176
     1
 62
   257
176
     1
 40
1.0
176
     1
 90
        1
176
     1
 90
        6
176
     1
 90
        2
176
     1
 62
     7
176
     1
 90
        5
176
     1
 90
        0
176
     1
 90
        0
176
     1
290
     0
176
     1
 90
       13
176
     1
 40
0.0
176
     1
 90
        0
176
     1
290
     0
176
     1
290
     1
176
     1
290
     1
176
     1
290
     0
176
     1
290
     0
176
     1
290
     0
176
     1
290
     0
176
     1
290
     0
176
     1
290
     0
176
     1
 90
       50
176
     1
 40
0.0
176
     1
 40
1.0
176
     1
 90
        0
176
     1
 62
    18
420
        0
176
     1
 90
       50
176
     1
 90
        3
176
     1
 62
     5
420
      255
176
     1
290
     0
176
     1
 90
       50
176
     1
 90
       50
176
     1
 90
       50
176
     1
290
     0
176
     1
 90
       50
176
     1
 62
   256
176
     0
 40
1.0
176
     0
 90
        2
176
     1
  1
strokes_ogs.tif
176
     1
290
     0
176
     1
 40
1.0
176
     1
 40
1.0
176
     1
  0
VISUALSTYLE
  5
2D
102
{ACAD_REACTORS
330
2A
102
}
330
2A
100
AcDbVisualStyle
  2
Gouraud
 70
     2
177
     3
291
     1
 70
    58
 90
        2
176
     1
 90
        2
176
     1
 90
        1
176
     1
 90
        2
176
     1
 40
0.6
176
     1
 40
30.0
176
     1
 62
     7
420
 16777215
176
     1
 90
        0
176
     1
 90
        0
176
     1
 62
     7
176
     1
 62
   257
176
     1
 90
        1
176
     1
 90
        1
176
     1
 40
1.0
176
     1
 90
        0
176
     1
 62
     7
176
     1
 40
1.0
176
     1
 90
        1
176
     1
 90
        6
176
     1
 90
        2
176
     1
 62
     7
176
     1
 90
        5
176
     1
 90
        0
176
     1
 90
        0
176
     1
290
     0
176
     1
 90
       13
176
     1
 40
0.0
176
     1
 90
        0
176
     1
290
     0
176
     1
290
     1
176
     1
290
     1
176
     1
290
     0
176
     1
290
     0
176
     1
290
     0
176
     1
290
     0
176
     1
290
     0
176
     1
290
     0
176
     1
 90
       50
176
     1
 40
0.0
176
     1
 40
1.0
176
     1
 90
        0
176
     1
 62
    18
420
        0
176
     1
 90
       50
176
     1
 90
        3
176
     1
 62
     5
420
      255
176
     1
290
     0
176
     1
 90
       50
176
     1
 90
       50
176
     1
 90
       50
176
     1
290
     0
176
     1
 90
       50
176
     1
 62
   256
176
     0
 40
1.0
176
     0
 90
        2
176
     1
  1
strokes_ogs.tif
176
     1
290
     0
176
     1
 40
1.0
176
     1
 40
1.0
176
     1
  0
VISUALSTYLE
  5
2E
102
{ACAD_REACTORS
330
2A
102
}
330
2A
100
AcDbVisualStyle
  2
GouraudWithEdges
 70
     3
177
     3
291
     1
 70
    58
 90
        2
176
     1
 90
        2
176
     1
 90
        1
176
     1
 90
        2
176
     1
 40
0.6
176
     1
 40
30.0
176
     1
 62
     7
420
 16777215
176
     1
 90
        1
176
     1
 90
        0
176
     1
 62
     7
176
     1
 62
   257
176
     1
 90
        1
176
     1
 90
        1
176
     1
 40
1.0
176
     1
 90
        0
176
     1
 62
   257
176
     1
 40
1.0
176
     1
 90
        1
176
     1
 90
        6
176
     1
 90
        2
176
     1
 62
     7
176
     1
 90
        5
176
     1
 90
        0
176
     1
 90
        0
176
     1
290
     0
176
     1
 90
       13
176
     1
 40
0.0
176
     1
 90
        0
176
     1
290
     0
176
     1
290
     1
176
     1
290
     1
176
     1
290
     0
176
     1
290
     0
176
     1
290
     0
176
     1
290
     0
176
     1
290
     0
176
     1
290
     0
176
     1
 90
       50
176
     1
 40
0.0
176
     1
 40
1.0
176
     1
 90
        0
176
     1
 62
    18
420
        0
176
     1
 90
       50
176
     1
 90
        3
176
     1
 62
     5
420
      255
176
     1
290
     0
176
     1
 90
       50
176
     1
 90
       50
176
     1
 90
       50
176
     1
290
     0
176
     1
 90
       50
176
     1
 62
   256
176
     0
 40
1.0
176
     0
 90
        2
176
     1
  1
strokes_ogs.tif
176
     1
290
     0
176
     1
 40
1.0
176
     1
 40
1.0
176
     1
  0
VISUALSTYLE
  5
31
102
{ACAD_REACTORS
330
2A
102
}
330
2A
100
AcDbVisualStyle
  2
Hidden
 70
     6
177
     3
291
     0
 70
    58
 90
        1
176
     1
 90
        2
176
     1
 90
        2
176
     1
 90
        0
176
     1
 40
0.6
176
     1
 40
30.0
176
     1
 62
     7
420
 16777215
176
     1
 90
        2
176
     1
 90
        2
176
     1
 62
     7
176
     1
 62
   257
176
     1
 90
        2
176
     1
 90
        1
176
     1
 40
40.0
176
     1
 90
        0
176
     1
 62
   257
176
     1
 40
1.0
176
     1
 90
        1
176
     1
 90
        6
176
     1
 90
        2
176
     1
 62
     7
176
     1
 90
        3
176
     1
 90
        0
176
     1
 90
        0
176
     1
290
     0
176
     1
 90
        1
176
     1
 40
0.0
176
     1
 90
        0
176
     1
290
     0
176
     1
290
     1
176
     1
290
     1
176
     1
290
     0
176
     1
290
     0
176
     1
290
     0
176
     1
290
     0
176
     1
290
     0
176
     1
290
     0
176
     1
 90
       50
176
     1
 40
0.0
176
     1
 40
1.0
176
     1
 90
        0
176
     1
 62
    18
420
        0
176
     1
 90
       50
176
     1
 90
        3
176
     1
 62
     5
420
      255
176
     1
290
     0
176
     1
 90
       50
176
     1
 90
       50
176
     1
 90
       50
176
     1
290
     0
176
     1
 90
       50
176
     1
 62
   256
176
     0
 40
1.0
176
     0
 90
        2
176
     1
  1
strokes_ogs.tif
176
     1
290
     0
176
     1
 40
1.0
176
     1
 40
1.0
176
     1
  0
VISUALSTYLE
  5
3B
102
{ACAD_REACTORS
330
2A
102
}
330
2A
100
AcDbVisualStyle
  2
JitterOff
 70
    20
177
     3
291
     1
 70
    58
 90
        2
176
     0
 90
        2
176
     0
 90
        0
176
     0
 90
        0
176
     0
 40
0.6
176
     0
 40
30.0
176
     0
 62
     7
420
 16777215
176
     0
 90
        1
176
     0
 90
        4
176
     0
 62
     7
176
     0
 62
   257
176
     0
 90
        1
176
     0
 90
        1
176
     0
 40
1.0
176
     0
 90
       10
176
     2
 62
     7
176
     0
 40
1.0
176
     0
 90
        1
176
     0
 90
        6
176
     0
 90
        2
176
     0
 62
     7
176
     0
 90
        5
176
     0
 90
        0
176
     0
 90
        0
176
     0
290
     0
176
     0
 90
        1
176
     0
 40
0.0
176
     0
 90
        0
176
     0
290
     0
176
     0
290
     1
176
     0
290
     1
176
     0
290
     0
176
     0
290
     0
176
     0
290
     0
176
     0
290
     0
176
     0
290
     0
176
     0
290
     0
176
     0
 90
       50
176
     0
 40
0.0
176
     0
 40
1.0
176
     0
 90
        0
176
     0
 62
    18
420
        0
176
     0
 90
       50
176
     0
 90
        3
176
     0
 62
     5
420
      255
176
     0
290
     0
176
     0
 90
       50
176
     0
 90
       50
176
     0
 90
       50
176
     0
290
     0
176
     0
 90
       50
176
     0
 62
   256
176
     0
 40
1.0
176
     0
 90
        2
176
     0
  1
strokes_ogs.tif
176
     0
290
     0
176
     0
 40
1.0
176
     0
 40
1.0
176
     0
  0
VISUALSTYLE
  5
38
102
{ACAD_REACTORS
330
2A
102
}
330
2A
100
AcDbVisualStyle
  2
Linepattern
 70
    14
177
     3
291
     1
 70
    58
 90
        2
176
     1
 90
        2
176
     1
 90
        0
176
     1
 90
        0
176
     1
 40
0.6
176
     1
 40
30.0
176
     1
 62
     7
420
 16777215
176
     1
 90
        1
176
     1
 90
        4
176
     1
 62
     7
176
     1
 62
   257
176
     1
 90
        7
176
     1
 90
        7
176
     1
 40
1.0
176
     1
 90
        8
176
     1
 62
     7
176
     1
 40
1.0
176
     1
 90
        1
176
     1
 90
        6
176
     1
 90
        2
176
     1
 62
     7
176
     1
 90
        5
176
     1
 90
        0
176
     1
 90
        0
176
     1
290
     0
176
     1
 90
        1
176
     1
 40
0.0
176
     1
 90
        0
176
     1
290
     0
176
     1
290
     1
176
     1
290
     1
176
     1
290
     0
176
     1
290
     0
176
     1
290
     0
176
     1
290
     0
176
     1
290
     0
176
     1
290
     0
176
     1
 90
       50
176
     1
 40
0.0
176
     1
 40
1.0
176
     1
 90
        0
176
     1
 62
    18
420
        0
176
     1
 90
       50
176
     1
 90
        3
176
     1
 62
     5
420
      255
176
     1
290
     0
176
     1
 90
       50
176
     1
 90
       50
176
     1
 90
       50
176
     1
290
     0
176
     1
 90
       50
176
     1
 62
   256
176
     0
 40
1.0
176
     0
 90
        2
176
     1
  1
strokes_ogs.tif
176
     1
290
     0
176
     1
 40
1.0
176
     1
 40
1.0
176
     1
  0
VISUALSTYLE
  5
3C
102
{ACAD_REACTORS
330
2A
102
}
330
2A
100
AcDbVisualStyle
  2
OverhangOff
 70
    21
177
     3
291
     1
 70
    58
 90
        2
176
     0
 90
        2
176
     0
 90
        0
176
     0
 90
        0
176
     0
 40
0.6
176
     0
 40
30.0
176
     0
 62
     7
420
 16777215
176
     0
 90
        1
176
     0
 90
        4
176
     0
 62
     7
176
     0
 62
   257
176
     0
 90
        1
176
     0
 90
        1
176
     0
 40
1.0
176
     0
 90
        9
176
     2
 62
     7
176
     0
 40
1.0
176
     0
 90
        1
176
     0
 90
        6
176
     0
 90
        2
176
     0
 62
     7
176
     0
 90
        5
176
     0
 90
        0
176
     0
 90
        0
176
     0
290
     0
176
     0
 90
        1
176
     0
 40
0.0
176
     0
 90
        0
176
     0
290
     0
176
     0
290
     1
176
     0
290
     1
176
     0
290
     0
176
     0
290
     0
176
     0
290
     0
176
     0
290
     0
176
     0
290
     0
176
     0
290
     0
176
     0
 90
       50
176
     0
 40
0.0
176
     0
 40
1.0
176
     0
 90
        0
176
     0
 62
    18
420
        0
176
     0
 90
       50
176
     0
 90
        3
176
     0
 62
     5
420
      255
176
     0
290
     0
176
     0
 90
       50
176
     0
 90
       50
176
     0
 90
       50
176
     0
290
     0
176
     0
 90
       50
176
     0
 62
   256
176
     0
 40
1.0
176
     0
 90
        2
176
     0
  1
strokes_ogs.tif
176
     0
290
     0
176
     0
 40
1.0
176
     0
 40
1.0
176
     0
  0
VISUALSTYLE
  5
33
102
{ACAD_REACTORS
330
2A
102
}
330
2A
100
AcDbVisualStyle
  2
Realistic
 70
     8
177
     3
291
     0
 70
    58
 90
        2
176
     1
 90
        3
176
     1
 90
        0
176
     1
 90
        2
176
     1
 40
0.6
176
     1
 40
30.0
176
     1
 62
     7
420
 16777215
176
     1
 90
        0
176
     1
 90
        0
176
     1
 62
     7
176
     1
 62
   257
176
     1
 90
        1
176
     1
 90
        1
176
     1
 40
1.0
176
     1
 90
        8
176
     1
 62
   257
176
     1
 40
1.0
176
     1
 90
        1
176
     1
 90
        6
176
     1
 90
        2
176
     1
 62
     7
176
     1
 90
        3
176
     1
 90
        0
176
     1
 90
        0
176
     1
290
     0
176
     1
 90
       13
176
     1
 40
0.0
176
     1
 90
        0
176
     1
290
     0
176
     1
290
     1
176
     1
290
     1
176
     1
290
     0
176
     1
290
     0
176
     1
290
     0
176
     1
290
     0
176
     1
290
     0
176
     1
290
     0
176
     1
 90
       50
176
     1
 40
0.0
176
     1
 40
1.0
176
     1
 90
        0
176
     1
 62
    18
420
        0
176
     1
 90
       50
176
     1
 90
        3
176
     1
 62
     5
420
      255
176
     1
290
     0
176
     1
 90
       50
176
     1
 90
       50
176
     1
 90
       50
176
     1
290
     0
176
     1
 90
       50
176
     1
 62
   256
176
     0
 40
1.0
176
     0
 90
        2
176
     1
  1
strokes_ogs.tif
176
     1
290
     0
176
     1
 40
1.0
176
     1
 40
1.0
176
     1
  0
VISUALSTYLE
  5
42
102
{ACAD_REACTORS
330
2A
102
}
330
2A
100
AcDbVisualStyle
  2
Shaded
 70
    27
177
     3
291
     0
 70
    58
 90
        2
176
     1
 90
        2
176
     1
 90
        1
176
     1
 90
        2
176
     1
 40
0.6
176
     1
 40
30.0
176
     1
 62
     7
420
 16777215
176
     1
 90
        0
176
     1
 90
        4
176
     1
 62
     7
176
     1
 62
   257
176
     1
 90
        1
176
     1
 90
        1
176
     1
 40
1.0
176
     1
 90
        8
176
     1
 62
   257
176
     1
 40
1.0
176
     1
 90
        1
176
     1
 90
        6
176
     1
 90
        2
176
     1
 62
     8
420
  7895160
176
     1
 90
        3
176
     1
 90
        0
176
     1
 90
        0
176
     1
290
     0
176
     1
 90
        5
176
     1
 40
0.0
176
     1
 90
        0
176
     1
290
     0
176
     1
290
     1
176
     1
290
     1
176
     1
290
     0
176
     1
290
     0
176
     1
290
     0
176
     1
290
     0
176
     1
290
     0
176
     1
290
     0
176
     1
 90
       50
176
     1
 40
0.0
176
     1
 40
1.0
176
     1
 90
        0
176
     1
 62
    18
420
        0
176
     1
 90
       50
176
     1
 90
        3
176
     1
 62
     5
420
      255
176
     1
290
     0
176
     1
 90
       50
176
     1
 90
       50
176
     1
 90
       50
176
     1
290
     0
176
     1
 90
       50
176
     1
 62
   256
176
     0
 40
1.0
176
     0
 90
        2
176
     1
  1
strokes_ogs.tif
176
     1
290
     0
176
     1
 40
1.0
176
     1
 40
1.0
176
     1
  0
VISUALSTYLE
  5
41
102
{ACAD_REACTORS
330
2A
102
}
330
2A
100
AcDbVisualStyle
  2
Shaded with edges
 70
    26
177
     3
291
     0
 70
    58
 90
        2
176
     1
 90
        2
176
     1
 90
        1
176
     1
 90
        2
176
     1
 40
0.6
176
     1
 40
30.0
176
     1
 62
     7
420
 16777215
176
     1
 90
        1
176
     1
 90
       10
176
     1
 62
     7
176
     1
 62
   257
176
     1
 90
        2
176
     1
 90
        1
176
     1
 40
1.0
176
     1
 90
        8
176
     1
 62
   257
176
     1
 40
1.0
176
     1
 90
        1
176
     1
 90
        6
176
     1
 90
        2
176
     1
 62
     7
176
     1
 90
        3
176
     1
 90
        0
176
     1
 90
        0
176
     1
290
     0
176
     1
 90
        5
176
     1
 40
0.0
176
     1
 90
        0
176
     1
290
     0
176
     1
290
     1
176
     1
290
     1
176
     1
290
     0
176
     1
290
     0
176
     1
290
     0
176
     1
290
     0
176
     1
290
     0
176
     1
290
     0
176
     1
 90
       50
176
     1
 40
0.0
176
     1
 40
1.0
176
     1
 90
        0
176
     1
 62
    18
420
        0
176
     1
 90
       50
176
     1
 90
        3
176
     1
 62
     5
420
      255
176
     1
290
     0
176
     1
 90
       50
176
     1
 90
       50
176
     1
 90
       50
176
     1
290
     0
176
     1
 90
       50
176
     1
 62
   256
176
     0
 40
1.0
176
     0
 90
        2
176
     1
  1
strokes_ogs.tif
176
     1
290
     0
176
     1
 40
1.0
176
     1
 40
1.0
176
     1
  0
VISUALSTYLE
  5
3E
102
{ACAD_REACTORS
330
2A
102
}
330
2A
100
AcDbVisualStyle
  2
Shades of Gray
 70
    23
177
     3
291
     0
 70
    58
 90
        2
176
     1
 90
        2
176
     1
 90
        3
176
     1
 90
        0
176
     1
 40
0.6
176
     1
 40
30.0
176
     1
 62
     7
420
 16777215
176
     1
 90
        2
176
     1
 90
        2
176
     1
 62
     7
176
     1
 62
     7
176
     1
 90
        1
176
     1
 90
        1
176
     1
 40
40.0
176
     1
 90
        8
176
     1
 62
     7
176
     1
 40
1.0
176
     1
 90
        1
176
     1
 90
        6
176
     1
 90
        2
176
     1
 62
     7
176
     1
 90
        3
176
     1
 90
        0
176
     1
 90
        0
176
     1
290
     0
176
     1
 90
        1
176
     1
 40
0.0
176
     1
 90
        0
176
     1
290
     0
176
     1
290
     1
176
     1
290
     1
176
     1
290
     0
176
     1
290
     0
176
     1
290
     0
176
     1
290
     0
176
     1
290
     0
176
     1
290
     0
176
     1
 90
       50
176
     1
 40
0.0
176
     1
 40
1.0
176
     1
 90
        0
176
     1
 62
    18
420
        0
176
     1
 90
       50
176
     1
 90
        3
176
     1
 62
     5
420
      255
176
     1
290
     0
176
     1
 90
       50
176
     1
 90
       50
176
     1
 90
       50
176
     1
290
     0
176
     1
 90
       50
176
     1
 62
   256
176
     0
 40
1.0
176
     0
 90
        2
176
     1
  1
strokes_ogs.tif
176
     1
290
     0
176
     1
 40
1.0
176
     1
 40
1.0
176
     1
  0
VISUALSTYLE
  5
3F
102
{ACAD_REACTORS
330
2A
102
}
330
2A
100
AcDbVisualStyle
  2
Sketchy
 70
    24
177
     3
291
     0
 70
    58
 90
        1
176
     1
 90
        2
176
     1
 90
        2
176
     1
 90
        0
176
     1
 40
0.6
176
     1
 40
30.0
176
     1
 62
     7
420
 16777215
176
     1
 90
        2
176
     1
 90
        2
176
     1
 62
     7
176
     1
 62
     7
176
     1
 90
        1
176
     1
 90
        1
176
     1
 40
40.0
176
     1
 90
       11
176
     1
 62
     7
176
     1
 40
1.0
176
     1
 90
        1
176
     1
 90
        6
176
     1
 90
        2
176
     1
 62
     7
176
     1
 90
        6
176
     1
 90
        0
176
     1
 90
        0
176
     1
290
     0
176
     1
 90
        1
176
     1
 40
0.0
176
     1
 90
        0
176
     1
290
     0
176
     1
290
     1
176
     1
290
     1
176
     1
290
     0
176
     1
290
     0
176
     1
290
     0
176
     1
290
     0
176
     1
290
     0
176
     1
290
     0
176
     1
 90
       50
176
     1
 40
0.0
176
     1
 40
1.0
176
     1
 90
        0
176
     1
 62
    18
420
        0
176
     1
 90
       50
176
     1
 90
        3
176
     1
 62
     5
420
      255
176
     1
290
     0
176
     1
 90
       50
176
     1
 90
       50
176
     1
 90
       50
176
     1
290
     0
176
     1
 90
       50
176
     1
 62
   256
176
     0
 40
1.0
176
     0
 90
        2
176
     1
  1
strokes_ogs.tif
176
     1
290
     0
176
     1
 40
1.0
176
     1
 40
1.0
176
     1
  0
VISUALSTYLE
  5
37
102
{ACAD_REACTORS
330
2A
102
}
330
2A
100
AcDbVisualStyle
  2
Thicken
 70
    13
177
     3
291
     1
 70
    58
 90
        2
176
     1
 90
        2
176
     1
 90
        0
176
     1
 90
        0
176
     1
 40
0.6
176
     1
 40
30.0
176
     1
 62
     7
420
 16777215
176
     1
 90
        1
176
     1
 90
        4
176
     1
 62
     7
176
     1
 62
   257
176
     1
 90
        1
176
     1
 90
        1
176
     1
 40
1.0
176
     1
 90
       12
176
     1
 62
     7
176
     1
 40
1.0
176
     1
 90
        1
176
     1
 90
        6
176
     1
 90
        2
176
     1
 62
     7
176
     1
 90
        5
176
     1
 90
        0
176
     1
 90
        0
176
     1
290
     0
176
     1
 90
        1
176
     1
 40
0.0
176
     1
 90
        0
176
     1
290
     0
176
     1
290
     1
176
     1
290
     1
176
     1
290
     0
176
     1
290
     0
176
     1
290
     0
176
     1
290
     0
176
     1
290
     0
176
     1
290
     0
176
     1
 90
       50
176
     1
 40
0.0
176
     1
 40
1.0
176
     1
 90
        0
176
     1
 62
    18
420
        0
176
     1
 90
       50
176
     1
 90
        3
176
     1
 62
     5
420
      255
176
     1
290
     0
176
     1
 90
       50
176
     1
 90
       50
176
     1
 90
       50
176
     1
290
     0
176
     1
 90
       50
176
     1
 62
   256
176
     0
 40
1.0
176
     0
 90
        2
176
     1
  1
strokes_ogs.tif
176
     1
290
     0
176
     1
 40
1.0
176
     1
 40
1.0
176
     1
  0
VISUALSTYLE
  5
30
102
{ACAD_REACTORS
330
2A
102
}
330
2A
100
AcDbVisualStyle
  2
Wireframe
 70
     5
177
     3
291
     0
 70
    58
 90
        0
176
     1
 90
        2
176
     1
 90
        0
176
     1
 90
        0
176
     1
 40
0.6
176
     1
 40
30.0
176
     1
 62
     7
420
 16777215
176
     1
 90
        1
176
     1
 90
        4
176
     1
 62
     7
176
     1
 62
   257
176
     1
 90
        1
176
     1
 90
        1
176
     1
 40
1.0
176
     1
 90
        0
176
     1
 62
   257
176
     1
 40
1.0
176
     1
 90
        1
176
     1
 90
        6
176
     1
 90
        2
176
     1
 62
     7
176
     1
 90
        3
176
     1
 90
        0
176
     1
 90
        0
176
     1
290
     0
176
     1
 90
        1
176
     1
 40
0.0
176
     1
 90
        0
176
     1
290
     0
176
     1
290
     1
176
     1
290
     1
176
     1
290
     0
176
     1
290
     0
176
     1
290
     0
176
     1
290
     0
176
     1
290
     0
176
     1
290
     0
176
     1
 90
       50
176
     1
 40
0.0
176
     1
 40
1.0
176
     1
 90
        0
176
     1
 62
    18
420
        0
176
     1
 90
       50
176
     1
 90
        3
176
     1
 62
     5
420
      255
176
     1
290
     0
176
     1
 90
       50
176
     1
 90
       50
176
     1
 90
       50
176
     1
290
     0
176
     1
 90
       50
176
     1
 62
   256
176
     0
 40
1.0
176
     0
 90
        2
176
     1
  1
strokes_ogs.tif
176
     1
290
     0
176
     1
 40
1.0
176
     1
 40
1.0
176
     1
  0
VISUALSTYLE
  5
40
102
{ACAD_REACTORS
330
2A
102
}
330
2A
100
AcDbVisualStyle
  2
X-Ray
 70
    25
177
     3
291
     0
 70
    58
 90
        2
176
     1
 90
        2
176
     1
 90
        1
176
     1
 90
        1
176
     1
 40
0.5
176
     1
 40
30.0
176
     1
 62
     7
420
 16777215
176
     1
 90
        1
176
     1
 90
        0
176
     1
 62
     7
176
     1
 62
   257
176
     1
 90
        1
176
     1
 90
        1
176
     1
 40
1.0
176
     1
 90
        8
176
     1
 62
     7
176
     1
 40
1.0
176
     1
 90
        1
176
     1
 90
        6
176
     1
 90
        2
176
     1
 62
     7
176
     1
 90
        3
176
     1
 90
        0
176
     1
 90
        0
176
     1
290
     0
176
     1
 90
       13
176
     1
 40
0.0
176
     1
 90
        0
176
     1
290
     0
176
     1
290
     1
176
     1
290
     1
176
     1
290
     0
176
     1
290
     0
176
     1
290
     0
176
     1
290
     0
176
     1
290
     0
176
     1
290
     0
176
     1
 90
       50
176
     1
 40
0.0
176
     1
 40
1.0
176
     1
 90
        0
176
     1
 62
    18
420
        0
176
     1
 90
       50
176
     1
 90
        3
176
     1
 62
     5
420
      255
176
     1
290
     0
176
     1
 90
       50
176
     1
 90
       50
176
     1
 90
       50
176
     1
290
     0
176
     1
 90
       50
176
     1
 62
   256
176
     0
 40
1.0
176
     0
 90
        2
176
     1
  1
strokes_ogs.tif
176
     1
290
     0
176
     1
 40
1.0
176
     1
 40
1.0
176
     1
  0
DICTIONARYVAR
  5
2C5
102
{ACAD_REACTORS
330
2C4
102
}
330
2C4
100
DictionaryVariables
280
     0
  1
1:1
  0
DICTIONARYVAR
  5
2CA
102
{ACAD_REACTORS
330
2C4
102
}
330
2C4
100
DictionaryVariables
280
     0
  1
Standard
  0
DICTIONARYVAR
  5
2C9
102
{ACAD_REACTORS
330
2C4
102
}
330
2C4
100
DictionaryVariables
280
     0
  1
Standard
  0
DICTIONARYVAR
  5
2CD
102
{ACAD_REACTORS
330
2C4
102
}
330
2C4
100
DictionaryVariables
280
     0
  1
6.000000
  0
DICTIONARY
  5
2C6
330
6A
100
AcDbDictionary
280
     1
281
     1
  3
ACAD_ROUNDTRIP_2008_TABLESTYLE_CELLSTYLEMAP
360
2C7
  0
CELLSTYLEMAP
  5
2C7
102
{ACAD_REACTORS
330
2C6
102
}
330
2C6
100
AcDbCellStyleMap
 90
        3
300
CELLSTYLE
  1
TABLEFORMAT_BEGIN
 90
        5
170
     1
 91
        0
 92
    32768
 62
   257
 93
        1
300
CONTENTFORMAT
  1
CONTENTFORMAT_BEGIN
 90
        0
 91
        0
 92
        4
 93
        0
300

 40
0.0
140
1.0
 94
        5
 62
     0
340
11
144
6.0
309
CONTENTFORMAT_END
171
     1
301
MARGIN
  1
CELLMARGIN_BEGIN
 40
1.5
 40
1.5
 40
1.5
 40
1.5
 40
1.5
 40
1.5
309
CELLMARGIN_END
 94
        6
 95
        1
302
GRIDFORMAT
  1
GRIDFORMAT_BEGIN
 90
        0
 91
        1
 62
     0
 92
       -2
340
14
 93
        0
 40
0.045
309
GRIDFORMAT_END
 95
        2
302
GRIDFORMAT
  1
GRIDFORMAT_BEGIN
 90
        0
 91
        1
 62
     0
 92
       -2
340
14
 93
        0
 40
0.045
309
GRIDFORMAT_END
 95
        4
302
GRIDFORMAT
  1
GRIDFORMAT_BEGIN
 90
        0
 91
        1
 62
     0
 92
       -2
340
14
 93
        0
 40
0.045
309
GRIDFORMAT_END
 95
        8
302
GRIDFORMAT
  1
GRIDFORMAT_BEGIN
 90
        0
 91
        1
 62
     0
 92
       -2
340
14
 93
        0
 40
0.045
309
GRIDFORMAT_END
 95
       16
302
GRIDFORMAT
  1
GRIDFORMAT_BEGIN
 90
        0
 91
        1
 62
     0
 92
       -2
340
14
 93
        0
 40
0.045
309
GRIDFORMAT_END
 95
       32
302
GRIDFORMAT
  1
GRIDFORMAT_BEGIN
 90
        0
 91
        1
 62
     0
 92
       -2
340
14
 93
        0
 40
0.045
309
GRIDFORMAT_END
309
TABLEFORMAT_END
  1
CELLSTYLE_BEGIN
 90
        1
 91
        1
300
_TITLE
309
CELLSTYLE_END
300
CELLSTYLE
  1
TABLEFORMAT_BEGIN
 90
        5
170
     1
 91
        0
 92
        0
 62
   257
 93
        1
300
CONTENTFORMAT
  1
CONTENTFORMAT_BEGIN
 90
        0
 91
        0
 92
        4
 93
        0
300

 40
0.0
140
1.0
 94
        5
 62
     0
340
11
144
4.5
309
CONTENTFORMAT_END
171
     1
301
MARGIN
  1
CELLMARGIN_BEGIN
 40
1.5
 40
1.5
 40
1.5
 40
1.5
 40
1.5
 40
1.5
309
CELLMARGIN_END
 94
        6
 95
        1
302
GRIDFORMAT
  1
GRIDFORMAT_BEGIN
 90
        0
 91
        1
 62
     0
 92
       -2
340
14
 93
        0
 40
0.045
309
GRIDFORMAT_END
 95
        2
302
GRIDFORMAT
  1
GRIDFORMAT_BEGIN
 90
        0
 91
        1
 62
     0
 92
       -2
340
14
 93
        0
 40
0.045
309
GRIDFORMAT_END
 95
        4
302
GRIDFORMAT
  1
GRIDFORMAT_BEGIN
 90
        0
 91
        1
 62
     0
 92
       -2
340
14
 93
        0
 40
0.045
309
GRIDFORMAT_END
 95
        8
302
GRIDFORMAT
  1
GRIDFORMAT_BEGIN
 90
        0
 91
        1
 62
     0
 92
       -2
340
14
 93
        0
 40
0.045
309
GRIDFORMAT_END
 95
       16
302
GRIDFORMAT
  1
GRIDFORMAT_BEGIN
 90
        0
 91
        1
 62
     0
 92
       -2
340
14
 93
        0
 40
0.045
309
GRIDFORMAT_END
 95
       32
302
GRIDFORMAT
  1
GRIDFORMAT_BEGIN
 90
        0
 91
        1
 62
     0
 92
       -2
340
14
 93
        0
 40
0.045
309
GRIDFORMAT_END
309
TABLEFORMAT_END
  1
CELLSTYLE_BEGIN
 90
        2
 91
        1
300
_HEADER
309
CELLSTYLE_END
300
CELLSTYLE
  1
TABLEFORMAT_BEGIN
 90
        5
170
     1
 91
        0
 92
        0
 62
   257
 93
        1
300
CONTENTFORMAT
  1
CONTENTFORMAT_BEGIN
 90
        0
 91
        0
 92
        4
 93
        0
300

 40
0.0
140
1.0
 94
        2
 62
     0
340
11
144
4.5
309
CONTENTFORMAT_END
171
     1
301
MARGIN
  1
CELLMARGIN_BEGIN
 40
1.5
 40
1.5
 40
1.5
 40
1.5
 40
1.5
 40
1.5
309
CELLMARGIN_END
 94
        6
 95
        1
302
GRIDFORMAT
  1
GRIDFORMAT_BEGIN
 90
        0
 91
        1
 62
     0
 92
       -2
340
14
 93
        0
 40
0.045
309
GRIDFORMAT_END
 95
        2
302
GRIDFORMAT
  1
GRIDFORMAT_BEGIN
 90
        0
 91
        1
 62
     0
 92
       -2
340
14
 93
        0
 40
0.045
309
GRIDFORMAT_END
 95
        4
302
GRIDFORMAT
  1
GRIDFORMAT_BEGIN
 90
        0
 91
        1
 62
     0
 92
       -2
340
14
 93
        0
 40
0.045
309
GRIDFORMAT_END
 95
        8
302
GRIDFORMAT
  1
GRIDFORMAT_BEGIN
 90
        0
 91
        1
 62
     0
 92
       -2
340
14
 93
        0
 40
0.045
309
GRIDFORMAT_END
 95
       16
302
GRIDFORMAT
  1
GRIDFORMAT_BEGIN
 90
        0
 91
        1
 62
     0
 92
       -2
340
14
 93
        0
 40
0.045
309
GRIDFORMAT_END
 95
       32
302
GRIDFORMAT
  1
GRIDFORMAT_BEGIN
 90
        0
 91
        1
 62
     0
 92
       -2
340
14
 93
        0
 40
0.045
309
GRIDFORMAT_END
309
TABLEFORMAT_END
  1
CELLSTYLE_BEGIN
 90
        3
 91
        2
300
_DATA
309
CELLSTYLE_END
  0
ENDSEC
  0
EOF
