  0
SECTION
  2
HEADER
  9
$ACADVER
  1
AC1027
  9
$ACADMAINTVER
 70
   105
  9
$DWGCODEPAGE
  3
ANSI_1252
  9
$REQUIREDVERSIONS
160
                 0
  9
$INSBASE
 10
0.0
 20
0.0
 30
0.0
  9
$EXTMIN
 10
0.0
 20
0.0
 30
0.0
  9
$EXTMAX
 10
594.0
 20
420.0
 30
0.0
  9
$LIMMIN
 10
0.0
 20
0.0
  9
$LIMMAX
 10
594.0
 20
420.0
  9
$ORTHOMODE
 70
     0
  9
$REGENMODE
 70
     1
  9
$FILLMODE
 70
     1
  9
$QTEXTMODE
 70
     0
  9
$MIRRTEXT
 70
     1
  9
$LTSCALE
 40
1.0
  9
$ATTMODE
 70
     1
  9
$TEXTSIZE
 40
3.5
  9
$TRACEWID
 40
1.0
  9
$TEXTSTYLE
  7
Standard
  9
$CLAYER
  8
0
  9
$CELTYPE
  6
ByLayer
  9
$CECOLOR
 62
   256
  9
$CELTSCALE
 40
1.0
  9
$DISPSILH
 70
     0
  9
$DIMSCALE
 40
1.0
  9
$DIMASZ
 40
3.302
  9
$DIMEXO
 40
1.0
  9
$DIMDLI
 40
3.75
  9
$DIMRND
 40
0.0
  9
$DIMDLE
 40
0.0
  9
$DIMEXE
 40
1.0
  9
$DIMTP
 40
0.0
  9
$DIMTM
 40
0.0
  9
$DIMTXT
 40
3.5
  9
$DIMCEN
 40
2.5
  9
$DIMTSZ
 40
0.0
  9
$DIMTOL
 70
     0
  9
$DIMLIM
 70
     0
  9
$DIMTIH
 70
     1
  9
$DIMTOH
 70
     1
  9
$DIMSE1
 70
     0
  9
$DIMSE2
 70
     0
  9
$DIMTAD
 70
     1
  9
$DIMZIN
 70
     0
  9
$DIMBLK
  1

  9
$DIMASO
 70
     1
  9
$DIMSHO
 70
     1
  9
$DIMPOST
  1

  9
$DIMAPOST
  1

  9
$DIMALT
 70
     0
  9
$DIMALTD
 70
     3
  9
$DIMALTF
 40
0.0393700787
  9
$DIMLFAC
 40
20.0
  9
$DIMTOFL
 70
     1
  9
$DIMTVP
 40
0.0
  9
$DIMTIX
 70
     0
  9
$DIMSOXD
 70
     0
  9
$DIMSAH
 70
     0
  9
$DIMBLK1
  1

  9
$DIMBLK2
  1

  9
$DIMSTYLE
  2
ISO-25
  9
$DIMCLRD
 70
     0
  9
$DIMCLRE
 70
     0
  9
$DIMCLRT
 70
     0
  9
$DIMTFAC
 40
1.0
  9
$DIMGAP
 40
1.524
  9
$DIMJUST
 70
     0
  9
$DIMSD1
 70
     0
  9
$DIMSD2
 70
     0
  9
$DIMTOLJ
 70
     0
  9
$DIMTZIN
 70
     0
  9
$DIMALTZ
 70
     0
  9
$DIMALTTZ
 70
     0
  9
$DIMUPT
 70
     0
  9
$DIMDEC
 70
     2
  9
$DIMTDEC
 70
     2
  9
$DIMALTU
 70
     2
  9
$DIMALTTD
 70
     3
  9
$DIMTXSTY
  7
Standard
  9
$DIMAUNIT
 70
     0
  9
$DIMADEC
 70
     2
  9
$DIMALTRND
 40
0.0
  9
$DIMAZIN
 70
     0
  9
$DIMDSEP
 70
    44
  9
$DIMATFIT
 70
     3
  9
$DIMFRAC
 70
     0
  9
$DIMLDRBLK
  1

  9
$DIMLUNIT
 70
     2
  9
$DIMLWD
 70
    -2
  9
$DIMLWE
 70
    -2
  9
$DIMTMOVE
 70
     0
  9
$DIMFXL
 40
1.0
  9
$DIMFXLON
 70
     0
  9
$DIMJOGANG
 40
0.7853981634
  9
$DIMTFILL
 70
     0
  9
$DIMTFILLCLR
 70
     0
  9
$DIMARCSYM
 70
     0
  9
$DIMLTYPE
  6

  9
$DIMLTEX1
  6

  9
$DIMLTEX2
  6

  9
$DIMTXTDIRECTION
 70
     0
  9
$LUNITS
 70
     2
  9
$LUPREC
 70
     2
  9
$SKETCHINC
 40
1.0
  9
$FILLETRAD
 40
10.0
  9
$AUNITS
 70
     0
  9
$AUPREC
 70
     2
  9
$MENU
  1
.
  9
$ELEVATION
 40
0.0
  9
$PELEVATION
 40
0.0
  9
$THICKNESS
 40
0.0
  9
$LIMCHECK
 70
     0
  9
$CHAMFERA
 40
0.0
  9
$CHAMFERB
 40
0.0
  9
$CHAMFERC
 40
0.0
  9
$CHAMFERD
 40
0.0
  9
$SKPOLY
 70
     0
  9
$TDCREATE
 40
2459366.34671456
  9
$TDUCREATE
 40
2459366.263381227
  9
$TDUPDATE
 40
2459366.346722338
  9
$TDUUPDATE
 40
2459366.263389005
  9
$TDINDWG
 40
0.0000000116
  9
$TDUSRTIMER
 40
0.0000000116
  9
$USRTIMER
 70
     1
  9
$ANGBASE
 50
0.0
  9
$ANGDIR
 70
     0
  9
$PDMODE
 70
     0
  9
$PDSIZE
 40
-1.0
  9
$PLINEWID
 40
0.0
  9
$SPLFRAME
 70
     0
  9
$SPLINETYPE
 70
     6
  9
$SPLINESEGS
 70
     8
  9
$HANDSEED
  5
595
  9
$SURFTAB1
 70
     6
  9
$SURFTAB2
 70
     6
  9
$SURFTYPE
 70
     6
  9
$SURFU
 70
     6
  9
$SURFV
 70
     6
  9
$UCSBASE
  2

  9
$UCSNAME
  2

  9
$UCSORG
 10
0.0
 20
0.0
 30
0.0
  9
$UCSXDIR
 10
1.0
 20
0.0
 30
0.0
  9
$UCSYDIR
 10
0.0
 20
1.0
 30
0.0
  9
$UCSORTHOREF
  2

  9
$UCSORTHOVIEW
 70
     0
  9
$UCSORGTOP
 10
0.0
 20
0.0
 30
0.0
  9
$UCSORGBOTTOM
 10
0.0
 20
0.0
 30
0.0
  9
$UCSORGLEFT
 10
0.0
 20
0.0
 30
0.0
  9
$UCSORGRIGHT
 10
0.0
 20
0.0
 30
0.0
  9
$UCSORGFRONT
 10
0.0
 20
0.0
 30
0.0
  9
$UCSORGBACK
 10
0.0
 20
0.0
 30
0.0
  9
$PUCSBASE
  2

  9
$PUCSNAME
  2

  9
$PUCSORG
 10
0.0
 20
0.0
 30
0.0
  9
$PUCSXDIR
 10
1.0
 20
0.0
 30
0.0
  9
$PUCSYDIR
 10
0.0
 20
1.0
 30
0.0
  9
$PUCSORTHOREF
  2

  9
$PUCSORTHOVIEW
 70
     0
  9
$PUCSORGTOP
 10
0.0
 20
0.0
 30
0.0
  9
$PUCSORGBOTTOM
 10
0.0
 20
0.0
 30
0.0
  9
$PUCSORGLEFT
 10
0.0
 20
0.0
 30
0.0
  9
$PUCSORGRIGHT
 10
0.0
 20
0.0
 30
0.0
  9
$PUCSORGFRONT
 10
0.0
 20
0.0
 30
0.0
  9
$PUCSORGBACK
 10
0.0
 20
0.0
 30
0.0
  9
$USERI1
 70
     0
  9
$USERI2
 70
     0
  9
$USERI3
 70
     0
  9
$USERI4
 70
     0
  9
$USERI5
 70
     0
  9
$USERR1
 40
0.0
  9
$USERR2
 40
0.0
  9
$USERR3
 40
0.0
  9
$USERR4
 40
0.0
  9
$USERR5
 40
0.0
  9
$WORLDVIEW
 70
     1
  9
$SHADEDGE
 70
     3
  9
$SHADEDIF
 70
    70
  9
$TILEMODE
 70
     1
  9
$MAXACTVP
 70
    64
  9
$PINSBASE
 10
0.0
 20
0.0
 30
0.0
  9
$PLIMCHECK
 70
     0
  9
$PEXTMIN
 10
1.0000000000E+20
 20
1.0000000000E+20
 30
1.0000000000E+20
  9
$PEXTMAX
 10
-1.0000000000E+20
 20
-1.0000000000E+20
 30
-1.0000000000E+20
  9
$PLIMMIN
 10
0.0
 20
0.0
  9
$PLIMMAX
 10
420.0
 20
297.0
  9
$UNITMODE
 70
     0
  9
$VISRETAIN
 70
     1
  9
$PLINEGEN
 70
     0
  9
$PSLTSCALE
 70
     1
  9
$TREEDEPTH
 70
  3020
  9
$CMLSTYLE
  2
Standard
  9
$CMLJUST
 70
     0
  9
$CMLSCALE
 40
20.0
  9
$PROXYGRAPHICS
 70
     1
  9
$MEASUREMENT
 70
     1
  9
$CELWEIGHT
370
    -1
  9
$ENDCAPS
280
     0
  9
$JOINSTYLE
280
     0
  9
$LWDISPLAY
290
     1
  9
$INSUNITS
 70
     4
  9
$HYPERLINKBASE
  1

  9
$STYLESHEET
  1

  9
$XEDIT
290
     1
  9
$CEPSNTYPE
380
     0
  9
$PSTYLEMODE
290
     1
  9
$FINGERPRINTGUID
  2
{F8A40FC4-48C8-477B-8114-B730AB626BF5}
  9
$VERSIONGUID
  2
{FAEB1C32-E019-11D5-929B-00C0DF256EC4}
  9
$EXTNAMES
290
     1
  9
$PSVPSCALE
 40
0.0
  9
$OLESTARTUP
290
     0
  9
$SORTENTS
280
   127
  9
$INDEXCTL
280
     0
  9
$HIDETEXT
280
     1
  9
$XCLIPFRAME
280
     2
  9
$HALOGAP
280
     0
  9
$OBSCOLOR
 70
   257
  9
$OBSLTYPE
280
     0
  9
$INTERSECTIONDISPLAY
280
     0
  9
$INTERSECTIONCOLOR
 70
   257
  9
$DIMASSOC
280
     2
  9
$PROJECTNAME
  1

  9
$CAMERADISPLAY
290
     0
  9
$LENSLENGTH
 40
50.0
  9
$CAMERAHEIGHT
 40
0.0
  9
$STEPSPERSEC
 40
2.0
  9
$STEPSIZE
 40
6.0
  9
$3DDWFPREC
 40
2.0
  9
$PSOLWIDTH
 40
5.0
  9
$PSOLHEIGHT
 40
80.0
  9
$LOFTANG1
 40
1.5707963268
  9
$LOFTANG2
 40
1.5707963268
  9
$LOFTMAG1
 40
0.0
  9
$LOFTMAG2
 40
0.0
  9
$LOFTPARAM
 70
     7
  9
$LOFTNORMALS
280
     1
  9
$LATITUDE
 40
37.795
  9
$LONGITUDE
 40
-122.394
  9
$NORTHDIRECTION
 40
0.0
  9
$TIMEZONE
 70
 -8000
  9
$LIGHTGLYPHDISPLAY
280
     1
  9
$TILEMODELIGHTSYNCH
280
     1
  9
$CMATERIAL
347
44
  9
$SOLIDHIST
280
     0
  9
$SHOWHIST
280
     1
  9
$DWFFRAME
280
     2
  9
$DGNFRAME
280
     2
  9
$REALWORLDSCALE
290
     1
  9
$INTERFERECOLOR
 62
   256
  9
$CSHADOW
280
     0
  9
$SHADOWPLANELOCATION
 40
0.0
  0
ENDSEC
  0
SECTION
  2
CLASSES
  0
CLASS
  1
ACDBDICTIONARYWDFLT
  2
AcDbDictionaryWithDefault
  3
ObjectDBX Classes
 90
        0
 91
        4
280
     0
281
     0
  0
CLASS
  1
VISUALSTYLE
  2
AcDbVisualStyle
  3
ObjectDBX Classes
 90
     4095
 91
        4
280
     0
281
     0
  0
CLASS
  1
MATERIAL
  2
AcDbMaterial
  3
ObjectDBX Classes
 90
     1153
 91
        4
280
     0
281
     0
  0
CLASS
  1
SCALE
  2
AcDbScale
  3
ObjectDBX Classes
 90
     1153
 91
        4
280
     0
281
     0
  0
CLASS
  1
TABLESTYLE
  2
AcDbTableStyle
  3
ObjectDBX Classes
 90
     4095
 91
        4
280
     0
281
     0
  0
CLASS
  1
MLEADERSTYLE
  2
AcDbMLeaderStyle
  3
ACDB_MLEADERSTYLE_CLASS
 90
     4095
 91
        4
280
     0
281
     0
  0
CLASS
  1
SUN
  2
AcDbSun
  3
SCENEOE
 90
     1153
 91
        4
280
     0
281
     0
  0
CLASS
  1
DICTIONARYVAR
  2
AcDbDictionaryVar
  3
ObjectDBX Classes
 90
        0
 91
        4
280
     0
281
     0
  0
CLASS
  1
CELLSTYLEMAP
  2
AcDbCellStyleMap
  3
ObjectDBX Classes
 90
     1152
 91
        4
280
     0
281
     0
  0
ENDSEC
  0
SECTION
  2
TABLES
  0
TABLE
  2
VPORT
  5
8
330
0
100
AcDbSymbolTable
 70
     1
  0
VPORT
  5
29
330
8
100
AcDbSymbolTableRecord
100
AcDbViewportTableRecord
  2
*Active
 70
     0
 10
0.0
 20
0.0
 11
1.0
 21
1.0
 12
297.0
 22
210.0
 13
0.0
 23
0.0
 14
10.0
 24
10.0
 15
10.0
 25
10.0
 16
0.0
 26
0.0
 36
1.0
 17
0.0
 27
0.0
 37
0.0
 40
420.0
 41
1.4142857143
 42
50.0
 43
0.0
 44
0.0
 50
0.0
 51
0.0
 71
     0
 72
  2000
 73
     1
 74
     3
 75
     0
 76
     0
 77
     0
 78
     0
281
     0
 65
     1
110
0.0
120
0.0
130
0.0
111
1.0
121
0.0
131
0.0
112
0.0
122
1.0
132
0.0
 79
     0
146
0.0
348
2F
 60
     3
 61
     5
292
     1
282
     1
141
0.0
142
0.0
 63
   250
361
6D
  0
ENDTAB
  0
TABLE
  2
LTYPE
  5
5
330
0
100
AcDbSymbolTable
 70
     6
  0
LTYPE
  5
14
330
5
100
AcDbSymbolTableRecord
100
AcDbLinetypeTableRecord
  2
ByBlock
 70
     0
  3

 72
    65
 73
     0
 40
0.0
  0
LTYPE
  5
15
330
5
100
AcDbSymbolTableRecord
100
AcDbLinetypeTableRecord
  2
ByLayer
 70
     0
  3

 72
    65
 73
     0
 40
0.0
  0
LTYPE
  5
16
330
5
100
AcDbSymbolTableRecord
100
AcDbLinetypeTableRecord
  2
Continuous
 70
     0
  3
Solid line
 72
    65
 73
     0
 40
0.0
  0
LTYPE
  5
6E
330
5
100
AcDbSymbolTableRecord
100
AcDbLinetypeTableRecord
  2
HIDDEN
 70
     0
  3
Hidden __ __ __ __ __ __ __ __ __ __ __ __ __ __
 72
    65
 73
     2
 40
1.905
 49
1.27
 74
     0
 49
-0.635
 74
     0
  0
LTYPE
  5
6F
330
5
100
AcDbSymbolTableRecord
100
AcDbLinetypeTableRecord
  2
PHANTOM
 70
     0
  3
Phantom ______  __  __  ______  __  __  ______
 72
    65
 73
     6
 40
12.7
 49
6.35
 74
     0
 49
-1.27
 74
     0
 49
1.27
 74
     0
 49
-1.27
 74
     0
 49
1.27
 74
     0
 49
-1.27
 74
     0
  0
LTYPE
  5
70
330
5
100
AcDbSymbolTableRecord
100
AcDbLinetypeTableRecord
  2
CENTER
 70
     0
  3
Center ____ _ ____ _ ____ _ ____ _ ____ _ ____
 72
    65
 73
     4
 40
10.16
 49
6.35
 74
     0
 49
-1.27
 74
     0
 49
1.27
 74
     0
 49
-1.27
 74
     0
  0
LTYPE
  5
71
330
5
100
AcDbSymbolTableRecord
100
AcDbLinetypeTableRecord
  2
CENTERX2
 70
     0
  3
Center (2x) ________  __  ________  __  _____
 72
    65
 73
     4
 40
20.32
 49
12.7
 74
     0
 49
-2.54
 74
     0
 49
2.54
 74
     0
 49
-2.54
 74
     0
  0
LTYPE
  5
72
330
5
100
AcDbSymbolTableRecord
100
AcDbLinetypeTableRecord
  2
DOT2
 70
     0
  3
Dot (.5x) ........................................
 72
    65
 73
     2
 40
0.635
 49
0.0
 74
     0
 49
-0.635
 74
     0
  0
ENDTAB
  0
TABLE
  2
LAYER
  5
2
330
0
100
AcDbSymbolTable
 70
    37
  0
LAYER
  5
10
330
2
100
AcDbSymbolTableRecord
100
AcDbLayerTableRecord
  2
0
 70
     0
 62
     7
  6
Continuous
370
    -3
390
F
347
46
348
0
  0
LAYER
  5
73
330
2
100
AcDbSymbolTableRecord
100
AcDbLayerTableRecord
  2
SLD-0
 70
     0
 62
     7
  6
Continuous
370
    -3
390
F
347
46
348
0
  0
LAYER
  5
74
330
2
100
AcDbSymbolTableRecord
100
AcDbLayerTableRecord
  2
RAHMEN025
 70
     0
 62
     7
  6
Continuous
370
    -3
390
F
347
46
348
0
  0
LAYER
  5
75
330
2
100
AcDbSymbolTableRecord
100
AcDbLayerTableRecord
  2
RAHMEN07
 70
     0
 62
     5
  6
Continuous
370
    -3
390
F
347
46
348
0
  0
LAYER
  5
76
330
2
100
AcDbSymbolTableRecord
100
AcDbLayerTableRecord
  2
RAHMEN05
 70
     0
 62
     6
  6
Continuous
370
    -3
390
F
347
46
348
0
  0
LAYER
  5
77
330
2
100
AcDbSymbolTableRecord
100
AcDbLayerTableRecord
  2
TB
 70
     0
 62
     7
  6
Continuous
370
    -3
390
F
347
46
348
0
  0
LAYER
  5
78
330
2
100
AcDbSymbolTableRecord
100
AcDbLayerTableRecord
  2
1-VIDNO
 70
     0
 62
     5
  6
Continuous
370
    -3
390
F
347
46
348
0
  0
LAYER
  5
79
330
2
100
AcDbSymbolTableRecord
100
AcDbLayerTableRecord
  2
2-NEVIDNO
 70
     0
 62
     5
  6
HIDDEN
370
    -3
390
F
347
46
348
0
  0
LAYER
  5
7A
330
2
100
AcDbSymbolTableRecord
100
AcDbLayerTableRecord
  2
O-GLAVE
 70
     0
 62
     5
  6
Continuous
370
    -3
390
F
347
46
348
0
  0
LAYER
  5
7B
330
2
100
AcDbSymbolTableRecord
100
AcDbLayerTableRecord
  2
O-TEKST
 70
     0
 62
     7
  6
Continuous
370
    -3
390
F
347
46
348
0
  0
LAYER
  5
7C
330
2
100
AcDbSymbolTableRecord
100
AcDbLayerTableRecord
  2
O-ZUNANJI
 70
     0
 62
     7
  6
Continuous
370
    -3
390
F
347
46
348
0
  0
LAYER
  5
7D
330
2
100
AcDbSymbolTableRecord
100
AcDbLayerTableRecord
  2
SLD-DEFPOINTS
 70
     0
 62
     7
  6
Continuous
370
    -3
390
F
347
46
348
0
  0
LAYER
  5
7E
330
2
100
AcDbSymbolTableRecord
100
AcDbLayerTableRecord
  2
3-POMOZNO
 70
     0
 62
     4
  6
Continuous
370
    -3
390
F
347
46
348
0
  0
LAYER
  5
7F
330
2
100
AcDbSymbolTableRecord
100
AcDbLayerTableRecord
  2
4-SREDNJICA
 70
     0
 62
     1
  6
CENTER
370
    -3
390
F
347
46
348
0
  0
LAYER
  5
80
330
2
100
AcDbSymbolTableRecord
100
AcDbLayerTableRecord
  2
5-SRAFURA
 70
     0
 62
     7
  6
Continuous
370
    -3
390
F
347
46
348
0
  0
LAYER
  5
81
330
2
100
AcDbSymbolTableRecord
100
AcDbLayerTableRecord
  2
6-KOTE
 70
     0
 62
     7
  6
Continuous
370
    -3
390
F
347
46
348
0
  0
LAYER
  5
82
330
2
100
AcDbSymbolTableRecord
100
AcDbLayerTableRecord
  2
7-TEKST
 70
     0
 62
     7
  6
Continuous
370
    -3
390
F
347
46
348
0
  0
LAYER
  5
83
330
2
100
AcDbSymbolTableRecord
100
AcDbLayerTableRecord
  2
8-VARJENJA
 70
     0
 62
     1
  6
Continuous
370
    -3
390
F
347
46
348
0
  0
LAYER
  5
84
330
2
100
AcDbSymbolTableRecord
100
AcDbLayerTableRecord
  2
BEMASSUNG
 70
     0
 62
     7
  6
Continuous
370
    -3
390
F
347
46
348
0
  0
LAYER
  5
85
330
2
100
AcDbSymbolTableRecord
100
AcDbLayerTableRecord
  2
UMRISS03
 70
     0
 62
     7
  6
Continuous
370
    -3
390
F
347
46
348
0
  0
LAYER
  5
86
330
2
100
AcDbSymbolTableRecord
100
AcDbLayerTableRecord
  2
UMRISS02
 70
     0
 62
     7
  6
Continuous
370
    -3
390
F
347
46
348
0
  0
LAYER
  5
87
330
2
100
AcDbSymbolTableRecord
100
AcDbLayerTableRecord
  2
HILFSLINIEN
 70
     0
 62
     7
  6
Continuous
370
    -3
390
F
347
46
348
0
  0
LAYER
  5
88
330
2
100
AcDbSymbolTableRecord
100
AcDbLayerTableRecord
  2
UMRISS03_-PSPAC_
 70
     0
 62
     7
  6
Continuous
370
    -3
390
F
347
46
348
0
  0
LAYER
  5
89
330
2
100
AcDbSymbolTableRecord
100
AcDbLayerTableRecord
  2
ACA_VARSAVE
 70
     0
 62
     7
  6
Continuous
370
    -3
390
F
347
46
348
0
  0
LAYER
  5
8A
330
2
100
AcDbSymbolTableRecord
100
AcDbLayerTableRecord
  2
KONTUREN
 70
     0
 62
     7
  6
Continuous
370
    -3
390
F
347
46
348
0
  0
LAYER
  5
8B
330
2
100
AcDbSymbolTableRecord
100
AcDbLayerTableRecord
  2
ACHSE
 70
     0
 62
     7
  6
Continuous
370
    -3
390
F
347
46
348
0
  0
LAYER
  5
8C
330
2
100
AcDbSymbolTableRecord
100
AcDbLayerTableRecord
  2
UNSICHTBAR
 70
     0
 62
     7
  6
Continuous
370
    -3
390
F
347
46
348
0
  0
LAYER
  5
8D
330
2
100
AcDbSymbolTableRecord
100
AcDbLayerTableRecord
  2
MASSE
 70
     0
 62
     7
  6
Continuous
370
    -3
390
F
347
46
348
0
  0
LAYER
  5
8E
330
2
100
AcDbSymbolTableRecord
100
AcDbLayerTableRecord
  2
RAND
 70
     0
 62
     7
  6
Continuous
370
    -3
390
F
347
46
348
0
  0
LAYER
  5
8F
330
2
100
AcDbSymbolTableRecord
100
AcDbLayerTableRecord
  2
D-TEXT
 70
     0
 62
     7
  6
Continuous
370
    -3
390
F
347
46
348
0
  0
LAYER
  5
90
330
2
100
AcDbSymbolTableRecord
100
AcDbLayerTableRecord
  2
F-TEXT
 70
     0
 62
     7
  6
Continuous
370
    -3
390
F
347
46
348
0
  0
LAYER
  5
91
330
2
100
AcDbSymbolTableRecord
100
AcDbLayerTableRecord
  2
I-TEXT
 70
     0
 62
     7
  6
Continuous
370
    -3
390
F
347
46
348
0
  0
LAYER
  5
92
330
2
100
AcDbSymbolTableRecord
100
AcDbLayerTableRecord
  2
D-TEXT-FETT
 70
     0
 62
     7
  6
Continuous
370
    -3
390
F
347
46
348
0
  0
LAYER
  5
93
330
2
100
AcDbSymbolTableRecord
100
AcDbLayerTableRecord
  2
F-TEXT-FETT
 70
     0
 62
     7
  6
Continuous
370
    -3
390
F
347
46
348
0
  0
LAYER
  5
94
330
2
100
AcDbSymbolTableRecord
100
AcDbLayerTableRecord
  2
I-TEXT-FETT
 70
     0
 62
     7
  6
Continuous
370
    -3
390
F
347
46
348
0
  0
LAYER
  5
95
330
2
100
AcDbSymbolTableRecord
100
AcDbLayerTableRecord
  2
TEXT-D-F-I
 70
     0
 62
     7
  6
Continuous
370
    -3
390
F
347
46
348
0
  0
LAYER
  5
96
330
2
100
AcDbSymbolTableRecord
100
AcDbLayerTableRecord
  2
TEXT-D-F-I-FETT
 70
     0
 62
     7
  6
Continuous
370
    -3
390
F
347
46
348
0
  0
ENDTAB
  0
TABLE
  2
STYLE
  5
3
330
0
100
AcDbSymbolTable
 70
     3
  0
STYLE
  5
11
330
3
100
AcDbSymbolTableRecord
100
AcDbTextStyleTableRecord
  2
Standard
 70
     0
 40
0.0
 41
1.0
 50
0.0
 71
     0
 42
3.5
  3
txt
  4

  0
STYLE
  5
97
330
3
100
AcDbSymbolTableRecord
100
AcDbTextStyleTableRecord
  2
SLDTEXTSTYLE0
 70
     0
 40
0.0
 41
0.6875
 50
0.0
 71
     0
 42
3.5
  3
TXT
  4

  0
STYLE
  5
1A1
330
3
100
AcDbSymbolTableRecord
100
AcDbTextStyleTableRecord
  2
SLDTEXTSTYLE1
 70
     0
 40
0.0
 41
0.75
 50
0.0
 71
     0
 42
3.5
  3
TXT
  4

  0
ENDTAB
  0
TABLE
  2
VIEW
  5
6
330
0
100
AcDbSymbolTable
 70
     0
  0
ENDTAB
  0
TABLE
  2
UCS
  5
7
330
0
100
AcDbSymbolTable
 70
     0
  0
ENDTAB
  0
TABLE
  2
APPID
  5
9
330
0
100
AcDbSymbolTable
 70
     1
  0
APPID
  5
12
330
9
100
AcDbSymbolTableRecord
100
AcDbRegAppTableRecord
  2
ACAD
 70
     0
  0
ENDTAB
  0
TABLE
  2
DIMSTYLE
  5
A
330
0
100
AcDbSymbolTable
 70
     1
100
AcDbDimStyleTable
  0
DIMSTYLE
105
27
330
A
100
AcDbSymbolTableRecord
100
AcDbDimStyleTableRecord
  2
ISO-25
 70
     0
 41
2.5
 42
0.625
 43
3.75
 44
1.25
 73
     0
 74
     0
 77
     1
 78
     8
140
2.5
141
2.5
143
0.0393700787
147
0.625
171
     3
172
     1
178
     0
271
     2
272
     2
274
     3
278
    44
283
     0
284
     8
340
11
  0
ENDTAB
  0
TABLE
  2
BLOCK_RECORD
  5
1
330
0
100
AcDbSymbolTable
 70
     3
  0
BLOCK_RECORD
  5
1F
330
1
100
AcDbSymbolTableRecord
100
AcDbBlockTableRecord
  2
*Model_Space
340
22
 70
     0
280
     1
281
     0
  0
BLOCK_RECORD
  5
1B
330
1
100
AcDbSymbolTableRecord
100
AcDbBlockTableRecord
  2
*Paper_Space
340
1E
 70
     0
280
     1
281
     0
  0
BLOCK_RECORD
  5
23
330
1
100
AcDbSymbolTableRecord
100
AcDbBlockTableRecord
  2
*Paper_Space0
340
26
 70
     0
280
     1
281
     0
  0
BLOCK_RECORD
  5
234
330
1
100
AcDbSymbolTableRecord
100
AcDbBlockTableRecord
  2
SW_NOTE_0
340
0
102
{BLKREFS
331
239
102
}
 70
     0
280
     1
281
     0
  0
BLOCK_RECORD
  5
2C2
330
1
100
AcDbSymbolTableRecord
100
AcDbBlockTableRecord
  2
SW_NOTE_1
340
0
102
{BLKREFS
331
2C7
102
}
 70
     0
280
     1
281
     0
  0
ENDTAB
  0
ENDSEC
  0
SECTION
  2
BLOCKS
  0
BLOCK
  5
20
330
1F
100
AcDbEntity
  8
0
100
AcDbBlockBegin
  2
*Model_Space
 70
     0
 10
0.0
 20
0.0
 30
0.0
  3
*Model_Space
  1

  0
ENDBLK
  5
21
330
1F
100
AcDbEntity
  8
0
100
AcDbBlockEnd
  0
BLOCK
  5
1C
330
1B
100
AcDbEntity
 67
     1
  8
0
100
AcDbBlockBegin
  2
*Paper_Space
 70
     0
 10
0.0
 20
0.0
 30
0.0
  3
*Paper_Space
  1

  0
ENDBLK
  5
1D
330
1B
100
AcDbEntity
 67
     1
  8
0
100
AcDbBlockEnd
  0
BLOCK
  5
24
330
23
100
AcDbEntity
  8
0
100
AcDbBlockBegin
  2
*Paper_Space0
 70
     0
 10
0.0
 20
0.0
 30
0.0
  3
*Paper_Space0
  1

  0
ENDBLK
  5
25
330
23
100
AcDbEntity
  8
0
100
AcDbBlockEnd
  0
BLOCK
  5
235
330
234
100
AcDbEntity
  8
0
100
AcDbBlockBegin
  2
SW_NOTE_0
 70
     0
 10
0.0
 20
0.0
 30
0.0
  3
SW_NOTE_0
  1

  0
MTEXT
  5
237
330
234
100
AcDbEntity
  8
O-TEKST
 62
     0
100
AcDbMText
 10
16.0734375
 20
8.1855801476
 30
0.0
 40
6.35
 41
0.0
 46
0.0
 71
     2
 72
     1
  1
SCHNITT
  7
SLDTEXTSTYLE1
 73
     1
 44
1.0
  0
MTEXT
  5
238
330
234
100
AcDbEntity
  8
O-TEKST
 62
     0
100
AcDbMText
 10
38.5538176
 20
5.3469457771
 30
0.0
 40
3.5
 41
0.0
 46
0.0
 71
     2
 72
     1
  1
A-A
  7
SLDTEXTSTYLE1
 73
     1
 44
1.0
  0
ENDBLK
  5
236
330
234
100
AcDbEntity
  8
0
100
AcDbBlockEnd
  0
BLOCK
  5
2C3
330
2C2
100
AcDbEntity
  8
0
100
AcDbBlockBegin
  2
SW_NOTE_1
 70
     0
 10
0.0
 20
0.0
 30
0.0
  3
SW_NOTE_1
  1

  0
MTEXT
  5
2C5
330
2C2
100
AcDbEntity
  8
O-TEKST
 62
     0
100
AcDbMText
 10
16.0734375
 20
8.1855801476
 30
0.0
 40
6.35
 41
0.0
 46
0.0
 71
     2
 72
     1
  1
SCHNITT
  7
SLDTEXTSTYLE1
 73
     1
 44
1.0
  0
MTEXT
  5
2C6
330
2C2
100
AcDbEntity
  8
O-TEKST
 62
     0
100
AcDbMText
 10
38.0069426
 20
5.3469457771
 30
0.0
 40
3.5
 41
0.0
 46
0.0
 71
     2
 72
     1
  1
B-B
  7
SLDTEXTSTYLE1
 73
     1
 44
1.0
  0
ENDBLK
  5
2C4
330
2C2
100
AcDbEntity
  8
0
100
AcDbBlockEnd
  0
ENDSEC
  0
SECTION
  2
ENTITIES
  0
MTEXT
  5
98
330
1F
100
AcDbEntity
  8
O-TEKST
 62
     7
100
AcDbMText
 10
177.136262137
 20
194.3692780656
 30
0.0
 40
3.5
 41
0.0
 46
0.0
 71
     1
 72
     1
  1
M = 1:20
  7
SLDTEXTSTYLE0
 73
     1
 44
1.0
  0
LINE
  5
99
330
1F
100
AcDbEntity
  8
0
  6
Continuous
 62
     7
370
    25
100
AcDbLine
 10
85.8817808219
 20
109.6004246575
 30
0.0
 11
85.0317808219
 21
109.6004246575
 31
0.0
  0
ARC
  5
9A
330
1F
100
AcDbEntity
  8
0
  6
Continuous
 62
     7
370
    25
100
AcDbCircle
 10
85.8817808219
 20
109.1504246575
 30
0.0
 40
0.4500000000000028
100
AcDbArc
 50
360.0
 51
90.0
  0
LINE
  5
9B
330
1F
100
AcDbEntity
  8
0
  6
Continuous
 62
     7
370
    25
100
AcDbLine
 10
86.3317808219
 20
109.0504246575
 30
0.0
 11
86.3317808219
 21
109.1504246575
 31
0.0
  0
ARC
  5
9C
330
1F
100
AcDbEntity
  8
0
  6
Continuous
 62
     7
370
    25
100
AcDbCircle
 10
85.8817808219
 20
109.0504246575
 30
0.0
 40
0.3500000000000085
100
AcDbArc
 50
270.0
 51
360.0
  0
LINE
  5
9D
330
1F
100
AcDbEntity
  8
0
  6
Continuous
 62
     7
370
    25
100
AcDbLine
 10
86.2317808219
 20
109.0504246575
 30
0.0
 11
86.2317808219
 21
109.1504246575
 31
0.0
  0
LINE
  5
9E
330
1F
100
AcDbEntity
  8
0
  6
Continuous
 62
     7
370
    25
100
AcDbLine
 10
85.0317808219
 20
108.6004246575
 30
0.0
 11
85.8817808219
 21
108.6004246575
 31
0.0
  0
ARC
  5
9F
330
1F
100
AcDbEntity
  8
0
  6
Continuous
 62
     7
370
    25
100
AcDbCircle
 10
85.0317808219
 20
109.1504246575
 30
0.0
 40
0.4500000000000028
100
AcDbArc
 50
90.0
 51
180.0
  0
LINE
  5
A0
330
1F
100
AcDbEntity
  8
0
  6
Continuous
 62
     7
370
    25
100
AcDbLine
 10
84.5817808219
 20
109.1504246575
 30
0.0
 11
84.5817808219
 21
109.0504246575
 31
0.0
  0
LINE
  5
A1
330
1F
100
AcDbEntity
  8
0
  6
Continuous
 62
     7
370
    25
100
AcDbLine
 10
85.0317808219
 20
108.7004246575
 30
0.0
 11
85.8817808219
 21
108.7004246575
 31
0.0
  0
ARC
  5
A2
330
1F
100
AcDbEntity
  8
0
  6
Continuous
 62
     7
370
    25
100
AcDbCircle
 10
85.8817808219
 20
109.1504246575
 30
0.0
 40
0.3500000000000085
100
AcDbArc
 50
360.0
 51
90.0
  0
ARC
  5
A3
330
1F
100
AcDbEntity
  8
0
  6
Continuous
 62
     7
370
    25
100
AcDbCircle
 10
85.0317808219
 20
109.0504246575
 30
0.0
 40
0.3500000000000085
100
AcDbArc
 50
180.0
 51
270.0
  0
LINE
  5
A4
330
1F
100
AcDbEntity
  8
0
  6
Continuous
 62
     7
370
    25
100
AcDbLine
 10
84.6817808219
 20
109.1504246575
 30
0.0
 11
84.6817808219
 21
109.0504246575
 31
0.0
  0
ARC
  5
A5
330
1F
100
AcDbEntity
  8
0
  6
Continuous
 62
     7
370
    25
100
AcDbCircle
 10
85.0317808219
 20
109.1504246575
 30
0.0
 40
0.3500000000000085
100
AcDbArc
 50
90.0
 51
180.0
  0
ARC
  5
A6
330
1F
100
AcDbEntity
  8
0
  6
Continuous
 62
     7
370
    25
100
AcDbCircle
 10
85.8817808219
 20
109.0504246575
 30
0.0
 40
0.4500000000000028
100
AcDbArc
 50
270.0
 51
360.0
  0
ARC
  5
A7
330
1F
100
AcDbEntity
  8
0
  6
Continuous
 62
     7
370
    25
100
AcDbCircle
 10
85.0317808219
 20
109.0504246575
 30
0.0
 40
0.4500000000000028
100
AcDbArc
 50
180.0
 51
270.0
  0
LINE
  5
A8
330
1F
100
AcDbEntity
  8
0
  6
Continuous
 62
     7
370
    25
100
AcDbLine
 10
85.8817808219
 20
109.5004246575
 30
0.0
 11
85.0317808219
 21
109.5004246575
 31
0.0
  0
ARC
  5
A9
330
1F
100
AcDbEntity
  8
0
  6
Continuous
 62
     7
370
    25
100
AcDbCircle
 10
85.8817808219
 20
80.2004246575
 30
0.0
 40
0.3499999999999943
100
AcDbArc
 50
0.0
 51
90.0
  0
LINE
  5
AA
330
1F
100
AcDbEntity
  8
0
  6
Continuous
 62
     7
370
    25
100
AcDbLine
 10
85.8817808219
 20
80.5504246575
 30
0.0
 11
85.0317808219
 21
80.5504246575
 31
0.0
  0
ARC
  5
AB
330
1F
100
AcDbEntity
  8
0
  6
Continuous
 62
     7
370
    25
100
AcDbCircle
 10
85.0317808219
 20
80.2004246575
 30
0.0
 40
0.3500000000000085
100
AcDbArc
 50
90.0
 51
180.0
  0
LINE
  5
AC
330
1F
100
AcDbEntity
  8
0
  6
Continuous
 62
     7
370
    25
100
AcDbLine
 10
84.6817808219
 20
80.2004246575
 30
0.0
 11
84.6817808219
 21
80.1004246575
 31
0.0
  0
LINE
  5
AD
330
1F
100
AcDbEntity
  8
0
  6
Continuous
 62
     7
370
    25
100
AcDbLine
 10
86.2317808219
 20
80.1004246575
 30
0.0
 11
86.2317808219
 21
80.2004246575
 31
0.0
  0
LINE
  5
AE
330
1F
100
AcDbEntity
  8
0
  6
Continuous
 62
     7
370
    25
100
AcDbLine
 10
84.5817808219
 20
80.2004246575
 30
0.0
 11
84.5817808219
 21
80.1004246575
 31
0.0
  0
ARC
  5
AF
330
1F
100
AcDbEntity
  8
0
  6
Continuous
 62
     7
370
    25
100
AcDbCircle
 10
85.0317808219
 20
80.2004246575
 30
0.0
 40
0.4500000000000028
100
AcDbArc
 50
90.0
 51
180.0
  0
ARC
  5
B0
330
1F
100
AcDbEntity
  8
0
  6
Continuous
 62
     7
370
    25
100
AcDbCircle
 10
85.0317808219
 20
80.1004246575
 30
0.0
 40
0.3500000000000085
100
AcDbArc
 50
180.0
 51
270.0
  0
LINE
  5
B1
330
1F
100
AcDbEntity
  8
0
  6
Continuous
 62
     7
370
    25
100
AcDbLine
 10
85.0317808219
 20
79.7504246575
 30
0.0
 11
85.8817808219
 21
79.7504246575
 31
0.0
  0
ARC
  5
B2
330
1F
100
AcDbEntity
  8
0
  6
Continuous
 62
     7
370
    25
100
AcDbCircle
 10
85.8817808219
 20
80.1004246575
 30
0.0
 40
0.3500000000000085
100
AcDbArc
 50
270.0
 51
0.0
  0
LINE
  5
B3
330
1F
100
AcDbEntity
  8
0
  6
Continuous
 62
     7
370
    25
100
AcDbLine
 10
85.8817808219
 20
80.6504246575
 30
0.0
 11
85.0317808219
 21
80.6504246575
 31
0.0
  0
ARC
  5
B4
330
1F
100
AcDbEntity
  8
0
  6
Continuous
 62
     7
370
    25
100
AcDbCircle
 10
85.0317808219
 20
80.1004246575
 30
0.0
 40
0.4500000000000028
100
AcDbArc
 50
180.0
 51
270.0
  0
ARC
  5
B5
330
1F
100
AcDbEntity
  8
0
  6
Continuous
 62
     7
370
    25
100
AcDbCircle
 10
85.8817808219
 20
80.1004246575
 30
0.0
 40
0.4500000000000028
100
AcDbArc
 50
270.0
 51
360.0
  0
LINE
  5
B6
330
1F
100
AcDbEntity
  8
0
  6
Continuous
 62
     7
370
    25
100
AcDbLine
 10
86.3317808219
 20
80.1004246575
 30
0.0
 11
86.3317808219
 21
80.2004246575
 31
0.0
  0
ARC
  5
B7
330
1F
100
AcDbEntity
  8
0
  6
Continuous
 62
     7
370
    25
100
AcDbCircle
 10
85.8817808219
 20
80.2004246575
 30
0.0
 40
0.4500000000000028
100
AcDbArc
 50
360.0
 51
90.0
  0
LINE
  5
B8
330
1F
100
AcDbEntity
  8
0
  6
Continuous
 62
     7
370
    25
100
AcDbLine
 10
85.0317808219
 20
79.6504246575
 30
0.0
 11
85.8817808219
 21
79.6504246575
 31
0.0
  0
ARC
  5
B9
330
1F
100
AcDbEntity
  8
0
  6
Continuous
 62
     7
370
    25
100
AcDbCircle
 10
85.8817808219
 20
100.2504246575
 30
0.0
 40
0.3499999999999943
100
AcDbArc
 50
0.0
 51
90.0
  0
LINE
  5
BA
330
1F
100
AcDbEntity
  8
0
  6
Continuous
 62
     7
370
    25
100
AcDbLine
 10
85.8817808219
 20
100.6004246575
 30
0.0
 11
85.0317808219
 21
100.6004246575
 31
0.0
  0
ARC
  5
BB
330
1F
100
AcDbEntity
  8
0
  6
Continuous
 62
     7
370
    25
100
AcDbCircle
 10
85.0317808219
 20
100.2504246575
 30
0.0
 40
0.3500000000000085
100
AcDbArc
 50
90.0
 51
180.0
  0
LINE
  5
BC
330
1F
100
AcDbEntity
  8
0
  6
Continuous
 62
     7
370
    25
100
AcDbLine
 10
84.6817808219
 20
100.2504246575
 30
0.0
 11
84.6817808219
 21
100.1504246575
 31
0.0
  0
ARC
  5
BD
330
1F
100
AcDbEntity
  8
0
  6
Continuous
 62
     7
370
    25
100
AcDbCircle
 10
85.0317808219
 20
100.1504246575
 30
0.0
 40
0.3500000000000085
100
AcDbArc
 50
180.0
 51
270.0
  0
LINE
  5
BE
330
1F
100
AcDbEntity
  8
0
  6
Continuous
 62
     7
370
    25
100
AcDbLine
 10
85.8817808219
 20
100.7004246575
 30
0.0
 11
85.0317808219
 21
100.7004246575
 31
0.0
  0
ARC
  5
BF
330
1F
100
AcDbEntity
  8
0
  6
Continuous
 62
     7
370
    25
100
AcDbCircle
 10
85.8817808219
 20
100.2504246575
 30
0.0
 40
0.4500000000000028
100
AcDbArc
 50
360.0
 51
90.0
  0
ARC
  5
C0
330
1F
100
AcDbEntity
  8
0
  6
Continuous
 62
     7
370
    25
100
AcDbCircle
 10
85.0317808219
 20
100.1504246575
 30
0.0
 40
0.4499999999999886
100
AcDbArc
 50
180.0
 51
270.0
  0
LINE
  5
C1
330
1F
100
AcDbEntity
  8
0
  6
Continuous
 62
     7
370
    25
100
AcDbLine
 10
84.5817808219
 20
100.2504246575
 30
0.0
 11
84.5817808219
 21
100.1504246575
 31
0.0
  0
ARC
  5
C2
330
1F
100
AcDbEntity
  8
0
  6
Continuous
 62
     7
370
    25
100
AcDbCircle
 10
85.0317808219
 20
100.2504246575
 30
0.0
 40
0.4500000000000028
100
AcDbArc
 50
90.0
 51
180.0
  0
LINE
  5
C3
330
1F
100
AcDbEntity
  8
0
  6
Continuous
 62
     7
370
    25
100
AcDbLine
 10
85.0317808219
 20
99.8004246575
 30
0.0
 11
85.8817808219
 21
99.8004246575
 31
0.0
  0
ARC
  5
C4
330
1F
100
AcDbEntity
  8
0
  6
Continuous
 62
     7
370
    25
100
AcDbCircle
 10
85.8817808219
 20
100.1504246575
 30
0.0
 40
0.4500000000000028
100
AcDbArc
 50
270.0
 51
360.0
  0
LINE
  5
C5
330
1F
100
AcDbEntity
  8
0
  6
Continuous
 62
     7
370
    25
100
AcDbLine
 10
85.0317808219
 20
99.7004246575
 30
0.0
 11
85.8817808219
 21
99.7004246575
 31
0.0
  0
LINE
  5
C6
330
1F
100
AcDbEntity
  8
0
  6
Continuous
 62
     7
370
    25
100
AcDbLine
 10
86.2317808219
 20
100.1504246575
 30
0.0
 11
86.2317808219
 21
100.2504246575
 31
0.0
  0
ARC
  5
C7
330
1F
100
AcDbEntity
  8
0
  6
Continuous
 62
     7
370
    25
100
AcDbCircle
 10
85.8817808219
 20
100.1504246575
 30
0.0
 40
0.3500000000000085
100
AcDbArc
 50
270.0
 51
0.0
  0
LINE
  5
C8
330
1F
100
AcDbEntity
  8
0
  6
Continuous
 62
     7
370
    25
100
AcDbLine
 10
86.3317808219
 20
100.1504246575
 30
0.0
 11
86.3317808219
 21
100.2504246575
 31
0.0
  0
ARC
  5
C9
330
1F
100
AcDbEntity
  8
0
  6
Continuous
 62
     7
370
    25
100
AcDbCircle
 10
85.0317808219
 20
89.0004246575
 30
0.0
 40
0.3500000000000085
100
AcDbArc
 50
180.0
 51
270.0
  0
LINE
  5
CA
330
1F
100
AcDbEntity
  8
0
  6
Continuous
 62
     7
370
    25
100
AcDbLine
 10
85.0317808219
 20
88.6504246575
 30
0.0
 11
85.8817808219
 21
88.6504246575
 31
0.0
  0
ARC
  5
CB
330
1F
100
AcDbEntity
  8
0
  6
Continuous
 62
     7
370
    25
100
AcDbCircle
 10
85.8817808219
 20
89.0004246575
 30
0.0
 40
0.3500000000000085
100
AcDbArc
 50
270.0
 51
360.0
  0
LINE
  5
CC
330
1F
100
AcDbEntity
  8
0
  6
Continuous
 62
     7
370
    25
100
AcDbLine
 10
86.2317808219
 20
89.0004246575
 30
0.0
 11
86.2317808219
 21
89.1004246575
 31
0.0
  0
ARC
  5
CD
330
1F
100
AcDbEntity
  8
0
  6
Continuous
 62
     7
370
    25
100
AcDbCircle
 10
85.8817808219
 20
89.1004246575
 30
0.0
 40
0.3500000000000085
100
AcDbArc
 50
360.0
 51
90.0
  0
LINE
  5
CE
330
1F
100
AcDbEntity
  8
0
  6
Continuous
 62
     7
370
    25
100
AcDbLine
 10
85.8817808219
 20
89.4504246575
 30
0.0
 11
85.0317808219
 21
89.4504246575
 31
0.0
  0
ARC
  5
CF
330
1F
100
AcDbEntity
  8
0
  6
Continuous
 62
     7
370
    25
100
AcDbCircle
 10
85.0317808219
 20
89.1004246575
 30
0.0
 40
0.3500000000000085
100
AcDbArc
 50
90.0
 51
180.0
  0
LINE
  5
D0
330
1F
100
AcDbEntity
  8
0
  6
Continuous
 62
     7
370
    25
100
AcDbLine
 10
84.6817808219
 20
89.1004246575
 30
0.0
 11
84.6817808219
 21
89.0004246575
 31
0.0
  0
LINE
  5
D1
330
1F
100
AcDbEntity
  8
0
  6
Continuous
 62
     7
370
    25
100
AcDbLine
 10
85.0317808219
 20
88.5504246575
 30
0.0
 11
85.8817808219
 21
88.5504246575
 31
0.0
  0
ARC
  5
D2
330
1F
100
AcDbEntity
  8
0
  6
Continuous
 62
     7
370
    25
100
AcDbCircle
 10
85.0317808219
 20
89.0004246575
 30
0.0
 40
0.4499999999999886
100
AcDbArc
 50
180.0
 51
270.0
  0
LINE
  5
D3
330
1F
100
AcDbEntity
  8
0
  6
Continuous
 62
     7
370
    25
100
AcDbLine
 10
84.5817808219
 20
89.1004246575
 30
0.0
 11
84.5817808219
 21
89.0004246575
 31
0.0
  0
ARC
  5
D4
330
1F
100
AcDbEntity
  8
0
  6
Continuous
 62
     7
370
    25
100
AcDbCircle
 10
85.0317808219
 20
89.1004246575
 30
0.0
 40
0.4500000000000171
100
AcDbArc
 50
90.0
 51
180.0
  0
LINE
  5
D5
330
1F
100
AcDbEntity
  8
0
  6
Continuous
 62
     7
370
    25
100
AcDbLine
 10
85.8817808219
 20
89.5504246575
 30
0.0
 11
85.0317808219
 21
89.5504246575
 31
0.0
  0
ARC
  5
D6
330
1F
100
AcDbEntity
  8
0
  6
Continuous
 62
     7
370
    25
100
AcDbCircle
 10
85.8817808219
 20
89.1004246575
 30
0.0
 40
0.4500000000000028
100
AcDbArc
 50
360.0
 51
90.0
  0
LINE
  5
D7
330
1F
100
AcDbEntity
  8
0
  6
Continuous
 62
     7
370
    25
100
AcDbLine
 10
86.3317808219
 20
89.0004246575
 30
0.0
 11
86.3317808219
 21
89.1004246575
 31
0.0
  0
ARC
  5
D8
330
1F
100
AcDbEntity
  8
0
  6
Continuous
 62
     7
370
    25
100
AcDbCircle
 10
85.8817808219
 20
89.0004246575
 30
0.0
 40
0.4500000000000028
100
AcDbArc
 50
270.0
 51
360.0
  0
LINE
  5
D9
330
1F
100
AcDbEntity
  8
0
  6
Continuous
 62
     7
370
    25
100
AcDbLine
 10
69.4567808219
 20
114.5004246575
 30
0.0
 11
101.4567808219
 21
114.5004246575
 31
0.0
  0
LINE
  5
DA
330
1F
100
AcDbEntity
  8
0
  6
Continuous
 62
     7
370
    25
100
AcDbLine
 10
101.4567808219
 20
114.5004246575
 30
0.0
 11
101.4567808219
 21
94.8004246575
 31
0.0
  0
LINE
  5
DB
330
1F
100
AcDbEntity
  8
0
  6
Continuous
 62
     7
370
    25
100
AcDbLine
 10
101.4567808219
 20
94.8004246575
 30
0.0
 11
69.4567808219
 21
94.8004246575
 31
0.0
  0
LINE
  5
DC
330
1F
100
AcDbEntity
  8
0
  6
Continuous
 62
     7
370
    25
100
AcDbLine
 10
69.4567808219
 20
94.8004246575
 30
0.0
 11
69.4567808219
 21
114.5004246575
 31
0.0
  0
LINE
  5
DD
330
1F
100
AcDbEntity
  8
0
  6
Continuous
 62
     7
370
    25
100
AcDbLine
 10
101.4567808219
 20
94.4504246575
 30
0.0
 11
101.4567808219
 21
74.7504246575
 31
0.0
  0
LINE
  5
DE
330
1F
100
AcDbEntity
  8
0
  6
Continuous
 62
     7
370
    25
100
AcDbLine
 10
101.4567808219
 20
74.7504246575
 30
0.0
 11
69.4567808219
 21
74.7504246575
 31
0.0
  0
LINE
  5
DF
330
1F
100
AcDbEntity
  8
0
  6
Continuous
 62
     7
370
    25
100
AcDbLine
 10
69.4567808219
 20
74.7504246575
 30
0.0
 11
69.4567808219
 21
94.4504246575
 31
0.0
  0
LINE
  5
E0
330
1F
100
AcDbEntity
  8
0
  6
Continuous
 62
     7
370
    25
100
AcDbLine
 10
69.4567808219
 20
94.4504246575
 30
0.0
 11
101.4567808219
 21
94.4504246575
 31
0.0
  0
LINE
  5
E1
330
1F
100
AcDbEntity
  8
0
  6
Continuous
 62
     7
370
    25
100
AcDbLine
 10
101.4544668301
 20
114.4981106658
 30
0.0
 11
101.4544668301
 21
94.8027386493
 31
0.0
  0
LINE
  5
E2
330
1F
100
AcDbEntity
  8
0
  6
Continuous
 62
     7
370
    25
100
AcDbLine
 10
101.4544668301
 20
94.8027386493
 30
0.0
 11
69.4590948137
 21
94.8027386493
 31
0.0
  0
LINE
  5
E3
330
1F
100
AcDbEntity
  8
0
  6
Continuous
 62
     7
370
    25
100
AcDbLine
 10
69.4590948137
 20
114.4981106658
 30
0.0
 11
101.4544668301
 21
114.4981106658
 31
0.0
  0
LINE
  5
E4
330
1F
100
AcDbEntity
  8
0
  6
Continuous
 62
     7
370
    25
100
AcDbLine
 10
69.4590948137
 20
94.8027386493
 30
0.0
 11
69.4590948137
 21
114.4981106658
 31
0.0
  0
LINE
  5
E5
330
1F
100
AcDbEntity
  8
0
  6
Continuous
 62
     7
370
    25
100
AcDbLine
 10
101.6067808219
 20
94.6504246575
 30
0.0
 11
69.3067808219
 21
94.6504246575
 31
0.0
  0
LINE
  5
E6
330
1F
100
AcDbEntity
  8
0
  6
Continuous
 62
     7
370
    25
100
AcDbLine
 10
69.3067808219
 20
94.6504246575
 30
0.0
 11
69.3067808219
 21
114.6504246575
 31
0.0
  0
LINE
  5
E7
330
1F
100
AcDbEntity
  8
0
  6
Continuous
 62
     7
370
    25
100
AcDbLine
 10
69.3067808219
 20
114.6504246575
 30
0.0
 11
101.6067808219
 21
114.6504246575
 31
0.0
  0
LINE
  5
E8
330
1F
100
AcDbEntity
  8
0
  6
Continuous
 62
     7
370
    25
100
AcDbLine
 10
101.6067808219
 20
114.6504246575
 30
0.0
 11
101.6067808219
 21
94.6504246575
 31
0.0
  0
LINE
  5
E9
330
1F
100
AcDbEntity
  8
0
  6
Continuous
 62
     7
370
    25
100
AcDbLine
 10
101.4544668301
 20
74.7527386493
 30
0.0
 11
69.4590948137
 21
74.7527386493
 31
0.0
  0
LINE
  5
EA
330
1F
100
AcDbEntity
  8
0
  6
Continuous
 62
     7
370
    25
100
AcDbLine
 10
101.4544668301
 20
94.4481106658
 30
0.0
 11
101.4544668301
 21
74.7527386493
 31
0.0
  0
LINE
  5
EB
330
1F
100
AcDbEntity
  8
0
  6
Continuous
 62
     7
370
    25
100
AcDbLine
 10
69.4590948137
 20
94.4481106658
 30
0.0
 11
101.4544668301
 21
94.4481106658
 31
0.0
  0
LINE
  5
EC
330
1F
100
AcDbEntity
  8
0
  6
Continuous
 62
     7
370
    25
100
AcDbLine
 10
69.4590948137
 20
74.7527386493
 30
0.0
 11
69.4590948137
 21
94.4481106658
 31
0.0
  0
LINE
  5
ED
330
1F
100
AcDbEntity
  8
0
  6
Continuous
 62
     7
370
    25
100
AcDbLine
 10
101.6067808219
 20
94.6004246575
 30
0.0
 11
101.6067808219
 21
74.6004246575
 31
0.0
  0
LINE
  5
EE
330
1F
100
AcDbEntity
  8
0
  6
Continuous
 62
     7
370
    25
100
AcDbLine
 10
101.6067808219
 20
74.6004246575
 30
0.0
 11
69.3067808219
 21
74.6004246575
 31
0.0
  0
LINE
  5
EF
330
1F
100
AcDbEntity
  8
0
  6
Continuous
 62
     7
370
    25
100
AcDbLine
 10
69.3067808219
 20
74.6004246575
 30
0.0
 11
69.3067808219
 21
94.6004246575
 31
0.0
  0
LINE
  5
F0
330
1F
100
AcDbEntity
  8
0
  6
Continuous
 62
     7
370
    25
100
AcDbLine
 10
69.3067808219
 20
94.6004246575
 30
0.0
 11
101.6067808219
 21
94.6004246575
 31
0.0
  0
LINE
  5
F1
330
1F
100
AcDbEntity
  8
0
  6
Continuous
 62
     7
370
    25
100
AcDbLine
 10
113.3869899265
 20
136.4754246575
 30
0.0
 11
113.3869899265
 21
136.2754246575
 31
0.0
  0
LINE
  5
F2
330
1F
100
AcDbEntity
  8
0
  6
Continuous
 62
     7
370
    25
100
AcDbLine
 10
115.3869899265
 20
136.4754246575
 30
0.0
 11
115.3869899265
 21
136.2754246575
 31
0.0
  0
LINE
  5
F3
330
1F
100
AcDbEntity
  8
0
  6
Continuous
 62
     7
370
    25
100
AcDbLine
 10
113.3869899265
 20
136.2754246575
 30
0.0
 11
115.3869899265
 21
136.2754246575
 31
0.0
  0
LINE
  5
F4
330
1F
100
AcDbEntity
  8
0
  6
Continuous
 62
     7
370
    25
100
AcDbLine
 10
113.3869899265
 20
136.4754246575
 30
0.0
 11
115.3869899265
 21
136.4754246575
 31
0.0
  0
LINE
  5
F5
330
1F
100
AcDbEntity
  8
0
  6
Continuous
 62
     7
370
    25
100
AcDbLine
 10
113.3869899265
 20
136.5257700817
 30
0.0
 11
113.3869899265
 21
136.4754246575
 31
0.0
  0
LINE
  5
F6
330
1F
100
AcDbEntity
  8
0
  6
Continuous
 62
     7
370
    25
100
AcDbLine
 10
115.3869899265
 20
136.5257700817
 30
0.0
 11
115.3869899265
 21
136.4754246575
 31
0.0
  0
LINE
  5
F7
330
1F
100
AcDbEntity
  8
0
  6
Continuous
 62
     7
370
    25
100
AcDbLine
 10
115.3869899265
 20
137.2579520011
 30
0.0
 11
115.3869899265
 21
136.5257700817
 31
0.0
  0
LINE
  5
F8
330
1F
100
AcDbEntity
  8
0
  6
Continuous
 62
     7
370
    25
100
AcDbLine
 10
113.3869899265
 20
137.2579520011
 30
0.0
 11
113.3869899265
 21
136.5257700817
 31
0.0
  0
LINE
  5
F9
330
1F
100
AcDbEntity
  8
0
  6
Continuous
 62
     7
370
    25
100
AcDbLine
 10
113.3869899265
 20
137.3754246575
 30
0.0
 11
113.3869899265
 21
137.2579520011
 31
0.0
  0
LINE
  5
FA
330
1F
100
AcDbEntity
  8
0
  6
Continuous
 62
     7
370
    25
100
AcDbLine
 10
115.3869899265
 20
137.3754246575
 30
0.0
 11
115.3869899265
 21
137.2579520011
 31
0.0
  0
LINE
  5
FB
330
1F
100
AcDbEntity
  8
0
  6
Continuous
 62
     7
370
    25
100
AcDbLine
 10
115.3869899265
 20
52.9754246575
 30
0.0
 11
113.3869899265
 21
52.9754246575
 31
0.0
  0
LINE
  5
FC
330
1F
100
AcDbEntity
  8
0
  6
Continuous
 62
     7
370
    25
100
AcDbLine
 10
115.3869899265
 20
52.7754246575
 30
0.0
 11
115.3869899265
 21
52.9754246575
 31
0.0
  0
LINE
  5
FD
330
1F
100
AcDbEntity
  8
0
  6
Continuous
 62
     7
370
    25
100
AcDbLine
 10
115.3869899265
 20
52.7754246575
 30
0.0
 11
113.3869899265
 21
52.7754246575
 31
0.0
  0
LINE
  5
FE
330
1F
100
AcDbEntity
  8
0
  6
Continuous
 62
     7
370
    25
100
AcDbLine
 10
113.3869899265
 20
52.7754246575
 30
0.0
 11
113.3869899265
 21
52.9754246575
 31
0.0
  0
LINE
  5
FF
330
1F
100
AcDbEntity
  8
0
  6
Continuous
 62
     7
370
    25
100
AcDbLine
 10
115.3869899265
 20
52.7250792334
 30
0.0
 11
115.3869899265
 21
52.7754246575
 31
0.0
  0
LINE
  5
100
330
1F
100
AcDbEntity
  8
0
  6
Continuous
 62
     7
370
    25
100
AcDbLine
 10
113.3869899265
 20
52.7250792334
 30
0.0
 11
113.3869899265
 21
52.7754246575
 31
0.0
  0
LINE
  5
101
330
1F
100
AcDbEntity
  8
0
  6
Continuous
 62
     7
370
    25
100
AcDbLine
 10
113.3869899265
 20
51.9928973139
 30
0.0
 11
113.3869899265
 21
52.7250792334
 31
0.0
  0
LINE
  5
102
330
1F
100
AcDbEntity
  8
0
  6
Continuous
 62
     7
370
    25
100
AcDbLine
 10
115.3869899265
 20
51.9928973139
 30
0.0
 11
115.3869899265
 21
52.7250792334
 31
0.0
  0
LINE
  5
103
330
1F
100
AcDbEntity
  8
0
  6
Continuous
 62
     7
370
    25
100
AcDbLine
 10
115.3869899265
 20
51.8754246575
 30
0.0
 11
115.3869899265
 21
51.9928973139
 31
0.0
  0
LINE
  5
104
330
1F
100
AcDbEntity
  8
0
  6
Continuous
 62
     7
370
    25
100
AcDbLine
 10
113.3869899265
 20
51.8754246575
 30
0.0
 11
113.3869899265
 21
51.9928973139
 31
0.0
  0
ARC
  5
105
330
1F
100
AcDbEntity
  8
0
  6
Continuous
 62
     7
370
    25
100
AcDbCircle
 10
85.0317808219
 20
120.2504246575
 30
0.0
 40
0.3500000000000085
100
AcDbArc
 50
90.0
 51
180.0
  0
ARC
  5
106
330
1F
100
AcDbEntity
  8
0
  6
Continuous
 62
     7
370
    25
100
AcDbCircle
 10
85.8817808219
 20
120.1504246575
 30
0.0
 40
0.3500000000000085
100
AcDbArc
 50
270.0
 51
0.0
  0
LINE
  5
107
330
1F
100
AcDbEntity
  8
0
  6
Continuous
 62
     7
370
    25
100
AcDbLine
 10
86.3317808219
 20
120.1504246575
 30
0.0
 11
86.3317808219
 21
120.2504246575
 31
0.0
  0
ARC
  5
108
330
1F
100
AcDbEntity
  8
0
  6
Continuous
 62
     7
370
    25
100
AcDbCircle
 10
85.8817808219
 20
120.1504246575
 30
0.0
 40
0.4499999999999886
100
AcDbArc
 50
270.0
 51
0.0
  0
LINE
  5
109
330
1F
100
AcDbEntity
  8
0
  6
Continuous
 62
     7
370
    25
100
AcDbLine
 10
85.0317808219
 20
119.7004246575
 30
0.0
 11
85.8817808219
 21
119.7004246575
 31
0.0
  0
ARC
  5
10A
330
1F
100
AcDbEntity
  8
0
  6
Continuous
 62
     7
370
    25
100
AcDbCircle
 10
85.0317808219
 20
120.1504246575
 30
0.0
 40
0.4500000000000028
100
AcDbArc
 50
180.0
 51
270.0
  0
LINE
  5
10B
330
1F
100
AcDbEntity
  8
0
  6
Continuous
 62
     7
370
    25
100
AcDbLine
 10
84.5817808219
 20
120.2504246575
 30
0.0
 11
84.5817808219
 21
120.1504246575
 31
0.0
  0
ARC
  5
10C
330
1F
100
AcDbEntity
  8
0
  6
Continuous
 62
     7
370
    25
100
AcDbCircle
 10
85.0317808219
 20
120.2504246575
 30
0.0
 40
0.4500000000000171
100
AcDbArc
 50
90.0
 51
180.0
  0
LINE
  5
10D
330
1F
100
AcDbEntity
  8
0
  6
Continuous
 62
     7
370
    25
100
AcDbLine
 10
85.8817808219
 20
120.6004246575
 30
0.0
 11
85.0317808219
 21
120.6004246575
 31
0.0
  0
ARC
  5
10E
330
1F
100
AcDbEntity
  8
0
  6
Continuous
 62
     7
370
    25
100
AcDbCircle
 10
85.8817808219
 20
120.2504246575
 30
0.0
 40
0.3500000000000085
100
AcDbArc
 50
0.0
 51
90.0
  0
LINE
  5
10F
330
1F
100
AcDbEntity
  8
0
  6
Continuous
 62
     7
370
    25
100
AcDbLine
 10
86.2317808219
 20
120.1504246575
 30
0.0
 11
86.2317808219
 21
120.2504246575
 31
0.0
  0
LINE
  5
110
330
1F
100
AcDbEntity
  8
0
  6
Continuous
 62
     7
370
    25
100
AcDbLine
 10
84.6817808219
 20
120.2504246575
 30
0.0
 11
84.6817808219
 21
120.1504246575
 31
0.0
  0
LINE
  5
111
330
1F
100
AcDbEntity
  8
0
  6
Continuous
 62
     7
370
    25
100
AcDbLine
 10
85.8817808219
 20
120.7004246575
 30
0.0
 11
85.0317808219
 21
120.7004246575
 31
0.0
  0
ARC
  5
112
330
1F
100
AcDbEntity
  8
0
  6
Continuous
 62
     7
370
    25
100
AcDbCircle
 10
85.8817808219
 20
120.2504246575
 30
0.0
 40
0.4500000000000171
100
AcDbArc
 50
0.0
 51
90.0
  0
ARC
  5
113
330
1F
100
AcDbEntity
  8
0
  6
Continuous
 62
     7
370
    25
100
AcDbCircle
 10
85.0317808219
 20
120.1504246575
 30
0.0
 40
0.3499999999999943
100
AcDbArc
 50
180.0
 51
270.0
  0
LINE
  5
114
330
1F
100
AcDbEntity
  8
0
  6
Continuous
 62
     7
370
    25
100
AcDbLine
 10
85.0317808219
 20
119.8004246575
 30
0.0
 11
85.8817808219
 21
119.8004246575
 31
0.0
  0
ARC
  5
115
330
1F
100
AcDbEntity
  8
0
  6
Continuous
 62
     7
370
    25
100
AcDbCircle
 10
85.8817808219
 20
69.0004246575
 30
0.0
 40
0.3500000000000085
100
AcDbArc
 50
270.0
 51
0.0
  0
LINE
  5
116
330
1F
100
AcDbEntity
  8
0
  6
Continuous
 62
     7
370
    25
100
AcDbLine
 10
86.2317808219
 20
69.0004246575
 30
0.0
 11
86.2317808219
 21
69.1004246575
 31
0.0
  0
LINE
  5
117
330
1F
100
AcDbEntity
  8
0
  6
Continuous
 62
     7
370
    25
100
AcDbLine
 10
84.5817808219
 20
69.1004246575
 30
0.0
 11
84.5817808219
 21
69.0004246575
 31
0.0
  0
ARC
  5
118
330
1F
100
AcDbEntity
  8
0
  6
Continuous
 62
     7
370
    25
100
AcDbCircle
 10
85.0317808219
 20
69.1004246575
 30
0.0
 40
0.4500000000000028
100
AcDbArc
 50
90.0
 51
180.0
  0
LINE
  5
119
330
1F
100
AcDbEntity
  8
0
  6
Continuous
 62
     7
370
    25
100
AcDbLine
 10
85.8817808219
 20
69.5504246575
 30
0.0
 11
85.0317808219
 21
69.5504246575
 31
0.0
  0
ARC
  5
11A
330
1F
100
AcDbEntity
  8
0
  6
Continuous
 62
     7
370
    25
100
AcDbCircle
 10
85.8817808219
 20
69.1004246575
 30
0.0
 40
0.4500000000000028
100
AcDbArc
 50
0.0
 51
90.0
  0
LINE
  5
11B
330
1F
100
AcDbEntity
  8
0
  6
Continuous
 62
     7
370
    25
100
AcDbLine
 10
86.3317808219
 20
69.0004246575
 30
0.0
 11
86.3317808219
 21
69.1004246575
 31
0.0
  0
ARC
  5
11C
330
1F
100
AcDbEntity
  8
0
  6
Continuous
 62
     7
370
    25
100
AcDbCircle
 10
85.8817808219
 20
69.1004246575
 30
0.0
 40
0.3500000000000085
100
AcDbArc
 50
0.0
 51
90.0
  0
ARC
  5
11D
330
1F
100
AcDbEntity
  8
0
  6
Continuous
 62
     7
370
    25
100
AcDbCircle
 10
85.0317808219
 20
69.1004246575
 30
0.0
 40
0.3499999999999943
100
AcDbArc
 50
90.0
 51
180.0
  0
LINE
  5
11E
330
1F
100
AcDbEntity
  8
0
  6
Continuous
 62
     7
370
    25
100
AcDbLine
 10
85.8817808219
 20
69.4504246575
 30
0.0
 11
85.0317808219
 21
69.4504246575
 31
0.0
  0
ARC
  5
11F
330
1F
100
AcDbEntity
  8
0
  6
Continuous
 62
     7
370
    25
100
AcDbCircle
 10
85.8817808219
 20
69.0004246575
 30
0.0
 40
0.4500000000000028
100
AcDbArc
 50
270.0
 51
0.0
  0
ARC
  5
120
330
1F
100
AcDbEntity
  8
0
  6
Continuous
 62
     7
370
    25
100
AcDbCircle
 10
85.0317808219
 20
69.0004246575
 30
0.0
 40
0.4500000000000028
100
AcDbArc
 50
180.0
 51
270.0
  0
ARC
  5
121
330
1F
100
AcDbEntity
  8
0
  6
Continuous
 62
     7
370
    25
100
AcDbCircle
 10
85.0317808219
 20
69.0004246575
 30
0.0
 40
0.3500000000000085
100
AcDbArc
 50
180.0
 51
270.0
  0
LINE
  5
122
330
1F
100
AcDbEntity
  8
0
  6
Continuous
 62
     7
370
    25
100
AcDbLine
 10
85.0317808219
 20
68.6504246575
 30
0.0
 11
85.8817808219
 21
68.6504246575
 31
0.0
  0
LINE
  5
123
330
1F
100
AcDbEntity
  8
0
  6
Continuous
 62
     7
370
    25
100
AcDbLine
 10
84.6817808219
 20
69.1004246575
 30
0.0
 11
84.6817808219
 21
69.0004246575
 31
0.0
  0
LINE
  5
124
330
1F
100
AcDbEntity
  8
0
  6
Continuous
 62
     7
370
    25
100
AcDbLine
 10
85.0317808219
 20
68.5504246575
 30
0.0
 11
85.8817808219
 21
68.5504246575
 31
0.0
  0
ARC
  5
125
330
1F
100
AcDbEntity
  8
0
  6
Continuous
 62
     7
370
    25
100
AcDbCircle
 10
85.0317808219
 20
136.2504246575
 30
0.0
 40
0.3499999999999943
100
AcDbArc
 50
180.0
 51
270.0
  0
ARC
  5
126
330
1F
100
AcDbEntity
  8
0
  6
Continuous
 62
     7
370
    25
100
AcDbCircle
 10
85.8817808219
 20
136.2504246575
 30
0.0
 40
0.3500000000000085
100
AcDbArc
 50
270.0
 51
0.0
  0
ARC
  5
127
330
1F
100
AcDbEntity
  8
0
  6
Continuous
 62
     7
370
    25
100
AcDbCircle
 10
85.8817808219
 20
136.3504246575
 30
0.0
 40
0.3500000000000085
100
AcDbArc
 50
0.0
 51
90.0
  0
LINE
  5
128
330
1F
100
AcDbEntity
  8
0
  6
Continuous
 62
     7
370
    25
100
AcDbLine
 10
85.8817808219
 20
136.7004246575
 30
0.0
 11
85.0317808219
 21
136.7004246575
 31
0.0
  0
ARC
  5
129
330
1F
100
AcDbEntity
  8
0
  6
Continuous
 62
     7
370
    25
100
AcDbCircle
 10
85.0317808219
 20
136.3504246575
 30
0.0
 40
0.3499999999999943
100
AcDbArc
 50
90.0
 51
180.0
  0
LINE
  5
12A
330
1F
100
AcDbEntity
  8
0
  6
Continuous
 62
     7
370
    25
100
AcDbLine
 10
84.6817808219
 20
136.3504246575
 30
0.0
 11
84.6817808219
 21
136.2504246575
 31
0.0
  0
LINE
  5
12B
330
1F
100
AcDbEntity
  8
0
  6
Continuous
 62
     7
370
    25
100
AcDbLine
 10
85.0317808219
 20
135.8004246575
 30
0.0
 11
85.8817808219
 21
135.8004246575
 31
0.0
  0
ARC
  5
12C
330
1F
100
AcDbEntity
  8
0
  6
Continuous
 62
     7
370
    25
100
AcDbCircle
 10
85.0317808219
 20
136.2504246575
 30
0.0
 40
0.4500000000000028
100
AcDbArc
 50
180.0
 51
270.0
  0
ARC
  5
12D
330
1F
100
AcDbEntity
  8
0
  6
Continuous
 62
     7
370
    25
100
AcDbCircle
 10
85.0317808219
 20
136.3504246575
 30
0.0
 40
0.4500000000000028
100
AcDbArc
 50
90.0
 51
180.0
  0
LINE
  5
12E
330
1F
100
AcDbEntity
  8
0
  6
Continuous
 62
     7
370
    25
100
AcDbLine
 10
85.8817808219
 20
136.8004246575
 30
0.0
 11
85.0317808219
 21
136.8004246575
 31
0.0
  0
ARC
  5
12F
330
1F
100
AcDbEntity
  8
0
  6
Continuous
 62
     7
370
    25
100
AcDbCircle
 10
85.8817808219
 20
136.3504246575
 30
0.0
 40
0.4499999999999886
100
AcDbArc
 50
0.0
 51
90.0
  0
LINE
  5
130
330
1F
100
AcDbEntity
  8
0
  6
Continuous
 62
     7
370
    25
100
AcDbLine
 10
86.3317808219
 20
136.2504246575
 30
0.0
 11
86.3317808219
 21
136.3504246575
 31
0.0
  0
ARC
  5
131
330
1F
100
AcDbEntity
  8
0
  6
Continuous
 62
     7
370
    25
100
AcDbCircle
 10
85.8817808219
 20
136.2504246575
 30
0.0
 40
0.4499999999999886
100
AcDbArc
 50
270.0
 51
0.0
  0
LINE
  5
132
330
1F
100
AcDbEntity
  8
0
  6
Continuous
 62
     7
370
    25
100
AcDbLine
 10
86.2317808219
 20
136.2504246575
 30
0.0
 11
86.2317808219
 21
136.3504246575
 31
0.0
  0
LINE
  5
133
330
1F
100
AcDbEntity
  8
0
  6
Continuous
 62
     7
370
    25
100
AcDbLine
 10
85.0317808219
 20
135.9004246575
 30
0.0
 11
85.8817808219
 21
135.9004246575
 31
0.0
  0
LINE
  5
134
330
1F
100
AcDbEntity
  8
0
  6
Continuous
 62
     7
370
    25
100
AcDbLine
 10
84.5817808219
 20
136.3504246575
 30
0.0
 11
84.5817808219
 21
136.2504246575
 31
0.0
  0
ARC
  5
135
330
1F
100
AcDbEntity
  8
0
  6
Continuous
 62
     7
370
    25
100
AcDbCircle
 10
85.8817808219
 20
52.9004246575
 30
0.0
 40
0.3500000000000085
100
AcDbArc
 50
270.0
 51
0.0
  0
LINE
  5
136
330
1F
100
AcDbEntity
  8
0
  6
Continuous
 62
     7
370
    25
100
AcDbLine
 10
86.2317808219
 20
52.9004246575
 30
0.0
 11
86.2317808219
 21
53.0004246575
 31
0.0
  0
LINE
  5
137
330
1F
100
AcDbEntity
  8
0
  6
Continuous
 62
     7
370
    25
100
AcDbLine
 10
85.8817808219
 20
53.4504246575
 30
0.0
 11
85.0317808219
 21
53.4504246575
 31
0.0
  0
ARC
  5
138
330
1F
100
AcDbEntity
  8
0
  6
Continuous
 62
     7
370
    25
100
AcDbCircle
 10
85.8817808219
 20
53.0004246575
 30
0.0
 40
0.4500000000000099
100
AcDbArc
 50
0.0
 51
90.0
  0
LINE
  5
139
330
1F
100
AcDbEntity
  8
0
  6
Continuous
 62
     7
370
    25
100
AcDbLine
 10
85.0317808219
 20
52.4504246575
 30
0.0
 11
85.8817808219
 21
52.4504246575
 31
0.0
  0
ARC
  5
13A
330
1F
100
AcDbEntity
  8
0
  6
Continuous
 62
     7
370
    25
100
AcDbCircle
 10
85.0317808219
 20
52.9004246575
 30
0.0
 40
0.4500000000000028
100
AcDbArc
 50
180.0
 51
270.0
  0
LINE
  5
13B
330
1F
100
AcDbEntity
  8
0
  6
Continuous
 62
     7
370
    25
100
AcDbLine
 10
84.5817808219
 20
53.0004246575
 30
0.0
 11
84.5817808219
 21
52.9004246575
 31
0.0
  0
ARC
  5
13C
330
1F
100
AcDbEntity
  8
0
  6
Continuous
 62
     7
370
    25
100
AcDbCircle
 10
85.0317808219
 20
53.0004246575
 30
0.0
 40
0.4500000000000099
100
AcDbArc
 50
90.0
 51
180.0
  0
LINE
  5
13D
330
1F
100
AcDbEntity
  8
0
  6
Continuous
 62
     7
370
    25
100
AcDbLine
 10
85.8817808219
 20
53.3504246575
 30
0.0
 11
85.0317808219
 21
53.3504246575
 31
0.0
  0
ARC
  5
13E
330
1F
100
AcDbEntity
  8
0
  6
Continuous
 62
     7
370
    25
100
AcDbCircle
 10
85.8817808219
 20
53.0004246575
 30
0.0
 40
0.3500000000000085
100
AcDbArc
 50
0.0
 51
90.0
  0
ARC
  5
13F
330
1F
100
AcDbEntity
  8
0
  6
Continuous
 62
     7
370
    25
100
AcDbCircle
 10
85.0317808219
 20
53.0004246575
 30
0.0
 40
0.3500000000000014
100
AcDbArc
 50
90.0
 51
180.0
  0
ARC
  5
140
330
1F
100
AcDbEntity
  8
0
  6
Continuous
 62
     7
370
    25
100
AcDbCircle
 10
85.8817808219
 20
52.9004246575
 30
0.0
 40
0.4500000000000028
100
AcDbArc
 50
270.0
 51
0.0
  0
ARC
  5
141
330
1F
100
AcDbEntity
  8
0
  6
Continuous
 62
     7
370
    25
100
AcDbCircle
 10
85.0317808219
 20
52.9004246575
 30
0.0
 40
0.3500000000000014
100
AcDbArc
 50
180.0
 51
270.0
  0
LINE
  5
142
330
1F
100
AcDbEntity
  8
0
  6
Continuous
 62
     7
370
    25
100
AcDbLine
 10
84.6817808219
 20
53.0004246575
 30
0.0
 11
84.6817808219
 21
52.9004246575
 31
0.0
  0
LINE
  5
143
330
1F
100
AcDbEntity
  8
0
  6
Continuous
 62
     7
370
    25
100
AcDbLine
 10
85.0317808219
 20
52.5504246575
 30
0.0
 11
85.8817808219
 21
52.5504246575
 31
0.0
  0
LINE
  5
144
330
1F
100
AcDbEntity
  8
0
  6
Continuous
 62
     7
370
    25
100
AcDbLine
 10
86.3317808219
 20
52.9004246575
 30
0.0
 11
86.3317808219
 21
53.0004246575
 31
0.0
  0
LINE
  5
145
330
1F
100
AcDbEntity
  8
0
  6
Continuous
 62
     7
370
    25
100
AcDbLine
 10
69.4567808219
 20
47.5754246575
 30
0.0
 11
69.4567808219
 21
74.4254246575
 31
0.0
  0
LINE
  5
146
330
1F
100
AcDbEntity
  8
0
  6
Continuous
 62
     7
370
    25
100
AcDbLine
 10
69.4567808219
 20
74.4254246575
 30
0.0
 11
101.4567808219
 21
74.4254246575
 31
0.0
  0
LINE
  5
147
330
1F
100
AcDbEntity
  8
0
  6
Continuous
 62
     7
370
    25
100
AcDbLine
 10
101.4567808219
 20
74.4254246575
 30
0.0
 11
101.4567808219
 21
47.5754246575
 31
0.0
  0
LINE
  5
148
330
1F
100
AcDbEntity
  8
0
  6
Continuous
 62
     7
370
    25
100
AcDbLine
 10
101.4567808219
 20
47.5754246575
 30
0.0
 11
69.4567808219
 21
47.5754246575
 31
0.0
  0
LINE
  5
149
330
1F
100
AcDbEntity
  8
0
  6
Continuous
 62
     7
370
    25
100
AcDbLine
 10
69.4567808219
 20
114.8254246575
 30
0.0
 11
69.4567808219
 21
141.6754246575
 31
0.0
  0
LINE
  5
14A
330
1F
100
AcDbEntity
  8
0
  6
Continuous
 62
     7
370
    25
100
AcDbLine
 10
69.4567808219
 20
141.6754246575
 30
0.0
 11
101.4567808219
 21
141.6754246575
 31
0.0
  0
LINE
  5
14B
330
1F
100
AcDbEntity
  8
0
  6
Continuous
 62
     7
370
    25
100
AcDbLine
 10
101.4567808219
 20
141.6754246575
 30
0.0
 11
101.4567808219
 21
114.8254246575
 31
0.0
  0
LINE
  5
14C
330
1F
100
AcDbEntity
  8
0
  6
Continuous
 62
     7
370
    25
100
AcDbLine
 10
101.4567808219
 20
114.8254246575
 30
0.0
 11
69.4567808219
 21
114.8254246575
 31
0.0
  0
LINE
  5
14D
330
1F
100
AcDbEntity
  8
0
  6
Continuous
 62
     7
370
    25
100
AcDbLine
 10
101.4544668301
 20
114.8277386493
 30
0.0
 11
69.4590948137
 21
114.8277386493
 31
0.0
  0
LINE
  5
14E
330
1F
100
AcDbEntity
  8
0
  6
Continuous
 62
     7
370
    25
100
AcDbLine
 10
101.4544668301
 20
141.6731106658
 30
0.0
 11
101.4544668301
 21
114.8277386493
 31
0.0
  0
LINE
  5
14F
330
1F
100
AcDbEntity
  8
0
  6
Continuous
 62
     7
370
    25
100
AcDbLine
 10
69.4590948137
 20
141.6731106658
 30
0.0
 11
101.4544668301
 21
141.6731106658
 31
0.0
  0
LINE
  5
150
330
1F
100
AcDbEntity
  8
0
  6
Continuous
 62
     7
370
    25
100
AcDbLine
 10
69.4590948137
 20
114.8277386493
 30
0.0
 11
69.4590948137
 21
141.6731106658
 31
0.0
  0
LINE
  5
151
330
1F
100
AcDbEntity
  8
0
  6
Continuous
 62
     7
370
    25
100
AcDbLine
 10
101.6067808219
 20
141.8254246575
 30
0.0
 11
101.6067808219
 21
114.6754246575
 31
0.0
  0
LINE
  5
152
330
1F
100
AcDbEntity
  8
0
  6
Continuous
 62
     7
370
    25
100
AcDbLine
 10
101.6067808219
 20
114.6754246575
 30
0.0
 11
69.3067808219
 21
114.6754246575
 31
0.0
  0
LINE
  5
153
330
1F
100
AcDbEntity
  8
0
  6
Continuous
 62
     7
370
    25
100
AcDbLine
 10
69.3067808219
 20
114.6754246575
 30
0.0
 11
69.3067808219
 21
141.8254246575
 31
0.0
  0
LINE
  5
154
330
1F
100
AcDbEntity
  8
0
  6
Continuous
 62
     7
370
    25
100
AcDbLine
 10
69.3067808219
 20
141.8254246575
 30
0.0
 11
101.6067808219
 21
141.8254246575
 31
0.0
  0
LINE
  5
155
330
1F
100
AcDbEntity
  8
0
  6
Continuous
 62
     7
370
    25
100
AcDbLine
 10
101.4544668301
 20
47.5777386493
 30
0.0
 11
69.4590948137
 21
47.5777386493
 31
0.0
  0
LINE
  5
156
330
1F
100
AcDbEntity
  8
0
  6
Continuous
 62
     7
370
    25
100
AcDbLine
 10
101.4544668301
 20
74.4231106658
 30
0.0
 11
101.4544668301
 21
47.5777386493
 31
0.0
  0
LINE
  5
157
330
1F
100
AcDbEntity
  8
0
  6
Continuous
 62
     7
370
    25
100
AcDbLine
 10
69.4590948137
 20
74.4231106658
 30
0.0
 11
101.4544668301
 21
74.4231106658
 31
0.0
  0
LINE
  5
158
330
1F
100
AcDbEntity
  8
0
  6
Continuous
 62
     7
370
    25
100
AcDbLine
 10
69.4590948137
 20
47.5777386493
 30
0.0
 11
69.4590948137
 21
74.4231106658
 31
0.0
  0
LINE
  5
159
330
1F
100
AcDbEntity
  8
0
  6
Continuous
 62
     7
370
    25
100
AcDbLine
 10
69.3067808219
 20
47.4254246575
 30
0.0
 11
69.3067808219
 21
74.5754246575
 31
0.0
  0
LINE
  5
15A
330
1F
100
AcDbEntity
  8
0
  6
Continuous
 62
     7
370
    25
100
AcDbLine
 10
69.3067808219
 20
74.5754246575
 30
0.0
 11
101.6067808219
 21
74.5754246575
 31
0.0
  0
LINE
  5
15B
330
1F
100
AcDbEntity
  8
0
  6
Continuous
 62
     7
370
    25
100
AcDbLine
 10
101.6067808219
 20
47.4254246575
 30
0.0
 11
69.3067808219
 21
47.4254246575
 31
0.0
  0
LINE
  5
15C
330
1F
100
AcDbEntity
  8
0
  6
Continuous
 62
     7
370
    25
100
AcDbLine
 10
101.6067808219
 20
74.5754246575
 30
0.0
 11
101.6067808219
 21
47.4254246575
 31
0.0
  0
LINE
  5
15D
330
1F
100
AcDbEntity
  8
0
  6
Continuous
 62
     7
370
    25
100
AcDbLine
 10
101.8567808219
 20
141.6254246575
 30
0.0
 11
101.8567808219
 21
47.6254246575
 31
0.0
  0
LINE
  5
15E
330
1F
100
AcDbEntity
  8
0
  6
Continuous
 62
     7
370
    25
100
AcDbLine
 10
101.8567808219
 20
47.6254246575
 30
0.0
 11
101.6567808219
 21
47.6254246575
 31
0.0
  0
LINE
  5
15F
330
1F
100
AcDbEntity
  8
0
  6
Continuous
 62
     7
370
    25
100
AcDbLine
 10
101.8567808219
 20
141.6254246575
 30
0.0
 11
101.6567808219
 21
141.6254246575
 31
0.0
  0
LINE
  5
160
330
1F
100
AcDbEntity
  8
0
  6
Continuous
 62
     7
370
    25
100
AcDbLine
 10
101.6567808219
 20
141.6254246575
 30
0.0
 11
101.6567808219
 21
47.6254246575
 31
0.0
  0
LINE
  5
161
330
1F
100
AcDbEntity
  8
0
  6
Continuous
 62
     7
370
    25
100
AcDbLine
 10
97.7067808219
 20
114.6754246575
 30
0.0
 11
97.7067808219
 21
114.6504246575
 31
0.0
  0
LINE
  5
162
330
1F
100
AcDbEntity
  8
0
  6
Continuous
 62
     7
370
    25
100
AcDbLine
 10
97.7067808219
 20
94.6504246575
 30
0.0
 11
97.7067808219
 21
94.6004246575
 31
0.0
  0
LINE
  5
163
330
1F
100
AcDbEntity
  8
0
  6
Continuous
 62
     7
370
    25
100
AcDbLine
 10
97.7067808219
 20
74.6004246575
 30
0.0
 11
97.7067808219
 21
74.5754246575
 31
0.0
  0
LINE
  5
164
330
1F
100
AcDbEntity
  8
0
  6
Continuous
 62
     7
370
    25
100
AcDbLine
 10
101.6067808219
 20
47.6254246575
 30
0.0
 11
101.6567808219
 21
47.6254246575
 31
0.0
  0
LINE
  5
165
330
1F
100
AcDbEntity
  8
0
  6
Continuous
 62
     7
370
    25
100
AcDbLine
 10
101.6067808219
 20
141.6254246575
 30
0.0
 11
101.6567808219
 21
141.6254246575
 31
0.0
  0
LINE
  5
166
330
1F
100
AcDbEntity
  8
0
  6
Continuous
 62
     7
370
    25
100
AcDbLine
 10
95.7067808219
 20
114.6754246575
 30
0.0
 11
95.7067808219
 21
114.6504246575
 31
0.0
  0
LINE
  5
167
330
1F
100
AcDbEntity
  8
0
  6
Continuous
 62
     7
370
    25
100
AcDbLine
 10
95.7067808219
 20
94.6504246575
 30
0.0
 11
95.7067808219
 21
94.6004246575
 31
0.0
  0
LINE
  5
168
330
1F
100
AcDbEntity
  8
0
  6
Continuous
 62
     7
370
    25
100
AcDbLine
 10
95.7067808219
 20
74.6004246575
 30
0.0
 11
95.7067808219
 21
74.5754246575
 31
0.0
  0
LINE
  5
169
330
1F
100
AcDbEntity
  8
0
  6
Continuous
 62
     7
370
    25
100
AcDbLine
 10
95.6567808219
 20
141.8754246575
 30
0.0
 11
95.6567808219
 21
141.8254246575
 31
0.0
  0
LINE
  5
16A
330
1F
100
AcDbEntity
  8
0
  6
Continuous
 62
     7
370
    25
100
AcDbLine
 10
95.4067808219
 20
141.8754246575
 30
0.0
 11
95.4067808219
 21
141.8254246575
 31
0.0
  0
LINE
  5
16B
330
1F
100
AcDbEntity
  8
0
  6
Continuous
 62
     7
370
    25
100
AcDbLine
 10
97.7567808219
 20
141.8754246575
 30
0.0
 11
97.7567808219
 21
141.8254246575
 31
0.0
  0
LINE
  5
16C
330
1F
100
AcDbEntity
  8
0
  6
Continuous
 62
     7
370
    25
100
AcDbLine
 10
98.0067808219
 20
141.8754246575
 30
0.0
 11
98.0067808219
 21
141.8254246575
 31
0.0
  0
LINE
  5
16D
330
1F
100
AcDbEntity
  8
0
  6
Continuous
 62
     7
370
    25
100
AcDbLine
 10
95.4067808219
 20
47.4254246575
 30
0.0
 11
95.4067808219
 21
47.3754246575
 31
0.0
  0
LINE
  5
16E
330
1F
100
AcDbEntity
  8
0
  6
Continuous
 62
     7
370
    25
100
AcDbLine
 10
95.6567808219
 20
47.4254246575
 30
0.0
 11
95.6567808219
 21
47.3754246575
 31
0.0
  0
LINE
  5
16F
330
1F
100
AcDbEntity
  8
0
  6
Continuous
 62
     7
370
    25
100
AcDbLine
 10
98.0067808219
 20
47.4254246575
 30
0.0
 11
98.0067808219
 21
47.3754246575
 31
0.0
  0
LINE
  5
170
330
1F
100
AcDbEntity
  8
0
  6
Continuous
 62
     7
370
    25
100
AcDbLine
 10
97.7567808219
 20
47.4254246575
 30
0.0
 11
97.7567808219
 21
47.3754246575
 31
0.0
  0
LINE
  5
171
330
1F
100
AcDbEntity
  8
0
  6
Continuous
 62
     7
370
    25
100
AcDbLine
 10
106.9567808219
 20
141.8754246575
 30
0.0
 11
106.9567808219
 21
142.0754246575
 31
0.0
  0
LINE
  5
172
330
1F
100
AcDbEntity
  8
0
  6
Continuous
 62
     7
370
    25
100
AcDbLine
 10
106.9567808219
 20
141.8754246575
 30
0.0
 11
69.2567808219
 21
141.8754246575
 31
0.0
  0
LINE
  5
173
330
1F
100
AcDbEntity
  8
0
  6
Continuous
 62
     7
370
    25
100
AcDbLine
 10
69.2567808219
 20
141.8754246575
 30
0.0
 11
69.2567808219
 21
142.0754246575
 31
0.0
  0
LINE
  5
174
330
1F
100
AcDbEntity
  8
0
  6
Continuous
 62
     7
370
    25
100
AcDbLine
 10
106.9567808219
 20
142.0754246575
 30
0.0
 11
69.2567808219
 21
142.0754246575
 31
0.0
  0
LINE
  5
175
330
1F
100
AcDbEntity
  8
0
  6
Continuous
 62
     7
370
    25
100
AcDbLine
 10
74.0067808219
 20
141.8254246575
 30
0.0
 11
74.0067808219
 21
141.8754246575
 31
0.0
  0
LINE
  5
176
330
1F
100
AcDbEntity
  8
0
  6
Continuous
 62
     7
370
    25
100
AcDbLine
 10
94.4567808219
 20
141.8754246575
 30
0.0
 11
94.4567808219
 21
141.8254246575
 31
0.0
  0
LINE
  5
177
330
1F
100
AcDbEntity
  8
0
  6
Continuous
 62
     7
370
    25
100
AcDbLine
 10
106.9567808219
 20
47.3754246575
 30
0.0
 11
106.9567808219
 21
47.1754246575
 31
0.0
  0
LINE
  5
178
330
1F
100
AcDbEntity
  8
0
  6
Continuous
 62
     7
370
    25
100
AcDbLine
 10
69.2567808219
 20
47.3754246575
 30
0.0
 11
69.2567808219
 21
47.1754246575
 31
0.0
  0
LINE
  5
179
330
1F
100
AcDbEntity
  8
0
  6
Continuous
 62
     7
370
    25
100
AcDbLine
 10
106.9567808219
 20
47.1754246575
 30
0.0
 11
69.2567808219
 21
47.1754246575
 31
0.0
  0
LINE
  5
17A
330
1F
100
AcDbEntity
  8
0
  6
Continuous
 62
     7
370
    25
100
AcDbLine
 10
106.9567808219
 20
47.3754246575
 30
0.0
 11
69.2567808219
 21
47.3754246575
 31
0.0
  0
LINE
  5
17B
330
1F
100
AcDbEntity
  8
0
  6
Continuous
 62
     7
370
    25
100
AcDbLine
 10
94.4567808219
 20
47.3754246575
 30
0.0
 11
94.4567808219
 21
47.4254246575
 31
0.0
  0
LINE
  5
17C
330
1F
100
AcDbEntity
  8
0
  6
Continuous
 62
     7
370
    25
100
AcDbLine
 10
74.0067808219
 20
47.4254246575
 30
0.0
 11
74.0067808219
 21
47.3754246575
 31
0.0
  0
LINE
  5
17D
330
1F
100
AcDbEntity
  8
0
  6
Continuous
 62
     7
370
    25
100
AcDbLine
 10
69.2567808219
 20
47.1754246575
 30
0.0
 11
69.2567808219
 21
142.0754246575
 31
0.0
  0
LINE
  5
17E
330
1F
100
AcDbEntity
  8
0
  6
Continuous
 62
     7
370
    25
100
AcDbLine
 10
69.0567808219
 20
47.1754246575
 30
0.0
 11
69.0567808219
 21
142.0754246575
 31
0.0
  0
LINE
  5
17F
330
1F
100
AcDbEntity
  8
0
  6
Continuous
 62
     7
370
    25
100
AcDbLine
 10
69.0567808219
 20
47.1754246575
 30
0.0
 11
69.2567808219
 21
47.1754246575
 31
0.0
  0
LINE
  5
180
330
1F
100
AcDbEntity
  8
0
  6
Continuous
 62
     7
370
    25
100
AcDbLine
 10
69.0567808219
 20
142.0754246575
 30
0.0
 11
69.2567808219
 21
142.0754246575
 31
0.0
  0
LINE
  5
181
330
1F
100
AcDbEntity
  8
0
  6
Continuous
 62
     7
370
    25
100
AcDbLine
 10
74.3567808219
 20
94.6504246575
 30
0.0
 11
74.3567808219
 21
94.6004246575
 31
0.0
  0
LINE
  5
182
330
1F
100
AcDbEntity
  8
0
  6
Continuous
 62
     7
370
    25
100
AcDbLine
 10
74.0067808219
 20
74.5754246575
 30
0.0
 11
74.0067808219
 21
74.6004246575
 31
0.0
  0
LINE
  5
183
330
1F
100
AcDbEntity
  8
0
  6
Continuous
 62
     7
370
    25
100
AcDbLine
 10
74.0067808219
 20
114.6504246575
 30
0.0
 11
74.0067808219
 21
114.6754246575
 31
0.0
  0
LINE
  5
184
330
1F
100
AcDbEntity
  8
0
  6
Continuous
 62
     7
370
    25
100
AcDbLine
 10
129.4067808219
 20
141.7254246575
 30
0.0
 11
129.4067808219
 21
47.5254246575
 31
0.0
  0
CIRCLE
  5
185
330
1F
100
AcDbEntity
  8
0
  6
Continuous
 62
     7
370
    25
100
AcDbCircle
 10
127.1567808219
 20
57.5254246575
 30
0.0
 40
0.2999999999999972
  0
CIRCLE
  5
186
330
1F
100
AcDbEntity
  8
0
  6
Continuous
 62
     7
370
    25
100
AcDbCircle
 10
127.1567808219
 20
131.7254246575
 30
0.0
 40
0.2999999999999972
  0
LINE
  5
187
330
1F
100
AcDbEntity
  8
0
  6
Continuous
 62
     7
370
    25
100
AcDbLine
 10
124.9067808219
 20
137.3754246575
 30
0.0
 11
124.9067808219
 21
51.8754246575
 31
0.0
  0
LINE
  5
188
330
1F
100
AcDbEntity
  8
0
  6
Continuous
 62
     7
370
    25
100
AcDbLine
 10
124.9067808219
 20
51.8754246575
 30
0.0
 11
101.8567808219
 21
51.8754246575
 31
0.0
  0
LINE
  5
189
330
1F
100
AcDbEntity
  8
0
  6
Continuous
 62
     7
370
    25
100
AcDbLine
 10
101.8567808219
 20
137.3754246575
 30
0.0
 11
124.9067808219
 21
137.3754246575
 31
0.0
  0
LINE
  5
18A
330
1F
100
AcDbEntity
  8
0
  6
Continuous
 62
     7
370
    25
100
AcDbLine
 10
101.6067808219
 20
141.7254246575
 30
0.0
 11
129.4067808219
 21
141.7254246575
 31
0.0
  0
LINE
  5
18B
330
1F
100
AcDbEntity
  8
0
  6
Continuous
 62
     7
370
    25
100
AcDbLine
 10
101.6067808219
 20
47.5254246575
 30
0.0
 11
129.4067808219
 21
47.5254246575
 31
0.0
  0
LINE
  5
18C
330
1F
100
AcDbEntity
  8
0
  6
PHANTOM
 62
     1
370
    18
100
AcDbLine
 10
113.3869899265
 20
136.5257700817
 30
0.0
 11
115.3869899265
 21
136.5257700817
 31
0.0
  0
LINE
  5
18D
330
1F
100
AcDbEntity
  8
0
  6
PHANTOM
 62
     1
370
    18
100
AcDbLine
 10
113.3869899265
 20
137.2579520011
 30
0.0
 11
115.3869899265
 21
137.2579520011
 31
0.0
  0
LINE
  5
18E
330
1F
100
AcDbEntity
  8
0
  6
PHANTOM
 62
     1
370
    18
100
AcDbLine
 10
115.3869899265
 20
52.7250792334
 30
0.0
 11
113.3869899265
 21
52.7250792334
 31
0.0
  0
LINE
  5
18F
330
1F
100
AcDbEntity
  8
0
  6
PHANTOM
 62
     1
370
    18
100
AcDbLine
 10
115.3869899265
 20
51.9928973139
 30
0.0
 11
113.3869899265
 21
51.9928973139
 31
0.0
  0
LINE
  5
190
330
1F
100
AcDbEntity
  8
0
  6
PHANTOM
 62
     1
370
    18
100
AcDbLine
 10
95.9567808219
 20
114.6754246575
 30
0.0
 11
95.9567808219
 21
114.6504246575
 31
0.0
  0
LINE
  5
191
330
1F
100
AcDbEntity
  8
0
  6
PHANTOM
 62
     1
370
    18
100
AcDbLine
 10
95.9567808219
 20
94.6504246575
 30
0.0
 11
95.9567808219
 21
94.6004246575
 31
0.0
  0
LINE
  5
192
330
1F
100
AcDbEntity
  8
0
  6
PHANTOM
 62
     1
370
    18
100
AcDbLine
 10
95.9567808219
 20
74.6004246575
 30
0.0
 11
95.9567808219
 21
74.5754246575
 31
0.0
  0
LINE
  5
193
330
1F
100
AcDbEntity
  8
0
  6
PHANTOM
 62
     1
370
    18
100
AcDbLine
 10
97.4567808219
 20
114.6754246575
 30
0.0
 11
97.4567808219
 21
114.6504246575
 31
0.0
  0
LINE
  5
194
330
1F
100
AcDbEntity
  8
0
  6
PHANTOM
 62
     1
370
    18
100
AcDbLine
 10
97.4567808219
 20
94.6504246575
 30
0.0
 11
97.4567808219
 21
94.6004246575
 31
0.0
  0
LINE
  5
195
330
1F
100
AcDbEntity
  8
0
  6
PHANTOM
 62
     1
370
    18
100
AcDbLine
 10
97.4567808219
 20
74.6004246575
 30
0.0
 11
97.4567808219
 21
74.5754246575
 31
0.0
  0
LINE
  5
196
330
1F
100
AcDbEntity
  8
0
  6
PHANTOM
 62
     1
370
    18
100
AcDbLine
 10
69.4067808219
 20
47.3754246575
 30
0.0
 11
69.4067808219
 21
47.4254246575
 31
0.0
  0
LINE
  5
197
330
1F
100
AcDbEntity
  8
0
  6
PHANTOM
 62
     1
370
    18
100
AcDbLine
 10
69.4067808219
 20
74.5754246575
 30
0.0
 11
69.4067808219
 21
74.6004246575
 31
0.0
  0
LINE
  5
198
330
1F
100
AcDbEntity
  8
0
  6
PHANTOM
 62
     1
370
    18
100
AcDbLine
 10
69.4067808219
 20
94.6004246575
 30
0.0
 11
69.4067808219
 21
94.6504246575
 31
0.0
  0
LINE
  5
199
330
1F
100
AcDbEntity
  8
0
  6
PHANTOM
 62
     1
370
    18
100
AcDbLine
 10
69.4067808219
 20
114.6504246575
 30
0.0
 11
69.4067808219
 21
114.6754246575
 31
0.0
  0
LINE
  5
19A
330
1F
100
AcDbEntity
  8
0
  6
PHANTOM
 62
     1
370
    18
100
AcDbLine
 10
69.4067808219
 20
141.8254246575
 30
0.0
 11
69.4067808219
 21
141.8754246575
 31
0.0
  0
LINE
  5
19B
330
1F
100
AcDbEntity
  8
0
  6
PHANTOM
 62
     1
370
    18
100
AcDbLine
 10
74.0067808219
 20
94.6004246575
 30
0.0
 11
74.0067808219
 21
94.6504246575
 31
0.0
  0
LINE
  5
19C
330
1F
100
AcDbEntity
  8
0
  6
PHANTOM
 62
     7
370
    35
100
AcDbLine
 10
136.6487808219
 20
94.6254246575
 30
0.0
 11
61.8147808219
 21
94.6254246575
 31
0.0
  0
LINE
  5
19D
330
1F
100
AcDbEntity
  8
0
  6
Continuous
 62
     7
370
    35
100
AcDbLine
 10
134.6487808219
 20
82.6254246575
 30
0.0
 11
134.6487808219
 21
94.6254246575
 31
0.0
  0
SOLID
  5
19E
330
1F
100
AcDbEntity
  8
0
  6
Continuous
 62
     7
370
    35
100
AcDbTrace
 10
134.6487808219
 20
94.6254246575
 30
0.0
 11
133.1487808219
 21
88.6254246575
 31
0.0
 12
136.1487808219
 22
88.6254246575
 32
0.0
 13
136.1487808219
 23
88.6254246575
 33
0.0
  0
LINE
  5
19F
330
1F
100
AcDbEntity
  8
0
  6
Continuous
 62
     7
370
    35
100
AcDbLine
 10
63.8147808219
 20
82.6254246575
 30
0.0
 11
63.8147808219
 21
94.6254246575
 31
0.0
  0
SOLID
  5
1A0
330
1F
100
AcDbEntity
  8
0
  6
Continuous
 62
     7
370
    35
100
AcDbTrace
 10
63.8147808219
 20
94.6254246575
 30
0.0
 11
62.3147808219
 21
88.6254246575
 31
0.0
 12
65.3147808219
 22
88.6254246575
 32
0.0
 13
65.3147808219
 23
88.6254246575
 33
0.0
  0
MTEXT
  5
1A2
330
1F
100
AcDbEntity
  8
0
  6
Continuous
 62
     7
100
AcDbMText
 10
137.1539532248
 20
92.7134488899
 30
0.0
 40
6.35
 41
0.0
 46
0.0
 71
     1
 72
     1
  1
A
  7
SLDTEXTSTYLE1
 73
     1
 44
1.0
  0
MTEXT
  5
1A3
330
1F
100
AcDbEntity
  8
0
  6
Continuous
 62
     7
100
AcDbMText
 10
55.0466774119
 20
92.7134488899
 30
0.0
 40
6.35
 41
0.0
 46
0.0
 71
     1
 72
     1
  1
A
  7
SLDTEXTSTYLE1
 73
     1
 44
1.0
  0
LINE
  5
1A4
330
1F
100
AcDbEntity
  8
0
  6
PHANTOM
 62
     7
370
    35
100
AcDbLine
 10
101.4567808219
 20
153.4634246575
 30
0.0
 11
101.4567808219
 21
35.7874246575
 31
0.0
  0
LINE
  5
1A5
330
1F
100
AcDbEntity
  8
0
  6
Continuous
 62
     7
370
    35
100
AcDbLine
 10
113.4567808219
 20
151.4634246575
 30
0.0
 11
101.4567808219
 21
151.4634246575
 31
0.0
  0
SOLID
  5
1A6
330
1F
100
AcDbEntity
  8
0
  6
Continuous
 62
     7
370
    35
100
AcDbTrace
 10
101.4567808219
 20
151.4634246575
 30
0.0
 11
107.4567808219
 21
149.9634246575
 31
0.0
 12
107.4567808219
 22
152.9634246575
 32
0.0
 13
107.4567808219
 23
152.9634246575
 33
0.0
  0
LINE
  5
1A7
330
1F
100
AcDbEntity
  8
0
  6
Continuous
 62
     7
370
    35
100
AcDbLine
 10
113.4567808219
 20
37.7874246575
 30
0.0
 11
101.4567808219
 21
37.7874246575
 31
0.0
  0
SOLID
  5
1A8
330
1F
100
AcDbEntity
  8
0
  6
Continuous
 62
     7
370
    35
100
AcDbTrace
 10
101.4567808219
 20
37.7874246575
 30
0.0
 11
107.4567808219
 21
36.2874246575
 31
0.0
 12
107.4567808219
 22
39.2874246575
 32
0.0
 13
107.4567808219
 23
39.2874246575
 33
0.0
  0
MTEXT
  5
1A9
330
1F
100
AcDbEntity
  8
0
  6
Continuous
 62
     7
100
AcDbMText
 10
108.5973304679
 20
161.5514488899
 30
0.0
 40
6.35
 41
0.0
 46
0.0
 71
     1
 72
     1
  1
B
  7
SLDTEXTSTYLE1
 73
     1
 44
1.0
  0
MTEXT
  5
1AA
330
1F
100
AcDbEntity
  8
0
  6
Continuous
 62
     7
100
AcDbMText
 10
108.5973304679
 20
34.4281125882
 30
0.0
 40
6.35
 41
0.0
 46
0.0
 71
     1
 72
     1
  1
B
  7
SLDTEXTSTYLE1
 73
     1
 44
1.0
  0
LINE
  5
1AB
330
1F
100
AcDbEntity
  8
0
  6
Continuous
 62
     7
370
    25
100
AcDbLine
 10
101.8567808219
 20
276.3373972603
 30
0.0
 11
97.7067808219
 21
276.3373972603
 31
0.0
  0
LINE
  5
1AC
330
1F
100
AcDbEntity
  8
0
  6
Continuous
 62
     7
370
    25
100
AcDbLine
 10
97.7067808219
 20
276.3373972603
 30
0.0
 11
97.7067808219
 21
276.5373972603
 31
0.0
  0
LINE
  5
1AD
330
1F
100
AcDbEntity
  8
0
  6
Continuous
 62
     7
370
    25
100
AcDbLine
 10
101.6567808219
 20
276.5373972603
 30
0.0
 11
97.7067808219
 21
276.5373972603
 31
0.0
  0
LINE
  5
1AE
330
1F
100
AcDbEntity
  8
0
  6
Continuous
 62
     7
370
    25
100
AcDbLine
 10
101.6567808219
 20
280.0373972603
 30
0.0
 11
101.8567808219
 21
280.0373972603
 31
0.0
  0
LINE
  5
1AF
330
1F
100
AcDbEntity
  8
0
  6
Continuous
 62
     7
370
    25
100
AcDbLine
 10
101.8567808219
 20
280.0373972603
 30
0.0
 11
101.8567808219
 21
276.3373972603
 31
0.0
  0
LINE
  5
1B0
330
1F
100
AcDbEntity
  8
0
  6
Continuous
 62
     7
370
    25
100
AcDbLine
 10
101.6567808219
 20
280.0373972603
 30
0.0
 11
101.6567808219
 21
276.5373972603
 31
0.0
  0
ARC
  5
1B1
330
1F
100
AcDbEntity
  8
0
  6
Continuous
 62
     7
370
    25
100
AcDbCircle
 10
97.4567808219
 20
276.2873972603
 30
0.0
 40
0.25
100
AcDbArc
 50
0.0
 51
90.0
  0
LINE
  5
1B2
330
1F
100
AcDbEntity
  8
0
  6
Continuous
 62
     7
370
    25
100
AcDbLine
 10
97.7067808219
 20
272.7873972603
 30
0.0
 11
97.7067808219
 21
276.2873972603
 31
0.0
  0
ARC
  5
1B3
330
1F
100
AcDbEntity
  8
0
  6
Continuous
 62
     7
370
    25
100
AcDbCircle
 10
97.4567808219
 20
272.7873972603
 30
0.0
 40
0.2500000000000568
100
AcDbArc
 50
270.0
 51
0.0
  0
LINE
  5
1B4
330
1F
100
AcDbEntity
  8
0
  6
Continuous
 62
     7
370
    25
100
AcDbLine
 10
95.9567808219
 20
272.5373972603
 30
0.0
 11
97.4567808219
 21
272.5373972603
 31
0.0
  0
ARC
  5
1B5
330
1F
100
AcDbEntity
  8
0
  6
Continuous
 62
     7
370
    25
100
AcDbCircle
 10
95.9567808219
 20
272.7873972603
 30
0.0
 40
0.25
100
AcDbArc
 50
180.0
 51
270.0
  0
LINE
  5
1B6
330
1F
100
AcDbEntity
  8
0
  6
Continuous
 62
     7
370
    25
100
AcDbLine
 10
95.7067808219
 20
276.2873972603
 30
0.0
 11
95.7067808219
 21
272.7873972603
 31
0.0
  0
ARC
  5
1B7
330
1F
100
AcDbEntity
  8
0
  6
Continuous
 62
     7
370
    25
100
AcDbCircle
 10
95.9567808219
 20
276.2873972603
 30
0.0
 40
0.2500000000000568
100
AcDbArc
 50
90.0
 51
180.0
  0
LINE
  5
1B8
330
1F
100
AcDbEntity
  8
0
  6
Continuous
 62
     7
370
    25
100
AcDbLine
 10
97.4567808219
 20
276.5373972603
 30
0.0
 11
95.9567808219
 21
276.5373972603
 31
0.0
  0
LINE
  5
1B9
330
1F
100
AcDbEntity
  8
0
  6
Continuous
 62
     7
370
    25
100
AcDbLine
 10
97.4567808219
 20
272.7873972603
 30
0.0
 11
97.4567808219
 21
276.2873972603
 31
0.0
  0
LINE
  5
1BA
330
1F
100
AcDbEntity
  8
0
  6
Continuous
 62
     7
370
    25
100
AcDbLine
 10
97.4567808219
 20
276.2873972603
 30
0.0
 11
95.9567808219
 21
276.2873972603
 31
0.0
  0
LINE
  5
1BB
330
1F
100
AcDbEntity
  8
0
  6
Continuous
 62
     7
370
    25
100
AcDbLine
 10
95.9567808219
 20
276.2873972603
 30
0.0
 11
95.9567808219
 21
272.7873972603
 31
0.0
  0
LINE
  5
1BC
330
1F
100
AcDbEntity
  8
0
  6
Continuous
 62
     7
370
    25
100
AcDbLine
 10
95.9567808219
 20
272.7873972603
 30
0.0
 11
97.4567808219
 21
272.7873972603
 31
0.0
  0
ARC
  5
1BD
330
1F
100
AcDbEntity
  8
0
  6
Continuous
 62
     7
370
    25
100
AcDbCircle
 10
69.4067808219
 20
276.6873972603
 30
0.0
 40
0.1500000000000341
100
AcDbArc
 50
180.0
 51
270.0
  0
LINE
  5
1BE
330
1F
100
AcDbEntity
  8
0
  6
Continuous
 62
     7
370
    25
100
AcDbLine
 10
69.4067808219
 20
276.5373972603
 30
0.0
 11
74.0067808219
 21
276.5373972603
 31
0.0
  0
ARC
  5
1BF
330
1F
100
AcDbEntity
  8
0
  6
Continuous
 62
     7
370
    25
100
AcDbCircle
 10
74.0067808219
 20
276.1873972603
 30
0.0
 40
0.3499999999999943
100
AcDbArc
 50
0.0
 51
90.0
  0
LINE
  5
1C0
330
1F
100
AcDbEntity
  8
0
  6
Continuous
 62
     7
370
    25
100
AcDbLine
 10
74.3567808219
 20
276.1873972603
 30
0.0
 11
74.3567808219
 21
274.6123972603
 31
0.0
  0
LINE
  5
1C1
330
1F
100
AcDbEntity
  8
0
  6
Continuous
 62
     7
370
    25
100
AcDbLine
 10
74.1567808219
 20
274.6123972603
 30
0.0
 11
74.3567808219
 21
274.6123972603
 31
0.0
  0
LINE
  5
1C2
330
1F
100
AcDbEntity
  8
0
  6
Continuous
 62
     7
370
    25
100
AcDbLine
 10
74.1567808219
 20
276.1873972603
 30
0.0
 11
74.1567808219
 21
274.6123972603
 31
0.0
  0
LINE
  5
1C3
330
1F
100
AcDbEntity
  8
0
  6
Continuous
 62
     7
370
    25
100
AcDbLine
 10
69.4067808219
 20
276.3373972603
 30
0.0
 11
74.0067808219
 21
276.3373972603
 31
0.0
  0
ARC
  5
1C4
330
1F
100
AcDbEntity
  8
0
  6
Continuous
 62
     7
370
    25
100
AcDbCircle
 10
69.4067808219
 20
276.6873972603
 30
0.0
 40
0.3500000000000227
100
AcDbArc
 50
180.0
 51
270.0
  0
LINE
  5
1C5
330
1F
100
AcDbEntity
  8
0
  6
Continuous
 62
     7
370
    25
100
AcDbLine
 10
69.0567808219
 20
280.0373972603
 30
0.0
 11
69.0567808219
 21
276.6873972603
 31
0.0
  0
LINE
  5
1C6
330
1F
100
AcDbEntity
  8
0
  6
Continuous
 62
     7
370
    25
100
AcDbLine
 10
69.2567808219
 20
280.0373972603
 30
0.0
 11
69.0567808219
 21
280.0373972603
 31
0.0
  0
LINE
  5
1C7
330
1F
100
AcDbEntity
  8
0
  6
Continuous
 62
     7
370
    25
100
AcDbLine
 10
69.2567808219
 20
280.0373972603
 30
0.0
 11
69.2567808219
 21
276.6873972603
 31
0.0
  0
ARC
  5
1C8
330
1F
100
AcDbEntity
  8
0
  6
Continuous
 62
     7
370
    25
100
AcDbCircle
 10
74.0067808219
 20
276.1873972603
 30
0.0
 40
0.1500000000000341
100
AcDbArc
 50
0.0
 51
90.0
  0
LINE
  5
1C9
330
1F
100
AcDbEntity
  8
0
  6
Continuous
 62
     7
370
    25
100
AcDbLine
 10
74.3567808219
 20
270.9623972603
 30
0.0
 11
74.1567808219
 21
270.9623972603
 31
0.0
  0
LINE
  5
1CA
330
1F
100
AcDbEntity
  8
0
  6
Continuous
 62
     7
370
    25
100
AcDbLine
 10
74.3567808219
 20
270.9623972603
 30
0.0
 11
74.3567808219
 21
270.0873972603
 31
0.0
  0
LINE
  5
1CB
330
1F
100
AcDbEntity
  8
0
  6
Continuous
 62
     7
370
    25
100
AcDbLine
 10
74.1567808219
 20
270.9623972603
 30
0.0
 11
74.1567808219
 21
270.0873972603
 31
0.0
  0
LINE
  5
1CC
330
1F
100
AcDbEntity
  8
0
  6
Continuous
 62
     7
370
    25
100
AcDbLine
 10
74.3567808219
 20
270.0873972603
 30
0.0
 11
74.1567808219
 21
270.0873972603
 31
0.0
  0
LINE
  5
1CD
330
1F
100
AcDbEntity
  8
0
  6
Continuous
 62
     7
370
    25
100
AcDbLine
 10
74.3567808219
 20
270.9623972603
 30
0.0
 11
74.3567808219
 21
271.5373972603
 31
0.0
  0
LINE
  5
1CE
330
1F
100
AcDbEntity
  8
0
  6
Continuous
 62
     7
370
    25
100
AcDbLine
 10
74.1567808219
 20
270.9623972603
 30
0.0
 11
74.1567808219
 21
271.5373972603
 31
0.0
  0
LINE
  5
1CF
330
1F
100
AcDbEntity
  8
0
  6
Continuous
 62
     7
370
    25
100
AcDbLine
 10
74.3567808219
 20
274.0373972603
 30
0.0
 11
74.3567808219
 21
274.6123972603
 31
0.0
  0
LINE
  5
1D0
330
1F
100
AcDbEntity
  8
0
  6
Continuous
 62
     7
370
    25
100
AcDbLine
 10
74.1567808219
 20
274.0373972603
 30
0.0
 11
74.1567808219
 21
274.6123972603
 31
0.0
  0
LINE
  5
1D1
330
1F
100
AcDbEntity
  8
0
  6
Continuous
 62
     7
370
    25
100
AcDbLine
 10
74.3567808219
 20
271.5373972603
 30
0.0
 11
74.3567808219
 21
274.0373972603
 31
0.0
  0
LINE
  5
1D2
330
1F
100
AcDbEntity
  8
0
  6
Continuous
 62
     7
370
    25
100
AcDbLine
 10
74.1567808219
 20
271.5373972603
 30
0.0
 11
74.1567808219
 21
274.0373972603
 31
0.0
  0
LINE
  5
1D3
330
1F
100
AcDbEntity
  8
0
  6
Continuous
 62
     7
370
    25
100
AcDbLine
 10
71.9067808219
 20
274.1373972603
 30
0.0
 11
73.9067808219
 21
274.1373972603
 31
0.0
  0
LINE
  5
1D4
330
1F
100
AcDbEntity
  8
0
  6
Continuous
 62
     7
370
    25
100
AcDbLine
 10
73.9067808219
 20
273.5373972603
 30
0.0
 11
71.9067808219
 21
273.5373972603
 31
0.0
  0
LINE
  5
1D5
330
1F
100
AcDbEntity
  8
0
  6
Continuous
 62
     7
370
    25
100
AcDbLine
 10
73.9067808219
 20
274.1373972603
 30
0.0
 11
73.9067808219
 21
273.5373972603
 31
0.0
  0
LINE
  5
1D6
330
1F
100
AcDbEntity
  8
0
  6
Continuous
 62
     7
370
    25
100
AcDbLine
 10
71.9067808219
 20
273.5373972603
 30
0.0
 11
71.9067808219
 21
274.1373972603
 31
0.0
  0
LINE
  5
1D7
330
1F
100
AcDbEntity
  8
0
  6
Continuous
 62
     7
370
    25
100
AcDbLine
 10
70.9067808219
 20
247.8373972603
 30
0.0
 11
70.9067808219
 21
230.3373972603
 31
0.0
  0
LINE
  5
1D8
330
1F
100
AcDbEntity
  8
0
  6
Continuous
 62
     7
370
    25
100
AcDbLine
 10
73.9067808219
 20
276.3373972603
 30
0.0
 11
69.4067808219
 21
276.3373972603
 31
0.0
  0
LINE
  5
1D9
330
1F
100
AcDbEntity
  8
0
  6
Continuous
 62
     7
370
    25
100
AcDbLine
 10
69.4067808219
 20
276.3373972603
 30
0.0
 11
69.4067808219
 21
230.3373972603
 31
0.0
  0
LINE
  5
1DA
330
1F
100
AcDbEntity
  8
0
  6
Continuous
 62
     7
370
    25
100
AcDbLine
 10
73.9067808219
 20
274.1373972603
 30
0.0
 11
73.9067808219
 21
276.3373972603
 31
0.0
  0
LINE
  5
1DB
330
1F
100
AcDbEntity
  8
0
  6
Continuous
 62
     7
370
    25
100
AcDbLine
 10
73.9067808219
 20
247.8373972603
 30
0.0
 11
73.9067808219
 21
273.5373972603
 31
0.0
  0
LINE
  5
1DC
330
1F
100
AcDbEntity
  8
0
  6
Continuous
 62
     7
370
    25
100
AcDbLine
 10
73.9067808219
 20
247.8373972603
 30
0.0
 11
70.9067808219
 21
247.8373972603
 31
0.0
  0
LINE
  5
1DD
330
1F
100
AcDbEntity
  8
0
  6
Continuous
 62
     7
370
    25
100
AcDbLine
 10
70.9067808219
 20
230.3373972603
 30
0.0
 11
69.4067808219
 21
230.3373972603
 31
0.0
  0
LINE
  5
1DE
330
1F
100
AcDbEntity
  8
0
  6
Continuous
 62
     7
370
    25
100
AcDbLine
 10
129.4067808219
 20
230.3373972603
 30
0.0
 11
129.4067808219
 21
266.3373972603
 31
0.0
  0
LINE
  5
1DF
330
1F
100
AcDbEntity
  8
0
  6
Continuous
 62
     7
370
    25
100
AcDbLine
 10
124.9067808219
 20
266.3373972603
 30
0.0
 11
124.9067808219
 21
247.8373972603
 31
0.0
  0
LINE
  5
1E0
330
1F
100
AcDbEntity
  8
0
  6
Continuous
 62
     7
370
    25
100
AcDbLine
 10
127.9067808219
 20
230.3373972603
 30
0.0
 11
127.9067808219
 21
247.8373972603
 31
0.0
  0
LINE
  5
1E1
330
1F
100
AcDbEntity
  8
0
  6
Continuous
 62
     7
370
    25
100
AcDbLine
 10
127.9067808219
 20
247.8373972603
 30
0.0
 11
124.9067808219
 21
247.8373972603
 31
0.0
  0
LINE
  5
1E2
330
1F
100
AcDbEntity
  8
0
  6
Continuous
 62
     7
370
    25
100
AcDbLine
 10
129.4067808219
 20
266.3373972603
 30
0.0
 11
124.9067808219
 21
266.3373972603
 31
0.0
  0
LINE
  5
1E3
330
1F
100
AcDbEntity
  8
0
  6
Continuous
 62
     7
370
    25
100
AcDbLine
 10
129.4067808219
 20
230.3373972603
 30
0.0
 11
127.9067808219
 21
230.3373972603
 31
0.0
  0
LINE
  5
1E4
330
1F
100
AcDbEntity
  8
0
  6
Continuous
 62
     7
370
    25
100
AcDbLine
 10
73.9067808219
 20
230.3373972603
 30
0.0
 11
73.9067808219
 21
247.8373972603
 31
0.0
  0
LINE
  5
1E5
330
1F
100
AcDbEntity
  8
0
  6
Continuous
 62
     7
370
    25
100
AcDbLine
 10
73.9067808219
 20
230.3373972603
 30
0.0
 11
70.9067808219
 21
230.3373972603
 31
0.0
  0
LINE
  5
1E6
330
1F
100
AcDbEntity
  8
0
  6
Continuous
 62
     7
370
    25
100
AcDbLine
 10
124.9067808219
 20
247.8373972603
 30
0.0
 11
124.9067808219
 21
230.3373972603
 31
0.0
  0
LINE
  5
1E7
330
1F
100
AcDbEntity
  8
0
  6
Continuous
 62
     7
370
    25
100
AcDbLine
 10
127.9067808219
 20
230.3373972603
 30
0.0
 11
124.9067808219
 21
230.3373972603
 31
0.0
  0
LINE
  5
1E8
330
1F
100
AcDbEntity
  8
0
  6
Continuous
 62
     7
370
    25
100
AcDbLine
 10
115.3757292102
 20
247.8373972603
 30
0.0
 11
116.9067808219
 21
230.3373972603
 31
0.0
  0
LINE
  5
1E9
330
1F
100
AcDbEntity
  8
0
  6
Continuous
 62
     7
370
    25
100
AcDbLine
 10
83.4378324336
 20
247.8373972603
 30
0.0
 11
115.3757292102
 21
247.8373972603
 31
0.0
  0
CIRCLE
  5
1EA
330
1F
100
AcDbEntity
  8
0
  6
Continuous
 62
     7
370
    25
100
AcDbCircle
 10
114.4067808219
 20
263.8373972603
 30
0.0
 40
0.1999999999999886
  0
CIRCLE
  5
1EB
330
1F
100
AcDbEntity
  8
0
  6
Continuous
 62
     7
370
    25
100
AcDbCircle
 10
90.0067808219
 20
273.8373972603
 30
0.0
 40
0.2999999999999972
  0
LINE
  5
1EC
330
1F
100
AcDbEntity
  8
0
  6
Continuous
 62
     7
370
    25
100
AcDbLine
 10
94.9067808219
 20
276.3373972603
 30
0.0
 11
94.9067808219
 21
266.3373972603
 31
0.0
  0
LINE
  5
1ED
330
1F
100
AcDbEntity
  8
0
  6
Continuous
 62
     7
370
    25
100
AcDbLine
 10
81.9067808219
 20
230.3373972603
 30
0.0
 11
83.4378324336
 21
247.8373972603
 31
0.0
  0
LINE
  5
1EE
330
1F
100
AcDbEntity
  8
0
  6
Continuous
 62
     7
370
    25
100
AcDbLine
 10
94.9067808219
 20
266.3373972603
 30
0.0
 11
113.3869899265
 21
266.3373972603
 31
0.0
  0
LINE
  5
1EF
330
1F
100
AcDbEntity
  8
0
  6
Continuous
 62
     7
370
    25
100
AcDbLine
 10
115.3869899265
 20
266.3373972603
 30
0.0
 11
124.9067808219
 21
266.3373972603
 31
0.0
  0
LINE
  5
1F0
330
1F
100
AcDbEntity
  8
0
  6
Continuous
 62
     7
370
    25
100
AcDbLine
 10
94.9067808219
 20
276.3373972603
 30
0.0
 11
94.4567808219
 21
276.3373972603
 31
0.0
  0
LINE
  5
1F1
330
1F
100
AcDbEntity
  8
0
  6
Continuous
 62
     7
370
    25
100
AcDbLine
 10
81.9067808219
 20
230.3373972603
 30
0.0
 11
73.9067808219
 21
230.3373972603
 31
0.0
  0
LINE
  5
1F2
330
1F
100
AcDbEntity
  8
0
  6
Continuous
 62
     7
370
    25
100
AcDbLine
 10
124.9067808219
 20
230.3373972603
 30
0.0
 11
116.9067808219
 21
230.3373972603
 31
0.0
  0
LINE
  5
1F3
330
1F
100
AcDbEntity
  8
0
  6
Continuous
 62
     7
370
    25
100
AcDbLine
 10
116.9067808219
 20
230.3373972603
 30
0.0
 11
81.9067808219
 21
230.3373972603
 31
0.0
  0
LINE
  5
1F4
330
1F
100
AcDbEntity
  8
0
  6
Continuous
 62
     7
370
    25
100
AcDbLine
 10
100.9896363894
 20
276.5373972603
 30
0.0
 11
101.6067808219
 21
280.0373972603
 31
0.0
  0
LINE
  5
1F5
330
1F
100
AcDbEntity
  8
0
  6
Continuous
 62
     7
370
    25
100
AcDbLine
 10
97.7067808219
 20
276.5373972603
 30
0.0
 11
97.4567808219
 21
276.5373972603
 31
0.0
  0
LINE
  5
1F6
330
1F
100
AcDbEntity
  8
0
  6
Continuous
 62
     7
370
    25
100
AcDbLine
 10
95.9567808219
 20
276.5373972603
 30
0.0
 11
74.0067808219
 21
276.5373972603
 31
0.0
  0
LINE
  5
1F7
330
1F
100
AcDbEntity
  8
0
  6
Continuous
 62
     7
370
    25
100
AcDbLine
 10
69.9239252544
 20
276.5373972603
 30
0.0
 11
69.3067808219
 21
280.0373972603
 31
0.0
  0
LINE
  5
1F8
330
1F
100
AcDbEntity
  8
0
  6
Continuous
 62
     7
370
    25
100
AcDbLine
 10
101.6067808219
 20
280.0373972603
 30
0.0
 11
69.3067808219
 21
280.0373972603
 31
0.0
  0
LINE
  5
1F9
330
1F
100
AcDbEntity
  8
0
  6
Continuous
 62
     7
370
    25
100
AcDbLine
 10
113.3869899265
 20
267.2853725183
 30
0.0
 11
113.3869899265
 21
268.8781993958
 31
0.0
  0
LINE
  5
1FA
330
1F
100
AcDbEntity
  8
0
  6
Continuous
 62
     7
370
    25
100
AcDbLine
 10
113.3869899265
 20
268.8781993958
 30
0.0
 11
115.3869899265
 21
268.8781993958
 31
0.0
  0
LINE
  5
1FB
330
1F
100
AcDbEntity
  8
0
  6
Continuous
 62
     7
370
    25
100
AcDbLine
 10
115.3869899265
 20
267.2853725183
 30
0.0
 11
115.3869899265
 21
268.8781993958
 31
0.0
  0
ARC
  5
1FC
330
1F
100
AcDbEntity
  8
0
  6
Continuous
 62
     7
370
    25
100
AcDbCircle
 10
114.0119899265
 20
268.1281993958
 30
0.0
 40
0.2500000000000568
100
AcDbArc
 50
90.0
 51
270.0
  0
ARC
  5
1FD
330
1F
100
AcDbEntity
  8
0
  6
Continuous
 62
     7
370
    25
100
AcDbCircle
 10
114.7619899265
 20
268.1281993958
 30
0.0
 40
0.2500000000000568
100
AcDbArc
 50
270.0
 51
90.0
  0
LINE
  5
1FE
330
1F
100
AcDbEntity
  8
0
  6
Continuous
 62
     7
370
    25
100
AcDbLine
 10
114.0119899265
 20
268.3781993958
 30
0.0
 11
114.7619899265
 21
268.3781993958
 31
0.0
  0
LINE
  5
1FF
330
1F
100
AcDbEntity
  8
0
  6
Continuous
 62
     7
370
    25
100
AcDbLine
 10
114.7619899265
 20
267.8781993958
 30
0.0
 11
114.0119899265
 21
267.8781993958
 31
0.0
  0
LINE
  5
200
330
1F
100
AcDbEntity
  8
0
  6
Continuous
 62
     7
370
    25
100
AcDbLine
 10
113.3869899265
 20
267.0237792568
 30
0.0
 11
113.3869899265
 21
267.2853725183
 31
0.0
  0
LINE
  5
201
330
1F
100
AcDbEntity
  8
0
  6
Continuous
 62
     7
370
    25
100
AcDbLine
 10
115.3869899265
 20
267.0237792568
 30
0.0
 11
115.3869899265
 21
267.2853725183
 31
0.0
  0
LINE
  5
202
330
1F
100
AcDbEntity
  8
0
  6
Continuous
 62
     7
370
    25
100
AcDbLine
 10
113.3869899265
 20
266.372950884
 30
0.0
 11
113.3869899265
 21
267.0237792568
 31
0.0
  0
LINE
  5
203
330
1F
100
AcDbEntity
  8
0
  6
Continuous
 62
     7
370
    25
100
AcDbLine
 10
115.3869899265
 20
266.372950884
 30
0.0
 11
115.3869899265
 21
267.0237792568
 31
0.0
  0
LINE
  5
204
330
1F
100
AcDbEntity
  8
0
  6
Continuous
 62
     7
370
    25
100
AcDbLine
 10
115.3869899265
 20
266.2608394862
 30
0.0
 11
115.3869899265
 21
266.372950884
 31
0.0
  0
LINE
  5
205
330
1F
100
AcDbEntity
  8
0
  6
Continuous
 62
     7
370
    25
100
AcDbLine
 10
113.3869899265
 20
266.2608394862
 30
0.0
 11
113.3869899265
 21
266.372950884
 31
0.0
  0
LINE
  5
206
330
1F
100
AcDbEntity
  8
0
  6
Continuous
 62
     7
370
    25
100
AcDbLine
 10
113.3869899265
 20
262.5781993958
 30
0.0
 11
115.3869899265
 21
262.5781993958
 31
0.0
  0
LINE
  5
207
330
1F
100
AcDbEntity
  8
0
  6
Continuous
 62
     7
370
    25
100
AcDbLine
 10
113.3869899265
 20
262.5781993958
 30
0.0
 11
113.3869899265
 21
266.2608394862
 31
0.0
  0
LINE
  5
208
330
1F
100
AcDbEntity
  8
0
  6
Continuous
 62
     7
370
    25
100
AcDbLine
 10
115.3869899265
 20
262.5781993958
 30
0.0
 11
115.3869899265
 21
266.2608394862
 31
0.0
  0
LINE
  5
209
330
1F
100
AcDbEntity
  8
0
  6
Continuous
 62
     7
370
    25
100
AcDbLine
 10
114.1369899265
 20
263.2281993958
 30
0.0
 11
114.1369899265
 21
263.9781993958
 31
0.0
  0
ARC
  5
20A
330
1F
100
AcDbEntity
  8
0
  6
Continuous
 62
     7
370
    25
100
AcDbCircle
 10
114.3869899265
 20
263.2281993958
 30
0.0
 40
0.25
100
AcDbArc
 50
180.0
 51
0.0
  0
ARC
  5
20B
330
1F
100
AcDbEntity
  8
0
  6
Continuous
 62
     7
370
    25
100
AcDbCircle
 10
114.3869899265
 20
263.9781993958
 30
0.0
 40
0.25
100
AcDbArc
 50
0.0
 51
180.0
  0
LINE
  5
20C
330
1F
100
AcDbEntity
  8
0
  6
Continuous
 62
     7
370
    25
100
AcDbLine
 10
114.6369899265
 20
263.9781993958
 30
0.0
 11
114.6369899265
 21
263.2281993958
 31
0.0
  0
LINE
  5
20D
330
1F
100
AcDbEntity
  8
0
  6
Continuous
 62
     7
370
    25
100
AcDbLine
 10
95.6567808219
 20
272.5373972603
 30
0.0
 11
95.9567808219
 21
272.5373972603
 31
0.0
  0
LINE
  5
20E
330
1F
100
AcDbEntity
  8
0
  6
Continuous
 62
     7
370
    25
100
AcDbLine
 10
97.4567808219
 20
272.5373972603
 30
0.0
 11
97.7567808219
 21
272.5373972603
 31
0.0
  0
LINE
  5
20F
330
1F
100
AcDbEntity
  8
0
  6
Continuous
 62
     7
370
    25
100
AcDbLine
 10
97.7567808219
 20
272.5373972603
 30
0.0
 11
97.7567808219
 21
275.7873972603
 31
0.0
  0
LINE
  5
210
330
1F
100
AcDbEntity
  8
0
  6
Continuous
 62
     7
370
    25
100
AcDbLine
 10
97.7567808219
 20
275.7873972603
 30
0.0
 11
98.0067808219
 21
275.7873972603
 31
0.0
  0
LINE
  5
211
330
1F
100
AcDbEntity
  8
0
  6
Continuous
 62
     7
370
    25
100
AcDbLine
 10
98.0067808219
 20
275.7873972603
 30
0.0
 11
98.0067808219
 21
272.2873972603
 31
0.0
  0
LINE
  5
212
330
1F
100
AcDbEntity
  8
0
  6
Continuous
 62
     7
370
    25
100
AcDbLine
 10
98.0067808219
 20
272.2873972603
 30
0.0
 11
95.4067808219
 21
272.2873972603
 31
0.0
  0
LINE
  5
213
330
1F
100
AcDbEntity
  8
0
  6
Continuous
 62
     7
370
    25
100
AcDbLine
 10
95.4067808219
 20
272.2873972603
 30
0.0
 11
95.4067808219
 21
275.7873972603
 31
0.0
  0
LINE
  5
214
330
1F
100
AcDbEntity
  8
0
  6
Continuous
 62
     7
370
    25
100
AcDbLine
 10
95.4067808219
 20
275.7873972603
 30
0.0
 11
95.6567808219
 21
275.7873972603
 31
0.0
  0
LINE
  5
215
330
1F
100
AcDbEntity
  8
0
  6
Continuous
 62
     7
370
    25
100
AcDbLine
 10
95.6567808219
 20
275.7873972603
 30
0.0
 11
95.6567808219
 21
272.5373972603
 31
0.0
  0
LINE
  5
216
330
1F
100
AcDbEntity
  8
0
  6
Continuous
 62
     7
370
    25
100
AcDbLine
 10
91.3067808219
 20
276.1873972603
 30
0.0
 11
91.3067808219
 21
276.5373972603
 31
0.0
  0
LINE
  5
217
330
1F
100
AcDbEntity
  8
0
  6
Continuous
 62
     7
370
    25
100
AcDbLine
 10
88.8067808219
 20
276.5373972603
 30
0.0
 11
88.8067808219
 21
276.1873972603
 31
0.0
  0
LINE
  5
218
330
1F
100
AcDbEntity
  8
0
  6
Continuous
 62
     7
370
    25
100
AcDbLine
 10
91.3067808219
 20
276.1873972603
 30
0.0
 11
91.3067808219
 21
270.0873972603
 31
0.0
  0
LINE
  5
219
330
1F
100
AcDbEntity
  8
0
  6
Continuous
 62
     7
370
    25
100
AcDbLine
 10
91.3067808219
 20
270.0873972603
 30
0.0
 11
88.8067808219
 21
270.0873972603
 31
0.0
  0
ARC
  5
21A
330
1F
100
AcDbEntity
  8
0
  6
Continuous
 62
     7
370
    25
100
AcDbCircle
 10
90.0567808219
 20
274.0373972603
 30
0.0
 40
0.5750000000000028
100
AcDbArc
 50
0.0
 51
180.0
  0
LINE
  5
21B
330
1F
100
AcDbEntity
  8
0
  6
Continuous
 62
     7
370
    25
100
AcDbLine
 10
88.8067808219
 20
270.0873972603
 30
0.0
 11
88.8067808219
 21
276.1873972603
 31
0.0
  0
LINE
  5
21C
330
1F
100
AcDbEntity
  8
0
  6
Continuous
 62
     7
370
    25
100
AcDbLine
 10
89.4817808219
 20
271.5373972603
 30
0.0
 11
89.4817808219
 21
274.0373972603
 31
0.0
  0
ARC
  5
21D
330
1F
100
AcDbEntity
  8
0
  6
Continuous
 62
     7
370
    25
100
AcDbCircle
 10
90.0567808219
 20
271.5373972603
 30
0.0
 40
0.5750000000000028
100
AcDbArc
 50
180.0
 51
0.0
  0
LINE
  5
21E
330
1F
100
AcDbEntity
  8
0
  6
Continuous
 62
     7
370
    25
100
AcDbLine
 10
90.6317808219
 20
274.0373972603
 30
0.0
 11
90.6317808219
 21
271.5373972603
 31
0.0
  0
LINE
  5
21F
330
1F
100
AcDbEntity
  8
0
  6
Continuous
 62
     7
370
    25
100
AcDbLine
 10
74.3230085879
 20
276.3373972603
 30
0.0
 11
88.8067808219
 21
276.3373972603
 31
0.0
  0
LINE
  5
220
330
1F
100
AcDbEntity
  8
0
  6
Continuous
 62
     7
370
    25
100
AcDbLine
 10
94.4567808219
 20
276.3373972603
 30
0.0
 11
94.4567808219
 21
276.5373972603
 31
0.0
  0
LINE
  5
221
330
1F
100
AcDbEntity
  8
0
  6
Continuous
 62
     7
370
    25
100
AcDbLine
 10
91.3067808219
 20
276.3373972603
 30
0.0
 11
94.4567808219
 21
276.3373972603
 31
0.0
  0
LINE
  5
222
330
1F
100
AcDbEntity
  8
0
  6
Continuous
 62
     7
370
    25
100
AcDbLine
 10
106.9567808219
 20
266.3373972603
 30
0.0
 11
106.9567808219
 21
280.0373972603
 31
0.0
  0
LINE
  5
223
330
1F
100
AcDbEntity
  8
0
  6
Continuous
 62
     7
370
    25
100
AcDbLine
 10
106.9567808219
 20
280.0373972603
 30
0.0
 11
101.8567808219
 21
280.0373972603
 31
0.0
  0
LINE
  5
224
330
1F
100
AcDbEntity
  8
0
  6
Continuous
 62
     7
370
    25
100
AcDbLine
 10
101.6567808219
 20
280.0373972603
 30
0.0
 11
101.6067808219
 21
280.0373972603
 31
0.0
  0
LINE
  5
225
330
1F
100
AcDbEntity
  8
0
  6
Continuous
 62
     7
370
    25
100
AcDbLine
 10
69.3067808219
 20
280.0373972603
 30
0.0
 11
69.2567808219
 21
280.0373972603
 31
0.0
  0
LINE
  5
226
330
1F
100
AcDbEntity
  8
0
  6
Continuous
 62
     7
370
    25
100
AcDbLine
 10
69.2567808219
 20
276.6873972603
 30
0.0
 11
69.8974762073
 21
276.6873972603
 31
0.0
  0
LINE
  5
227
330
1F
100
AcDbEntity
  8
0
  6
PHANTOM
 62
     1
370
    18
100
AcDbLine
 10
74.1567808219
 20
271.5373972603
 30
0.0
 11
74.3567808219
 21
271.5373972603
 31
0.0
  0
LINE
  5
228
330
1F
100
AcDbEntity
  8
0
  6
PHANTOM
 62
     1
370
    18
100
AcDbLine
 10
74.1567808219
 20
274.0373972603
 30
0.0
 11
74.3567808219
 21
274.0373972603
 31
0.0
  0
LINE
  5
229
330
1F
100
AcDbEntity
  8
0
  6
PHANTOM
 62
     1
370
    18
100
AcDbLine
 10
113.3869899265
 20
267.2853725183
 30
0.0
 11
115.3869899265
 21
267.2853725183
 31
0.0
  0
LINE
  5
22A
330
1F
100
AcDbEntity
  8
0
  6
PHANTOM
 62
     1
370
    18
100
AcDbLine
 10
113.3869899265
 20
267.0237792568
 30
0.0
 11
115.3869899265
 21
267.0237792568
 31
0.0
  0
LINE
  5
22B
330
1F
100
AcDbEntity
  8
0
  6
PHANTOM
 62
     1
370
    18
100
AcDbLine
 10
113.3869899265
 20
266.372950884
 30
0.0
 11
115.3869899265
 21
266.372950884
 31
0.0
  0
LINE
  5
22C
330
1F
100
AcDbEntity
  8
0
  6
PHANTOM
 62
     1
370
    18
100
AcDbLine
 10
113.3869899265
 20
266.2608394862
 30
0.0
 11
115.3869899265
 21
266.2608394862
 31
0.0
  0
LINE
  5
22D
330
1F
100
AcDbEntity
  8
0
  6
PHANTOM
 62
     1
370
    18
100
AcDbLine
 10
91.3067808219
 20
276.1873972603
 30
0.0
 11
88.8067808219
 21
276.1873972603
 31
0.0
  0
HATCH
  5
22E
330
1F
100
AcDbEntity
  8
O-TEKST
  6
Continuous
370
    18
100
AcDbHatch
 10
0.0
 20
0.0
 30
0.0
210
0.0
220
0.0
230
1.0
  2
ANSI34
 70
     0
 71
     0
 91
        1
 92
        0
 93
       10
 72
     1
 10
70.90678082191782
 20
230.3373972602739
 11
70.90678082191782
 21
247.8373972602739
 72
     1
 10
70.90678082191782
 20
247.8373972602739
 11
73.9067808219178
 21
247.8373972602739
 72
     1
 10
73.9067808219178
 20
247.8373972602739
 11
73.9067808219178
 21
273.5373972602739
 72
     1
 10
73.9067808219178
 20
273.5373972602739
 11
71.9067808219178
 21
273.5373972602739
 72
     1
 10
71.9067808219178
 20
273.5373972602739
 11
71.9067808219178
 21
274.1373972602739
 72
     1
 10
71.9067808219178
 20
274.1373972602739
 11
73.9067808219178
 21
274.1373972602739
 72
     1
 10
73.9067808219178
 20
274.1373972602739
 11
73.9067808219178
 21
276.337397260274
 72
     1
 10
73.9067808219178
 20
276.337397260274
 11
69.4067808219178
 21
276.337397260274
 72
     1
 10
69.4067808219178
 20
276.337397260274
 11
69.4067808219178
 21
230.3373972602739
 72
     1
 10
69.4067808219178
 20
230.3373972602739
 11
70.90678082191782
 21
230.3373972602739
 97
        0
 75
     0
 76
     1
 52
0.0
 41
1.0
 77
     0
 78
     4
 53
45.0
 43
0.0
 44
0.0
 45
-13.47038418160373
 46
13.47038418160373
 79
     0
 53
45.0
 43
4.49013
 44
0.0
 45
-13.47038418160373
 46
13.47038418160373
 79
     0
 53
45.0
 43
8.98026
 44
0.0
 45
-13.47038418160373
 46
13.47038418160373
 79
     0
 53
45.0
 43
13.4704
 44
0.0
 45
-13.47038418160373
 46
13.47038418160373
 79
     0
 98
        1
 10
0.0
 20
0.0
  0
HATCH
  5
22F
330
1F
100
AcDbEntity
  8
O-TEKST
  6
Continuous
370
    18
100
AcDbHatch
 10
0.0
 20
0.0
 30
0.0
210
0.0
220
0.0
230
1.0
  2
ANSI34
 70
     0
 71
     0
 91
        1
 92
        0
 93
        6
 72
     1
 10
127.9067808219178
 20
230.3373972602739
 11
129.4067808219178
 21
230.3373972602739
 72
     1
 10
129.4067808219178
 20
230.3373972602739
 11
129.4067808219178
 21
266.3373972602739
 72
     1
 10
129.4067808219178
 20
266.3373972602739
 11
124.9067808219178
 21
266.3373972602739
 72
     1
 10
124.9067808219178
 20
266.3373972602739
 11
124.9067808219178
 21
247.8373972602739
 72
     1
 10
124.9067808219178
 20
247.8373972602739
 11
127.9067808219178
 21
247.8373972602739
 72
     1
 10
127.9067808219178
 20
247.8373972602739
 11
127.9067808219178
 21
230.3373972602739
 97
        0
 75
     0
 76
     1
 52
0.0
 41
1.0
 77
     0
 78
     4
 53
45.0
 43
0.0
 44
0.0
 45
-13.47038418160373
 46
13.47038418160373
 79
     0
 53
45.0
 43
4.49013
 44
0.0
 45
-13.47038418160373
 46
13.47038418160373
 79
     0
 53
45.0
 43
8.98026
 44
0.0
 45
-13.47038418160373
 46
13.47038418160373
 79
     0
 53
45.0
 43
13.4704
 44
0.0
 45
-13.47038418160373
 46
13.47038418160373
 79
     0
 98
        1
 10
0.0
 20
0.0
  0
HATCH
  5
230
330
1F
100
AcDbEntity
  8
O-TEKST
  6
Continuous
370
    18
100
AcDbHatch
 10
0.0
 20
0.0
 30
0.0
210
0.0
220
0.0
230
1.0
  2
ANSI34
 70
     0
 71
     0
 91
        1
 92
        0
 93
       12
 72
     1
 10
69.25678082191773
 20
276.6873972602739
 11
69.25678082191773
 21
280.0373972602739
 72
     1
 10
69.25678082191773
 20
280.0373972602739
 11
69.05678082191773
 21
280.0373972602739
 72
     1
 10
69.05678082191773
 20
280.0373972602739
 11
69.05678082191773
 21
276.6873972602739
 72
     2
 10
69.40678082191774
 20
276.6873972602739
 40
0.3499999999999998
 50
180.0
 51
270.0000000000032
 73
     1
 72
     1
 10
69.40678082191775
 20
276.3373972602739
 11
74.00678082191773
 21
276.3373972602739
 72
     2
 10
74.00678082191773
 20
276.1873972602739
 40
0.1500000000000001
 50
270.0000000000008
 51
360.0000000000008
 73
     0
 72
     1
 10
74.15678082191774
 20
276.1873972602739
 11
74.15678082191774
 21
274.6123972602738
 72
     1
 10
74.15678082191774
 20
274.6123972602738
 11
74.35678082191774
 21
274.6123972602738
 72
     1
 10
74.35678082191774
 20
274.6123972602738
 11
74.35678082191772
 21
276.1873972602739
 72
     2
 10
74.00678082191773
 20
276.1873972602739
 40
0.3500000000000001
 50
0.0
 51
90.0
 73
     1
 72
     1
 10
74.00678082191773
 20
276.5373972602738
 11
69.40678082191774
 21
276.5373972602738
 72
     2
 10
69.40678082191774
 20
276.6873972602739
 40
0.1499999999999998
 50
90.0
 51
180.0
 73
     0
 97
        0
 75
     0
 76
     1
 52
90.0
 41
1.0
 77
     0
 78
     4
 53
135.0000000000002
 43
0.0
 44
0.0
 45
-13.47038418160369
 46
-13.47038418160378
 79
     0
 53
135.0000000000002
 43
-0.0000000000000157
 44
4.49013
 45
-13.47038418160369
 46
-13.47038418160378
 79
     0
 53
135.0000000000002
 43
-0.0000000000000314
 44
8.98026
 45
-13.47038418160369
 46
-13.47038418160378
 79
     0
 53
135.0000000000002
 43
-0.000000000000047
 44
13.4704
 45
-13.47038418160369
 46
-13.47038418160378
 79
     0
 98
        1
 10
0.0
 20
0.0
  0
HATCH
  5
231
330
1F
100
AcDbEntity
  8
O-TEKST
  6
Continuous
370
    18
100
AcDbHatch
 10
0.0
 20
0.0
 30
0.0
210
0.0
220
0.0
230
1.0
  2
ANSI34
 70
     0
 71
     0
 91
        1
 92
        0
 93
        4
 72
     1
 10
74.15678082191775
 20
270.0873972602739
 11
74.35678082191775
 21
270.0873972602739
 72
     1
 10
74.35678082191775
 20
270.0873972602739
 11
74.35678082191774
 21
270.9623972602739
 72
     1
 10
74.35678082191774
 20
270.9623972602739
 11
74.15678082191774
 21
270.9623972602739
 72
     1
 10
74.15678082191774
 20
270.9623972602739
 11
74.15678082191775
 21
270.0873972602739
 97
        0
 75
     0
 76
     1
 52
90.0
 41
1.0
 77
     0
 78
     4
 53
135.0000000000002
 43
0.0
 44
0.0
 45
-13.47038418160369
 46
-13.47038418160378
 79
     0
 53
135.0000000000002
 43
-0.0000000000000157
 44
4.49013
 45
-13.47038418160369
 46
-13.47038418160378
 79
     0
 53
135.0000000000002
 43
-0.0000000000000314
 44
8.98026
 45
-13.47038418160369
 46
-13.47038418160378
 79
     0
 53
135.0000000000002
 43
-0.000000000000047
 44
13.4704
 45
-13.47038418160369
 46
-13.47038418160378
 79
     0
 98
        1
 10
0.0
 20
0.0
  0
HATCH
  5
232
330
1F
100
AcDbEntity
  8
O-TEKST
  6
Continuous
370
    18
100
AcDbHatch
 10
0.0
 20
0.0
 30
0.0
210
0.0
220
0.0
230
1.0
  2
ANSI34
 70
     0
 71
     0
 91
        2
 92
        0
 93
        8
 72
     1
 10
97.45678082191765
 20
276.5373972602738
 11
95.95678082191765
 21
276.5373972602738
 72
     2
 10
95.95678082191765
 20
276.2873972602737
 40
0.2499999999999999
 50
90.0
 51
180.0
 73
     1
 72
     1
 10
95.70678082191765
 20
276.2873972602737
 11
95.70678082191765
 21
272.7873972602737
 72
     2
 10
95.95678082191765
 20
272.7873972602737
 40
0.2499999999999999
 50
180.0
 51
270.0000000000008
 73
     1
 72
     1
 10
95.95678082191765
 20
272.5373972602737
 11
97.45678082191765
 21
272.5373972602737
 72
     2
 10
97.45678082191765
 20
272.7873972602737
 40
0.2499999999999999
 50
270.0000000000008
 51
360.0000000000008
 73
     1
 72
     1
 10
97.70678082191765
 20
272.7873972602737
 11
97.70678082191765
 21
276.2873972602737
 72
     2
 10
97.45678082191765
 20
276.2873972602737
 40
0.2499999999999999
 50
0.0
 51
90.0
 73
     1
 97
        0
 92
        0
 93
        4
 72
     1
 10
97.45678082191765
 20
272.7873972602738
 11
95.95678082191765
 21
272.7873972602737
 72
     1
 10
95.95678082191765
 20
272.7873972602737
 11
95.95678082191765
 21
276.2873972602737
 72
     1
 10
95.95678082191765
 20
276.2873972602737
 11
97.45678082191765
 21
276.2873972602737
 72
     1
 10
97.45678082191765
 20
276.2873972602737
 11
97.45678082191765
 21
272.7873972602738
 97
        0
 75
     0
 76
     1
 52
0.0
 41
1.0
 77
     0
 78
     4
 53
45.0
 43
0.0
 44
0.0
 45
-13.47038418160373
 46
13.47038418160373
 79
     0
 53
45.0
 43
4.49013
 44
0.0
 45
-13.47038418160373
 46
13.47038418160373
 79
     0
 53
45.0
 43
8.98026
 44
0.0
 45
-13.47038418160373
 46
13.47038418160373
 79
     0
 53
45.0
 43
13.4704
 44
0.0
 45
-13.47038418160373
 46
13.47038418160373
 79
     0
 98
        1
 10
0.0
 20
0.0
  0
HATCH
  5
233
330
1F
100
AcDbEntity
  8
O-TEKST
  6
Continuous
370
    18
100
AcDbHatch
 10
0.0
 20
0.0
 30
0.0
210
0.0
220
0.0
230
1.0
  2
ANSI34
 70
     0
 71
     0
 91
        1
 92
        0
 93
        6
 72
     1
 10
101.8567808219177
 20
280.0373972602738
 11
101.6567808219176
 21
280.0373972602738
 72
     1
 10
101.6567808219176
 20
280.0373972602738
 11
101.6567808219176
 21
276.5373972602737
 72
     1
 10
101.6567808219176
 20
276.5373972602737
 11
97.70678082191765
 21
276.5373972602738
 72
     1
 10
97.70678082191765
 20
276.5373972602738
 11
97.70678082191765
 21
276.3373972602737
 72
     1
 10
97.70678082191765
 20
276.3373972602737
 11
101.8567808219177
 21
276.3373972602737
 72
     1
 10
101.8567808219177
 20
276.3373972602737
 11
101.8567808219177
 21
280.0373972602738
 97
        0
 75
     0
 76
     1
 52
0.0
 41
1.0
 77
     0
 78
     4
 53
45.0
 43
0.0
 44
0.0
 45
-13.47038418160373
 46
13.47038418160373
 79
     0
 53
45.0
 43
4.49013
 44
0.0
 45
-13.47038418160373
 46
13.47038418160373
 79
     0
 53
45.0
 43
8.98026
 44
0.0
 45
-13.47038418160373
 46
13.47038418160373
 79
     0
 53
45.0
 43
13.4704
 44
0.0
 45
-13.47038418160373
 46
13.47038418160373
 79
     0
 98
        1
 10
0.0
 20
0.0
  0
INSERT
  5
239
330
1F
100
AcDbEntity
  8
O-TEKST
100
AcDbBlockReference
  2
SW_NOTE_0
 10
77.6968871602
 20
213.9814942267
 30
0.0
  0
LINE
  5
23A
330
1F
100
AcDbEntity
  8
0
  6
Continuous
 62
     7
370
    25
100
AcDbLine
 10
219.9204109589
 20
114.5004246575
 30
0.0
 11
219.9204109589
 21
94.8004246575
 31
0.0
  0
LINE
  5
23B
330
1F
100
AcDbEntity
  8
0
  6
Continuous
 62
     7
370
    25
100
AcDbLine
 10
220.7711032318
 20
114.5004246575
 30
0.0
 11
219.9204109589
 21
114.6504246575
 31
0.0
  0
LINE
  5
23C
330
1F
100
AcDbEntity
  8
0
  6
Continuous
 62
     7
370
    25
100
AcDbLine
 10
220.7711032318
 20
94.8004246575
 30
0.0
 11
220.7711032318
 21
114.5004246575
 31
0.0
  0
LINE
  5
23D
330
1F
100
AcDbEntity
  8
0
  6
Continuous
 62
     7
370
    25
100
AcDbLine
 10
219.9204109589
 20
94.6504246575
 30
0.0
 11
220.7711032318
 21
94.8004246575
 31
0.0
  0
LINE
  5
23E
330
1F
100
AcDbEntity
  8
0
  6
Continuous
 62
     7
370
    25
100
AcDbLine
 10
219.9204109589
 20
94.6504246575
 30
0.0
 11
219.9204109589
 21
114.6504246575
 31
0.0
  0
LINE
  5
23F
330
1F
100
AcDbEntity
  8
0
  6
Continuous
 62
     7
370
    25
100
AcDbLine
 10
223.4204109589
 20
114.0332802251
 30
0.0
 11
220.7711032318
 21
114.5004246575
 31
0.0
  0
LINE
  5
240
330
1F
100
AcDbEntity
  8
0
  6
Continuous
 62
     7
370
    25
100
AcDbLine
 10
223.4204109589
 20
95.26756909
 30
0.0
 11
220.7711032318
 21
94.8004246575
 31
0.0
  0
LINE
  5
241
330
1F
100
AcDbEntity
  8
0
  6
Continuous
 62
     7
370
    25
100
AcDbLine
 10
219.9204109589
 20
94.4504246575
 30
0.0
 11
219.9204109589
 21
74.7504246575
 31
0.0
  0
LINE
  5
242
330
1F
100
AcDbEntity
  8
0
  6
Continuous
 62
     7
370
    25
100
AcDbLine
 10
220.7711032318
 20
94.4504246575
 30
0.0
 11
219.9204109589
 21
94.6004246575
 31
0.0
  0
LINE
  5
243
330
1F
100
AcDbEntity
  8
0
  6
Continuous
 62
     7
370
    25
100
AcDbLine
 10
220.7711032318
 20
74.7504246575
 30
0.0
 11
220.7711032318
 21
94.4504246575
 31
0.0
  0
LINE
  5
244
330
1F
100
AcDbEntity
  8
0
  6
Continuous
 62
     7
370
    25
100
AcDbLine
 10
219.9204109589
 20
74.6004246575
 30
0.0
 11
220.7711032318
 21
74.7504246575
 31
0.0
  0
LINE
  5
245
330
1F
100
AcDbEntity
  8
0
  6
Continuous
 62
     7
370
    25
100
AcDbLine
 10
219.9204109589
 20
74.6004246575
 30
0.0
 11
219.9204109589
 21
94.6004246575
 31
0.0
  0
LINE
  5
246
330
1F
100
AcDbEntity
  8
0
  6
Continuous
 62
     7
370
    25
100
AcDbLine
 10
223.4204109589
 20
93.9832802251
 30
0.0
 11
220.7711032318
 21
94.4504246575
 31
0.0
  0
LINE
  5
247
330
1F
100
AcDbEntity
  8
0
  6
Continuous
 62
     7
370
    25
100
AcDbLine
 10
223.4204109589
 20
75.21756909
 30
0.0
 11
220.7711032318
 21
74.7504246575
 31
0.0
  0
LINE
  5
248
330
1F
100
AcDbEntity
  8
0
  6
Continuous
 62
     7
370
    25
100
AcDbLine
 10
219.9204109589
 20
141.6754246575
 30
0.0
 11
219.9204109589
 21
114.8254246575
 31
0.0
  0
LINE
  5
249
330
1F
100
AcDbEntity
  8
0
  6
Continuous
 62
     7
370
    25
100
AcDbLine
 10
223.4204109589
 20
141.2082802251
 30
0.0
 11
220.7711032318
 21
141.6754246575
 31
0.0
  0
LINE
  5
24A
330
1F
100
AcDbEntity
  8
0
  6
Continuous
 62
     7
370
    25
100
AcDbLine
 10
223.4204109589
 20
115.29256909
 30
0.0
 11
220.7711032318
 21
114.8254246575
 31
0.0
  0
LINE
  5
24B
330
1F
100
AcDbEntity
  8
0
  6
Continuous
 62
     7
370
    25
100
AcDbLine
 10
220.7711032318
 20
114.8254246575
 30
0.0
 11
220.7711032318
 21
141.6754246575
 31
0.0
  0
LINE
  5
24C
330
1F
100
AcDbEntity
  8
0
  6
Continuous
 62
     7
370
    25
100
AcDbLine
 10
219.9204109589
 20
114.6754246575
 30
0.0
 11
219.9204109589
 21
141.8254246575
 31
0.0
  0
LINE
  5
24D
330
1F
100
AcDbEntity
  8
0
  6
Continuous
 62
     7
370
    25
100
AcDbLine
 10
220.7711032318
 20
141.6754246575
 30
0.0
 11
219.9204109589
 21
141.8254246575
 31
0.0
  0
LINE
  5
24E
330
1F
100
AcDbEntity
  8
0
  6
Continuous
 62
     7
370
    25
100
AcDbLine
 10
219.9204109589
 20
114.6754246575
 30
0.0
 11
220.7711032318
 21
114.8254246575
 31
0.0
  0
LINE
  5
24F
330
1F
100
AcDbEntity
  8
0
  6
Continuous
 62
     7
370
    25
100
AcDbLine
 10
219.9204109589
 20
74.4254246575
 30
0.0
 11
219.9204109589
 21
47.5754246575
 31
0.0
  0
LINE
  5
250
330
1F
100
AcDbEntity
  8
0
  6
Continuous
 62
     7
370
    25
100
AcDbLine
 10
223.4204109589
 20
48.04256909
 30
0.0
 11
220.7711032318
 21
47.5754246575
 31
0.0
  0
LINE
  5
251
330
1F
100
AcDbEntity
  8
0
  6
Continuous
 62
     7
370
    25
100
AcDbLine
 10
220.7711032318
 20
47.5754246575
 30
0.0
 11
220.7711032318
 21
74.4254246575
 31
0.0
  0
LINE
  5
252
330
1F
100
AcDbEntity
  8
0
  6
Continuous
 62
     7
370
    25
100
AcDbLine
 10
223.4204109589
 20
73.9582802251
 30
0.0
 11
220.7711032318
 21
74.4254246575
 31
0.0
  0
LINE
  5
253
330
1F
100
AcDbEntity
  8
0
  6
Continuous
 62
     7
370
    25
100
AcDbLine
 10
219.9204109589
 20
47.4254246575
 30
0.0
 11
219.9204109589
 21
74.5754246575
 31
0.0
  0
LINE
  5
254
330
1F
100
AcDbEntity
  8
0
  6
Continuous
 62
     7
370
    25
100
AcDbLine
 10
219.9204109589
 20
47.4254246575
 30
0.0
 11
220.7711032318
 21
47.5754246575
 31
0.0
  0
LINE
  5
255
330
1F
100
AcDbEntity
  8
0
  6
Continuous
 62
     7
370
    25
100
AcDbLine
 10
220.7711032318
 20
74.4254246575
 30
0.0
 11
219.9204109589
 21
74.5754246575
 31
0.0
  0
LINE
  5
256
330
1F
100
AcDbEntity
  8
0
  6
Continuous
 62
     7
370
    25
100
AcDbLine
 10
223.4204109589
 20
141.6254246575
 30
0.0
 11
223.4204109589
 21
47.6254246575
 31
0.0
  0
LINE
  5
257
330
1F
100
AcDbEntity
  8
0
  6
Continuous
 62
     7
370
    25
100
AcDbLine
 10
223.6204109589
 20
141.6254246575
 30
0.0
 11
223.4204109589
 21
141.6254246575
 31
0.0
  0
LINE
  5
258
330
1F
100
AcDbEntity
  8
0
  6
Continuous
 62
     7
370
    25
100
AcDbLine
 10
223.6204109589
 20
141.6254246575
 30
0.0
 11
223.6204109589
 21
47.6254246575
 31
0.0
  0
LINE
  5
259
330
1F
100
AcDbEntity
  8
0
  6
Continuous
 62
     7
370
    25
100
AcDbLine
 10
223.6204109589
 20
47.6254246575
 30
0.0
 11
223.4204109589
 21
47.6254246575
 31
0.0
  0
LINE
  5
25A
330
1F
100
AcDbEntity
  8
0
  6
Continuous
 62
     7
370
    25
100
AcDbLine
 10
236.4204109589
 20
141.8754246575
 30
0.0
 11
219.9204109589
 21
141.8754246575
 31
0.0
  0
LINE
  5
25B
330
1F
100
AcDbEntity
  8
0
  6
Continuous
 62
     7
370
    25
100
AcDbLine
 10
219.9204109589
 20
141.8754246575
 30
0.0
 11
219.9204109589
 21
142.0754246575
 31
0.0
  0
LINE
  5
25C
330
1F
100
AcDbEntity
  8
0
  6
Continuous
 62
     7
370
    25
100
AcDbLine
 10
236.4204109589
 20
142.0754246575
 30
0.0
 11
219.9204109589
 21
142.0754246575
 31
0.0
  0
LINE
  5
25D
330
1F
100
AcDbEntity
  8
0
  6
Continuous
 62
     7
370
    25
100
AcDbLine
 10
236.4204109589
 20
142.0754246575
 30
0.0
 11
236.4204109589
 21
141.8754246575
 31
0.0
  0
ARC
  5
25E
330
1F
100
AcDbEntity
  8
0
  6
Continuous
 62
     7
370
    25
100
AcDbCircle
 10
223.2704109589
 20
141.7254246575
 30
0.0
 40
0.1500000000000057
100
AcDbArc
 50
0.0
 51
90.0
  0
ARC
  5
25F
330
1F
100
AcDbEntity
  8
0
  6
Continuous
 62
     7
370
    25
100
AcDbCircle
 10
223.2704109589
 20
141.7254246575
 30
0.0
 40
0.3499999999999889
100
AcDbArc
 50
0.0
 51
25.3769335252
  0
LINE
  5
260
330
1F
100
AcDbEntity
  8
0
  6
Continuous
 62
     7
370
    25
100
AcDbLine
 10
223.4204109589
 20
141.6254246575
 30
0.0
 11
223.4204109589
 21
141.7254246575
 31
0.0
  0
LINE
  5
261
330
1F
100
AcDbEntity
  8
0
  6
Continuous
 62
     7
370
    25
100
AcDbLine
 10
227.4204109589
 20
137.1754246575
 30
0.0
 11
229.8704109589
 21
137.1754246575
 31
0.0
  0
LINE
  5
262
330
1F
100
AcDbEntity
  8
0
  6
Continuous
 62
     7
370
    25
100
AcDbLine
 10
229.8704109589
 20
136.9754246575
 30
0.0
 11
229.8704109589
 21
137.1754246575
 31
0.0
  0
LINE
  5
263
330
1F
100
AcDbEntity
  8
0
  6
Continuous
 62
     7
370
    25
100
AcDbLine
 10
227.4204109589
 20
136.9754246575
 30
0.0
 11
229.8704109589
 21
136.9754246575
 31
0.0
  0
LINE
  5
264
330
1F
100
AcDbEntity
  8
0
  6
Continuous
 62
     7
370
    25
100
AcDbLine
 10
236.4204109589
 20
47.3754246575
 30
0.0
 11
236.4204109589
 21
47.1754246575
 31
0.0
  0
LINE
  5
265
330
1F
100
AcDbEntity
  8
0
  6
Continuous
 62
     7
370
    25
100
AcDbLine
 10
219.9204109589
 20
47.1754246575
 30
0.0
 11
219.9204109589
 21
47.3754246575
 31
0.0
  0
LINE
  5
266
330
1F
100
AcDbEntity
  8
0
  6
Continuous
 62
     7
370
    25
100
AcDbLine
 10
219.9204109589
 20
47.3754246575
 30
0.0
 11
236.4204109589
 21
47.3754246575
 31
0.0
  0
LINE
  5
267
330
1F
100
AcDbEntity
  8
0
  6
Continuous
 62
     7
370
    25
100
AcDbLine
 10
219.9204109589
 20
47.1754246575
 30
0.0
 11
236.4204109589
 21
47.1754246575
 31
0.0
  0
LINE
  5
268
330
1F
100
AcDbEntity
  8
0
  6
Continuous
 62
     7
370
    25
100
AcDbLine
 10
223.4204109589
 20
47.6254246575
 30
0.0
 11
223.4204109589
 21
47.5254246575
 31
0.0
  0
ARC
  5
269
330
1F
100
AcDbEntity
  8
0
  6
Continuous
 62
     7
370
    25
100
AcDbCircle
 10
223.2704109589
 20
47.5254246575
 30
0.0
 40
0.1500000000000057
100
AcDbArc
 50
270.0
 51
0.0
  0
ARC
  5
26A
330
1F
100
AcDbEntity
  8
0
  6
Continuous
 62
     7
370
    25
100
AcDbCircle
 10
223.2704109589
 20
47.5254246575
 30
0.0
 40
0.3499999999999889
100
AcDbArc
 50
334.6230664748
 51
0.0
  0
LINE
  5
26B
330
1F
100
AcDbEntity
  8
0
  6
Continuous
 62
     7
370
    25
100
AcDbLine
 10
227.4204109589
 20
52.2754246575
 30
0.0
 11
229.8704109589
 21
52.2754246575
 31
0.0
  0
LINE
  5
26C
330
1F
100
AcDbEntity
  8
0
  6
Continuous
 62
     7
370
    25
100
AcDbLine
 10
229.8704109589
 20
52.2754246575
 30
0.0
 11
229.8704109589
 21
52.0754246575
 31
0.0
  0
LINE
  5
26D
330
1F
100
AcDbEntity
  8
0
  6
Continuous
 62
     7
370
    25
100
AcDbLine
 10
227.4204109589
 20
52.0754246575
 30
0.0
 11
229.8704109589
 21
52.0754246575
 31
0.0
  0
LINE
  5
26E
330
1F
100
AcDbEntity
  8
0
  6
Continuous
 62
     7
370
    25
100
AcDbLine
 10
269.6204109589
 20
140.2254246575
 30
0.0
 11
252.1204109589
 21
140.2254246575
 31
0.0
  0
LINE
  5
26F
330
1F
100
AcDbEntity
  8
0
  6
Continuous
 62
     7
370
    25
100
AcDbLine
 10
252.1204109589
 20
137.3754246575
 30
0.0
 11
252.1204109589
 21
140.2254246575
 31
0.0
  0
LINE
  5
270
330
1F
100
AcDbEntity
  8
0
  6
Continuous
 62
     7
370
    25
100
AcDbLine
 10
233.6204109589
 20
137.3754246575
 30
0.0
 11
252.1204109589
 21
137.3754246575
 31
0.0
  0
LINE
  5
271
330
1F
100
AcDbEntity
  8
0
  6
Continuous
 62
     7
370
    25
100
AcDbLine
 10
233.6204109589
 20
141.7254246575
 30
0.0
 11
233.6204109589
 21
137.3754246575
 31
0.0
  0
LINE
  5
272
330
1F
100
AcDbEntity
  8
0
  6
Continuous
 62
     7
370
    25
100
AcDbLine
 10
269.6204109589
 20
141.7254246575
 30
0.0
 11
233.6204109589
 21
141.7254246575
 31
0.0
  0
LINE
  5
273
330
1F
100
AcDbEntity
  8
0
  6
Continuous
 62
     7
370
    25
100
AcDbLine
 10
269.6204109589
 20
141.7254246575
 30
0.0
 11
269.6204109589
 21
140.2254246575
 31
0.0
  0
LINE
  5
274
330
1F
100
AcDbEntity
  8
0
  6
Continuous
 62
     7
370
    25
100
AcDbLine
 10
233.6204109589
 20
51.8754246575
 30
0.0
 11
233.6204109589
 21
47.5254246575
 31
0.0
  0
LINE
  5
275
330
1F
100
AcDbEntity
  8
0
  6
Continuous
 62
     7
370
    25
100
AcDbLine
 10
252.1204109589
 20
49.0254246575
 30
0.0
 11
252.1204109589
 21
51.8754246575
 31
0.0
  0
LINE
  5
276
330
1F
100
AcDbEntity
  8
0
  6
Continuous
 62
     7
370
    25
100
AcDbLine
 10
233.6204109589
 20
47.5254246575
 30
0.0
 11
269.6204109589
 21
47.5254246575
 31
0.0
  0
LINE
  5
277
330
1F
100
AcDbEntity
  8
0
  6
Continuous
 62
     7
370
    25
100
AcDbLine
 10
269.6204109589
 20
49.0254246575
 30
0.0
 11
269.6204109589
 21
47.5254246575
 31
0.0
  0
LINE
  5
278
330
1F
100
AcDbEntity
  8
0
  6
Continuous
 62
     7
370
    25
100
AcDbLine
 10
252.1204109589
 20
51.8754246575
 30
0.0
 11
233.6204109589
 21
51.8754246575
 31
0.0
  0
LINE
  5
279
330
1F
100
AcDbEntity
  8
0
  6
Continuous
 62
     7
370
    25
100
AcDbLine
 10
252.1204109589
 20
49.0254246575
 30
0.0
 11
269.6204109589
 21
49.0254246575
 31
0.0
  0
LINE
  5
27A
330
1F
100
AcDbEntity
  8
0
  6
Continuous
 62
     7
370
    25
100
AcDbLine
 10
223.6204109589
 20
141.7254246575
 30
0.0
 11
223.6204109589
 21
141.6254246575
 31
0.0
  0
LINE
  5
27B
330
1F
100
AcDbEntity
  8
0
  6
Continuous
 62
     7
370
    25
100
AcDbLine
 10
227.4204109589
 20
137.3754246575
 30
0.0
 11
233.6204109589
 21
137.3754246575
 31
0.0
  0
LINE
  5
27C
330
1F
100
AcDbEntity
  8
0
  6
Continuous
 62
     7
370
    25
100
AcDbLine
 10
223.6204109589
 20
141.7254246575
 30
0.0
 11
224.1704109589
 21
141.7254246575
 31
0.0
  0
LINE
  5
27D
330
1F
100
AcDbEntity
  8
0
  6
Continuous
 62
     7
370
    25
100
AcDbLine
 10
227.6704109589
 20
141.7254246575
 30
0.0
 11
233.6204109589
 21
141.7254246575
 31
0.0
  0
LINE
  5
27E
330
1F
100
AcDbEntity
  8
0
  6
Continuous
 62
     7
370
    25
100
AcDbLine
 10
223.6204109589
 20
47.6254246575
 30
0.0
 11
223.6204109589
 21
47.5254246575
 31
0.0
  0
LINE
  5
27F
330
1F
100
AcDbEntity
  8
0
  6
Continuous
 62
     7
370
    25
100
AcDbLine
 10
223.6204109589
 20
47.5254246575
 30
0.0
 11
224.1704109589
 21
47.5254246575
 31
0.0
  0
LINE
  5
280
330
1F
100
AcDbEntity
  8
0
  6
Continuous
 62
     7
370
    25
100
AcDbLine
 10
227.6704109589
 20
47.5254246575
 30
0.0
 11
233.6204109589
 21
47.5254246575
 31
0.0
  0
LINE
  5
281
330
1F
100
AcDbEntity
  8
0
  6
Continuous
 62
     7
370
    25
100
AcDbLine
 10
233.6204109589
 20
51.8754246575
 30
0.0
 11
227.4204109589
 21
51.8754246575
 31
0.0
  0
LINE
  5
282
330
1F
100
AcDbEntity
  8
0
  6
Continuous
 62
     7
370
    25
100
AcDbLine
 10
269.6204109589
 20
137.3754246575
 30
0.0
 11
252.1204109589
 21
137.3754246575
 31
0.0
  0
LINE
  5
283
330
1F
100
AcDbEntity
  8
0
  6
Continuous
 62
     7
370
    25
100
AcDbLine
 10
269.6204109589
 20
140.2254246575
 30
0.0
 11
269.6204109589
 21
137.3754246575
 31
0.0
  0
LINE
  5
284
330
1F
100
AcDbEntity
  8
0
  6
Continuous
 62
     7
370
    25
100
AcDbLine
 10
269.6204109589
 20
51.8754246575
 30
0.0
 11
269.6204109589
 21
49.0254246575
 31
0.0
  0
LINE
  5
285
330
1F
100
AcDbEntity
  8
0
  6
Continuous
 62
     7
370
    25
100
AcDbLine
 10
252.1204109589
 20
51.8754246575
 30
0.0
 11
269.6204109589
 21
51.8754246575
 31
0.0
  0
LINE
  5
286
330
1F
100
AcDbEntity
  8
0
  6
Continuous
 62
     7
370
    25
100
AcDbLine
 10
252.1204109589
 20
121.8443730458
 30
0.0
 11
252.1204109589
 21
67.4064762692
 31
0.0
  0
LINE
  5
287
330
1F
100
AcDbEntity
  8
0
  6
Continuous
 62
     7
370
    25
100
AcDbLine
 10
269.6204109589
 20
123.3754246575
 30
0.0
 11
252.1204109589
 21
121.8443730458
 31
0.0
  0
LINE
  5
288
330
1F
100
AcDbEntity
  8
0
  6
Continuous
 62
     7
370
    25
100
AcDbLine
 10
252.1204109589
 20
67.4064762692
 30
0.0
 11
269.6204109589
 21
65.8754246575
 31
0.0
  0
LINE
  5
289
330
1F
100
AcDbEntity
  8
0
  6
Continuous
 62
     7
370
    25
100
AcDbLine
 10
269.6204109589
 20
65.8754246575
 30
0.0
 11
269.6204109589
 21
51.8754246575
 31
0.0
  0
LINE
  5
28A
330
1F
100
AcDbEntity
  8
0
  6
Continuous
 62
     7
370
    25
100
AcDbLine
 10
269.6204109589
 20
137.3754246575
 30
0.0
 11
269.6204109589
 21
123.3754246575
 31
0.0
  0
LINE
  5
28B
330
1F
100
AcDbEntity
  8
0
  6
Continuous
 62
     7
370
    25
100
AcDbLine
 10
269.6204109589
 20
123.3754246575
 30
0.0
 11
269.6204109589
 21
65.8754246575
 31
0.0
  0
LINE
  5
28C
330
1F
100
AcDbEntity
  8
0
  6
Continuous
 62
     7
370
    25
100
AcDbLine
 10
227.4204109589
 20
140.3754246575
 30
0.0
 11
227.4204109589
 21
48.8754246575
 31
0.0
  0
LINE
  5
28D
330
1F
100
AcDbEntity
  8
0
  6
Continuous
 62
     7
370
    25
100
AcDbLine
 10
223.6704109589
 20
47.6254246575
 30
0.0
 11
224.1704109589
 21
47.6254246575
 31
0.0
  0
LINE
  5
28E
330
1F
100
AcDbEntity
  8
0
  6
Continuous
 62
     7
370
    25
100
AcDbLine
 10
223.6704109589
 20
141.6254246575
 30
0.0
 11
224.1704109589
 21
141.6254246575
 31
0.0
  0
LINE
  5
28F
330
1F
100
AcDbEntity
  8
0
  6
Continuous
 62
     7
370
    25
100
AcDbLine
 10
223.6204109589
 20
47.6254246575
 30
0.0
 11
223.6704109589
 21
47.6254246575
 31
0.0
  0
LINE
  5
290
330
1F
100
AcDbEntity
  8
0
  6
Continuous
 62
     7
370
    25
100
AcDbLine
 10
223.6204109589
 20
141.6254246575
 30
0.0
 11
223.6704109589
 21
141.6254246575
 31
0.0
  0
LINE
  5
291
330
1F
100
AcDbEntity
  8
0
  6
Continuous
 62
     7
370
    25
100
AcDbLine
 10
224.1704109589
 20
141.8754246575
 30
0.0
 11
224.1704109589
 21
140.3754246575
 31
0.0
  0
LINE
  5
292
330
1F
100
AcDbEntity
  8
0
  6
Continuous
 62
     7
370
    25
100
AcDbLine
 10
224.1704109589
 20
140.3754246575
 30
0.0
 11
227.6704109589
 21
140.3754246575
 31
0.0
  0
LINE
  5
293
330
1F
100
AcDbEntity
  8
0
  6
Continuous
 62
     7
370
    25
100
AcDbLine
 10
227.6704109589
 20
141.8754246575
 30
0.0
 11
227.6704109589
 21
140.3754246575
 31
0.0
  0
LINE
  5
294
330
1F
100
AcDbEntity
  8
0
  6
Continuous
 62
     7
370
    25
100
AcDbLine
 10
224.1704109589
 20
48.8754246575
 30
0.0
 11
224.1704109589
 21
47.3754246575
 31
0.0
  0
LINE
  5
295
330
1F
100
AcDbEntity
  8
0
  6
Continuous
 62
     7
370
    25
100
AcDbLine
 10
224.1704109589
 20
48.8754246575
 30
0.0
 11
227.6704109589
 21
48.8754246575
 31
0.0
  0
LINE
  5
296
330
1F
100
AcDbEntity
  8
0
  6
Continuous
 62
     7
370
    25
100
AcDbLine
 10
227.6704109589
 20
48.8754246575
 30
0.0
 11
227.6704109589
 21
47.3754246575
 31
0.0
  0
LINE
  5
297
330
1F
100
AcDbEntity
  8
0
  6
Continuous
 62
     7
370
    25
100
AcDbLine
 10
227.4204109589
 20
61.3004246575
 30
0.0
 11
228.4204109589
 21
61.3004246575
 31
0.0
  0
LINE
  5
298
330
1F
100
AcDbEntity
  8
0
  6
Continuous
 62
     7
370
    25
100
AcDbLine
 10
228.4204109589
 20
62.4504246575
 30
0.0
 11
227.4204109589
 21
62.4504246575
 31
0.0
  0
ARC
  5
299
330
1F
100
AcDbEntity
  8
0
  6
Continuous
 62
     7
370
    25
100
AcDbCircle
 10
228.4204109589
 20
61.8754246575
 30
0.0
 40
0.5750000000000028
100
AcDbArc
 50
270.0
 51
90.0
  0
LINE
  5
29A
330
1F
100
AcDbEntity
  8
0
  6
Continuous
 62
     7
370
    25
100
AcDbLine
 10
229.8704109589
 20
60.6254246575
 30
0.0
 11
227.4204109589
 21
60.6254246575
 31
0.0
  0
LINE
  5
29B
330
1F
100
AcDbEntity
  8
0
  6
Continuous
 62
     7
370
    25
100
AcDbLine
 10
229.8704109589
 20
63.1254246575
 30
0.0
 11
229.8704109589
 21
60.6254246575
 31
0.0
  0
LINE
  5
29C
330
1F
100
AcDbEntity
  8
0
  6
Continuous
 62
     7
370
    25
100
AcDbLine
 10
227.4204109589
 20
63.1254246575
 30
0.0
 11
229.8704109589
 21
63.1254246575
 31
0.0
  0
LINE
  5
29D
330
1F
100
AcDbEntity
  8
0
  6
Continuous
 62
     7
370
    25
100
AcDbLine
 10
229.8704109589
 20
93.3754246575
 30
0.0
 11
227.4204109589
 21
93.3754246575
 31
0.0
  0
LINE
  5
29E
330
1F
100
AcDbEntity
  8
0
  6
Continuous
 62
     7
370
    25
100
AcDbLine
 10
227.4204109589
 20
94.0504246575
 30
0.0
 11
228.4204109589
 21
94.0504246575
 31
0.0
  0
ARC
  5
29F
330
1F
100
AcDbEntity
  8
0
  6
Continuous
 62
     7
370
    25
100
AcDbCircle
 10
228.4204109589
 20
94.6254246575
 30
0.0
 40
0.5750000000000028
100
AcDbArc
 50
270.0
 51
90.0
  0
LINE
  5
2A0
330
1F
100
AcDbEntity
  8
0
  6
Continuous
 62
     7
370
    25
100
AcDbLine
 10
228.4204109589
 20
95.2004246575
 30
0.0
 11
227.4204109589
 21
95.2004246575
 31
0.0
  0
LINE
  5
2A1
330
1F
100
AcDbEntity
  8
0
  6
Continuous
 62
     7
370
    25
100
AcDbLine
 10
227.4204109589
 20
95.8754246575
 30
0.0
 11
229.8704109589
 21
95.8754246575
 31
0.0
  0
LINE
  5
2A2
330
1F
100
AcDbEntity
  8
0
  6
Continuous
 62
     7
370
    25
100
AcDbLine
 10
229.8704109589
 20
95.8754246575
 30
0.0
 11
229.8704109589
 21
93.3754246575
 31
0.0
  0
LINE
  5
2A3
330
1F
100
AcDbEntity
  8
0
  6
Continuous
 62
     7
370
    25
100
AcDbLine
 10
229.8704109589
 20
128.6254246575
 30
0.0
 11
229.8704109589
 21
126.1254246575
 31
0.0
  0
LINE
  5
2A4
330
1F
100
AcDbEntity
  8
0
  6
Continuous
 62
     7
370
    25
100
AcDbLine
 10
229.8704109589
 20
126.1254246575
 30
0.0
 11
227.4204109589
 21
126.1254246575
 31
0.0
  0
LINE
  5
2A5
330
1F
100
AcDbEntity
  8
0
  6
Continuous
 62
     7
370
    25
100
AcDbLine
 10
227.4204109589
 20
128.6254246575
 30
0.0
 11
229.8704109589
 21
128.6254246575
 31
0.0
  0
LINE
  5
2A6
330
1F
100
AcDbEntity
  8
0
  6
Continuous
 62
     7
370
    25
100
AcDbLine
 10
227.4204109589
 20
126.8004246575
 30
0.0
 11
228.4204109589
 21
126.8004246575
 31
0.0
  0
ARC
  5
2A7
330
1F
100
AcDbEntity
  8
0
  6
Continuous
 62
     7
370
    25
100
AcDbCircle
 10
228.4204109589
 20
127.3754246575
 30
0.0
 40
0.575000000000017
100
AcDbArc
 50
270.0
 51
90.0
  0
LINE
  5
2A8
330
1F
100
AcDbEntity
  8
0
  6
Continuous
 62
     7
370
    25
100
AcDbLine
 10
228.4204109589
 20
127.9504246575
 30
0.0
 11
227.4204109589
 21
127.9504246575
 31
0.0
  0
LINE
  5
2A9
330
1F
100
AcDbEntity
  8
0
  6
Continuous
 62
     7
370
    25
100
AcDbLine
 10
223.6204109589
 20
47.3754246575
 30
0.0
 11
223.6204109589
 21
47.5254246575
 31
0.0
  0
LINE
  5
2AA
330
1F
100
AcDbEntity
  8
0
  6
Continuous
 62
     7
370
    25
100
AcDbLine
 10
223.6204109589
 20
141.7254246575
 30
0.0
 11
223.6204109589
 21
141.8754246575
 31
0.0
  0
LINE
  5
2AB
330
1F
100
AcDbEntity
  8
0
  6
Continuous
 62
     7
370
    25
100
AcDbLine
 10
219.9204109589
 20
47.3754246575
 30
0.0
 11
219.9204109589
 21
47.4254246575
 31
0.0
  0
LINE
  5
2AC
330
1F
100
AcDbEntity
  8
0
  6
Continuous
 62
     7
370
    25
100
AcDbLine
 10
219.9204109589
 20
74.5754246575
 30
0.0
 11
219.9204109589
 21
74.6004246575
 31
0.0
  0
LINE
  5
2AD
330
1F
100
AcDbEntity
  8
0
  6
Continuous
 62
     7
370
    25
100
AcDbLine
 10
219.9204109589
 20
94.6004246575
 30
0.0
 11
219.9204109589
 21
94.6504246575
 31
0.0
  0
LINE
  5
2AE
330
1F
100
AcDbEntity
  8
0
  6
Continuous
 62
     7
370
    25
100
AcDbLine
 10
219.9204109589
 20
114.6504246575
 30
0.0
 11
219.9204109589
 21
114.6754246575
 31
0.0
  0
LINE
  5
2AF
330
1F
100
AcDbEntity
  8
0
  6
Continuous
 62
     7
370
    25
100
AcDbLine
 10
219.9204109589
 20
141.8254246575
 30
0.0
 11
219.9204109589
 21
141.8754246575
 31
0.0
  0
LINE
  5
2B0
330
1F
100
AcDbEntity
  8
0
  6
PHANTOM
 62
     1
370
    18
100
AcDbLine
 10
223.4204109589
 20
141.7254246575
 30
0.0
 11
223.6204109589
 21
141.7254246575
 31
0.0
  0
LINE
  5
2B1
330
1F
100
AcDbEntity
  8
0
  6
PHANTOM
 62
     1
370
    18
100
AcDbLine
 10
223.4204109589
 20
47.5254246575
 30
0.0
 11
223.6204109589
 21
47.5254246575
 31
0.0
  0
LINE
  5
2B2
330
1F
100
AcDbEntity
  8
0
  6
PHANTOM
 62
     1
370
    18
100
AcDbLine
 10
227.1704109589
 20
140.3754246575
 30
0.0
 11
227.1704109589
 21
48.8754246575
 31
0.0
  0
LINE
  5
2B3
330
1F
100
AcDbEntity
  8
0
  6
PHANTOM
 62
     1
370
    18
100
AcDbLine
 10
223.6704109589
 20
141.6254246575
 30
0.0
 11
223.6704109589
 21
47.6254246575
 31
0.0
  0
LINE
  5
2B4
330
1F
100
AcDbEntity
  8
0
  6
PHANTOM
 62
     1
370
    18
100
AcDbLine
 10
223.2704109589
 20
141.8754246575
 30
0.0
 11
223.2704109589
 21
141.2347292722
 31
0.0
  0
LINE
  5
2B5
330
1F
100
AcDbEntity
  8
0
  6
PHANTOM
 62
     1
370
    18
100
AcDbLine
 10
223.2704109589
 20
115.2661200429
 30
0.0
 11
223.2704109589
 21
114.0597292722
 31
0.0
  0
LINE
  5
2B6
330
1F
100
AcDbEntity
  8
0
  6
PHANTOM
 62
     1
370
    18
100
AcDbLine
 10
223.2704109589
 20
95.2411200429
 30
0.0
 11
223.2704109589
 21
94.0097292722
 31
0.0
  0
LINE
  5
2B7
330
1F
100
AcDbEntity
  8
0
  6
PHANTOM
 62
     1
370
    18
100
AcDbLine
 10
223.2704109589
 20
75.1911200429
 30
0.0
 11
223.2704109589
 21
73.9847292722
 31
0.0
  0
LINE
  5
2B8
330
1F
100
AcDbEntity
  8
0
  6
PHANTOM
 62
     1
370
    18
100
AcDbLine
 10
223.2704109589
 20
48.0161200429
 30
0.0
 11
223.2704109589
 21
47.3754246575
 31
0.0
  0
HATCH
  5
2B9
330
1F
100
AcDbEntity
  8
O-TEKST
  6
Continuous
370
    18
100
AcDbHatch
 10
0.0
 20
0.0
 30
0.0
210
0.0
220
0.0
230
1.0
  2
ANSI34
 70
     0
 71
     0
 91
        1
 92
        0
 93
        6
 72
     1
 10
269.620410958904
 20
47.5254246575342
 11
269.620410958904
 21
49.0254246575342
 72
     1
 10
269.620410958904
 20
49.0254246575342
 11
252.120410958904
 21
49.0254246575342
 72
     1
 10
252.120410958904
 20
49.0254246575342
 11
252.120410958904
 21
51.8754246575342
 72
     1
 10
252.120410958904
 20
51.8754246575342
 11
233.620410958904
 21
51.8754246575342
 72
     1
 10
233.620410958904
 20
51.8754246575342
 11
233.620410958904
 21
47.5254246575342
 72
     1
 10
233.620410958904
 20
47.5254246575342
 11
269.620410958904
 21
47.5254246575342
 97
        0
 75
     0
 76
     1
 52
0.0
 41
1.0
 77
     0
 78
     4
 53
45.0
 43
0.0
 44
0.0
 45
-13.47038418160373
 46
13.47038418160373
 79
     0
 53
45.0
 43
4.49013
 44
0.0
 45
-13.47038418160373
 46
13.47038418160373
 79
     0
 53
45.0
 43
8.98026
 44
0.0
 45
-13.47038418160373
 46
13.47038418160373
 79
     0
 53
45.0
 43
13.4704
 44
0.0
 45
-13.47038418160373
 46
13.47038418160373
 79
     0
 98
        1
 10
0.0
 20
0.0
  0
HATCH
  5
2BA
330
1F
100
AcDbEntity
  8
O-TEKST
  6
Continuous
370
    18
100
AcDbHatch
 10
0.0
 20
0.0
 30
0.0
210
0.0
220
0.0
230
1.0
  2
ANSI34
 70
     0
 71
     0
 91
        1
 92
        0
 93
        6
 72
     1
 10
269.620410958904
 20
140.2254246575342
 11
269.620410958904
 21
141.7254246575342
 72
     1
 10
269.620410958904
 20
141.7254246575342
 11
233.620410958904
 21
141.7254246575342
 72
     1
 10
233.620410958904
 20
141.7254246575342
 11
233.620410958904
 21
137.3754246575342
 72
     1
 10
233.620410958904
 20
137.3754246575342
 11
252.120410958904
 21
137.3754246575342
 72
     1
 10
252.120410958904
 20
137.3754246575342
 11
252.120410958904
 21
140.2254246575342
 72
     1
 10
252.120410958904
 20
140.2254246575342
 11
269.620410958904
 21
140.2254246575342
 97
        0
 75
     0
 76
     1
 52
0.0
 41
1.0
 77
     0
 78
     4
 53
45.0
 43
0.0
 44
0.0
 45
-13.47038418160373
 46
13.47038418160373
 79
     0
 53
45.0
 43
4.49013
 44
0.0
 45
-13.47038418160373
 46
13.47038418160373
 79
     0
 53
45.0
 43
8.98026
 44
0.0
 45
-13.47038418160373
 46
13.47038418160373
 79
     0
 53
45.0
 43
13.4704
 44
0.0
 45
-13.47038418160373
 46
13.47038418160373
 79
     0
 98
        1
 10
0.0
 20
0.0
  0
HATCH
  5
2BB
330
1F
100
AcDbEntity
  8
O-TEKST
  6
Continuous
370
    18
100
AcDbHatch
 10
0.0
 20
0.0
 30
0.0
210
0.0
220
0.0
230
1.0
  2
ANSI34
 70
     0
 71
     0
 91
        1
 92
        0
 93
        4
 72
     1
 10
219.9204109589042
 20
47.3754246575342
 11
219.9204109589042
 21
47.17542465753419
 72
     1
 10
219.9204109589042
 20
47.17542465753419
 11
236.4204109589041
 21
47.17542465753419
 72
     1
 10
236.4204109589041
 20
47.17542465753419
 11
236.4204109589041
 21
47.3754246575342
 72
     1
 10
236.4204109589041
 20
47.3754246575342
 11
219.9204109589042
 21
47.3754246575342
 97
        0
 75
     0
 76
     1
 52
0.0
 41
1.0
 77
     0
 78
     4
 53
45.0
 43
0.0
 44
0.0
 45
-13.47038418160373
 46
13.47038418160373
 79
     0
 53
45.0
 43
4.49013
 44
0.0
 45
-13.47038418160373
 46
13.47038418160373
 79
     0
 53
45.0
 43
8.98026
 44
0.0
 45
-13.47038418160373
 46
13.47038418160373
 79
     0
 53
45.0
 43
13.4704
 44
0.0
 45
-13.47038418160373
 46
13.47038418160373
 79
     0
 98
        1
 10
0.0
 20
0.0
  0
HATCH
  5
2BC
330
1F
100
AcDbEntity
  8
O-TEKST
  6
Continuous
370
    18
100
AcDbHatch
 10
0.0
 20
0.0
 30
0.0
210
0.0
220
0.0
230
1.0
  2
ANSI34
 70
     0
 71
     0
 91
        1
 92
        0
 93
        4
 72
     1
 10
219.9204109589042
 20
142.0754246575342
 11
219.9204109589042
 21
141.8754246575342
 72
     1
 10
219.9204109589042
 20
141.8754246575342
 11
236.4204109589041
 21
141.8754246575342
 72
     1
 10
236.4204109589041
 20
141.8754246575342
 11
236.4204109589041
 21
142.0754246575342
 72
     1
 10
236.4204109589041
 20
142.0754246575342
 11
219.9204109589042
 21
142.0754246575342
 97
        0
 75
     0
 76
     1
 52
0.0
 41
1.0
 77
     0
 78
     4
 53
45.0
 43
0.0
 44
0.0
 45
-13.47038418160373
 46
13.47038418160373
 79
     0
 53
45.0
 43
4.49013
 44
0.0
 45
-13.47038418160373
 46
13.47038418160373
 79
     0
 53
45.0
 43
8.98026
 44
0.0
 45
-13.47038418160373
 46
13.47038418160373
 79
     0
 53
45.0
 43
13.4704
 44
0.0
 45
-13.47038418160373
 46
13.47038418160373
 79
     0
 98
        1
 10
0.0
 20
0.0
  0
HATCH
  5
2BD
330
1F
100
AcDbEntity
  8
O-TEKST
  6
Continuous
370
    18
100
AcDbHatch
 10
0.0
 20
0.0
 30
0.0
210
0.0
220
0.0
230
1.0
  2
ANSI34
 70
     0
 71
     0
 91
        1
 92
        0
 93
        4
 72
     1
 10
223.6204109589042
 20
47.6254246575343
 11
223.6204109589042
 21
141.6254246575342
 72
     1
 10
223.6204109589042
 20
141.6254246575342
 11
223.4204109589042
 21
141.6254246575342
 72
     1
 10
223.4204109589042
 20
141.6254246575342
 11
223.4204109589042
 21
47.6254246575343
 72
     1
 10
223.4204109589042
 20
47.6254246575343
 11
223.6204109589042
 21
47.6254246575343
 97
        0
 75
     0
 76
     1
 52
0.0
 41
1.0
 77
     0
 78
     4
 53
45.0
 43
0.0
 44
0.0
 45
-13.47038418160373
 46
13.47038418160373
 79
     0
 53
45.0
 43
4.49013
 44
0.0
 45
-13.47038418160373
 46
13.47038418160373
 79
     0
 53
45.0
 43
8.98026
 44
0.0
 45
-13.47038418160373
 46
13.47038418160373
 79
     0
 53
45.0
 43
13.4704
 44
0.0
 45
-13.47038418160373
 46
13.47038418160373
 79
     0
 98
        1
 10
0.0
 20
0.0
  0
HATCH
  5
2BE
330
1F
100
AcDbEntity
  8
O-TEKST
  6
Continuous
370
    18
100
AcDbHatch
 10
0.0
 20
0.0
 30
0.0
210
0.0
220
0.0
230
1.0
  2
ANSI34
 70
     0
 71
     0
 91
        1
 92
        0
 93
        4
 72
     1
 10
219.920410958904
 20
74.5754246575342
 11
219.920410958904
 21
47.42542465753421
 72
     1
 10
219.920410958904
 20
47.42542465753421
 11
220.7711032318464
 21
47.57542465753416
 72
     1
 10
220.7711032318464
 20
47.57542465753416
 11
220.7711032318464
 21
74.42542465753424
 72
     1
 10
220.7711032318464
 20
74.42542465753424
 11
219.920410958904
 21
74.5754246575342
 97
        0
 75
     0
 76
     1
 52
0.0
 41
1.0
 77
     0
 78
     4
 53
45.0
 43
0.0
 44
0.0
 45
-13.47038418160373
 46
13.47038418160373
 79
     0
 53
45.0
 43
4.49013
 44
0.0
 45
-13.47038418160373
 46
13.47038418160373
 79
     0
 53
45.0
 43
8.98026
 44
0.0
 45
-13.47038418160373
 46
13.47038418160373
 79
     0
 53
45.0
 43
13.4704
 44
0.0
 45
-13.47038418160373
 46
13.47038418160373
 79
     0
 98
        1
 10
0.0
 20
0.0
  0
HATCH
  5
2BF
330
1F
100
AcDbEntity
  8
O-TEKST
  6
Continuous
370
    18
100
AcDbHatch
 10
0.0
 20
0.0
 30
0.0
210
0.0
220
0.0
230
1.0
  2
ANSI34
 70
     0
 71
     0
 91
        1
 92
        0
 93
        4
 72
     1
 10
219.920410958904
 20
141.8254246575342
 11
219.920410958904
 21
114.6754246575342
 72
     1
 10
219.920410958904
 20
114.6754246575342
 11
220.7711032318463
 21
114.8254246575341
 72
     1
 10
220.7711032318463
 20
114.8254246575341
 11
220.7711032318464
 21
141.6754246575343
 72
     1
 10
220.7711032318464
 20
141.6754246575343
 11
219.920410958904
 21
141.8254246575342
 97
        0
 75
     0
 76
     1
 52
0.0
 41
1.0
 77
     0
 78
     4
 53
45.0
 43
0.0
 44
0.0
 45
-13.47038418160373
 46
13.47038418160373
 79
     0
 53
45.0
 43
4.49013
 44
0.0
 45
-13.47038418160373
 46
13.47038418160373
 79
     0
 53
45.0
 43
8.98026
 44
0.0
 45
-13.47038418160373
 46
13.47038418160373
 79
     0
 53
45.0
 43
13.4704
 44
0.0
 45
-13.47038418160373
 46
13.47038418160373
 79
     0
 98
        1
 10
0.0
 20
0.0
  0
HATCH
  5
2C0
330
1F
100
AcDbEntity
  8
O-TEKST
  6
Continuous
370
    18
100
AcDbHatch
 10
0.0
 20
0.0
 30
0.0
210
0.0
220
0.0
230
1.0
  2
ANSI34
 70
     0
 71
     0
 91
        1
 92
        0
 93
        4
 72
     1
 10
219.920410958904
 20
94.60042465753394
 11
219.920410958904
 21
74.60042465753394
 72
     1
 10
219.920410958904
 20
74.60042465753394
 11
220.7711032318477
 21
74.75042465753414
 72
     1
 10
220.7711032318477
 20
74.75042465753414
 11
220.7711032318474
 21
94.4504246575338
 72
     1
 10
220.7711032318474
 20
94.4504246575338
 11
219.920410958904
 21
94.60042465753394
 97
        0
 75
     0
 76
     1
 52
0.0
 41
1.0
 77
     0
 78
     4
 53
45.0
 43
0.0
 44
0.0
 45
-13.47038418160373
 46
13.47038418160373
 79
     0
 53
45.0
 43
4.49013
 44
0.0
 45
-13.47038418160373
 46
13.47038418160373
 79
     0
 53
45.0
 43
8.98026
 44
0.0
 45
-13.47038418160373
 46
13.47038418160373
 79
     0
 53
45.0
 43
13.4704
 44
0.0
 45
-13.47038418160373
 46
13.47038418160373
 79
     0
 98
        1
 10
0.0
 20
0.0
  0
HATCH
  5
2C1
330
1F
100
AcDbEntity
  8
O-TEKST
  6
Continuous
370
    18
100
AcDbHatch
 10
0.0
 20
0.0
 30
0.0
210
0.0
220
0.0
230
1.0
  2
ANSI34
 70
     0
 71
     0
 91
        1
 92
        0
 93
        4
 72
     1
 10
219.920410958904
 20
114.6504246575345
 11
219.920410958904
 21
94.65042465753449
 72
     1
 10
219.920410958904
 20
94.65042465753449
 11
220.7711032318473
 21
94.8004246575346
 72
     1
 10
220.7711032318473
 20
94.8004246575346
 11
220.7711032318477
 21
114.5004246575343
 72
     1
 10
220.7711032318477
 20
114.5004246575343
 11
219.920410958904
 21
114.6504246575345
 97
        0
 75
     0
 76
     1
 52
0.0
 41
1.0
 77
     0
 78
     4
 53
45.0
 43
0.0
 44
0.0
 45
-13.47038418160373
 46
13.47038418160373
 79
     0
 53
45.0
 43
4.49013
 44
0.0
 45
-13.47038418160373
 46
13.47038418160373
 79
     0
 53
45.0
 43
8.98026
 44
0.0
 45
-13.47038418160373
 46
13.47038418160373
 79
     0
 53
45.0
 43
13.4704
 44
0.0
 45
-13.47038418160373
 46
13.47038418160373
 79
     0
 98
        1
 10
0.0
 20
0.0
  0
INSERT
  5
2C7
330
1F
100
AcDbEntity
  8
O-TEKST
100
AcDbBlockReference
  2
SW_NOTE_1
 10
224.0084330777
 20
26.2995216239
 30
0.0
  0
LINE
  5
2C8
330
1F
100
AcDbEntity
  8
0
  6
Continuous
 62
     7
370
    25
100
AcDbLine
 10
390.9340410959
 20
109.6004246575
 30
0.0
 11
390.0840410959
 21
109.6004246575
 31
0.0
  0
ARC
  5
2C9
330
1F
100
AcDbEntity
  8
0
  6
Continuous
 62
     7
370
    25
100
AcDbCircle
 10
390.9340410959
 20
109.1504246575
 30
0.0
 40
0.4500000000000455
100
AcDbArc
 50
0.0
 51
90.0
  0
LINE
  5
2CA
330
1F
100
AcDbEntity
  8
0
  6
Continuous
 62
     7
370
    25
100
AcDbLine
 10
391.3840410959
 20
109.0504246575
 30
0.0
 11
391.3840410959
 21
109.1504246575
 31
0.0
  0
ARC
  5
2CB
330
1F
100
AcDbEntity
  8
0
  6
Continuous
 62
     7
370
    25
100
AcDbCircle
 10
390.9340410959
 20
109.0504246575
 30
0.0
 40
0.3500000000000227
100
AcDbArc
 50
270.0
 51
360.0
  0
LINE
  5
2CC
330
1F
100
AcDbEntity
  8
0
  6
Continuous
 62
     7
370
    25
100
AcDbLine
 10
391.2840410959
 20
109.0504246575
 30
0.0
 11
391.2840410959
 21
109.1504246575
 31
0.0
  0
LINE
  5
2CD
330
1F
100
AcDbEntity
  8
0
  6
Continuous
 62
     7
370
    25
100
AcDbLine
 10
390.0840410959
 20
108.6004246575
 30
0.0
 11
390.9340410959
 21
108.6004246575
 31
0.0
  0
ARC
  5
2CE
330
1F
100
AcDbEntity
  8
0
  6
Continuous
 62
     7
370
    25
100
AcDbCircle
 10
390.0840410959
 20
109.1504246575
 30
0.0
 40
0.4500000000000171
100
AcDbArc
 50
90.0
 51
180.0
  0
LINE
  5
2CF
330
1F
100
AcDbEntity
  8
0
  6
Continuous
 62
     7
370
    25
100
AcDbLine
 10
389.6340410959
 20
109.1504246575
 30
0.0
 11
389.6340410959
 21
109.0504246575
 31
0.0
  0
LINE
  5
2D0
330
1F
100
AcDbEntity
  8
0
  6
Continuous
 62
     7
370
    25
100
AcDbLine
 10
390.0840410959
 20
108.7004246575
 30
0.0
 11
390.9340410959
 21
108.7004246575
 31
0.0
  0
ARC
  5
2D1
330
1F
100
AcDbEntity
  8
0
  6
Continuous
 62
     7
370
    25
100
AcDbCircle
 10
390.9340410959
 20
109.1504246575
 30
0.0
 40
0.3500000000000227
100
AcDbArc
 50
360.0
 51
90.0
  0
ARC
  5
2D2
330
1F
100
AcDbEntity
  8
0
  6
Continuous
 62
     7
370
    25
100
AcDbCircle
 10
390.0840410959
 20
109.0504246575
 30
0.0
 40
0.3499999999999943
100
AcDbArc
 50
180.0
 51
270.0
  0
LINE
  5
2D3
330
1F
100
AcDbEntity
  8
0
  6
Continuous
 62
     7
370
    25
100
AcDbLine
 10
389.7340410959
 20
109.1504246575
 30
0.0
 11
389.7340410959
 21
109.0504246575
 31
0.0
  0
ARC
  5
2D4
330
1F
100
AcDbEntity
  8
0
  6
Continuous
 62
     7
370
    25
100
AcDbCircle
 10
390.0840410959
 20
109.1504246575
 30
0.0
 40
0.3500000000000085
100
AcDbArc
 50
90.0
 51
180.0
  0
ARC
  5
2D5
330
1F
100
AcDbEntity
  8
0
  6
Continuous
 62
     7
370
    25
100
AcDbCircle
 10
390.9340410959
 20
109.0504246575
 30
0.0
 40
0.4500000000000455
100
AcDbArc
 50
270.0
 51
0.0
  0
ARC
  5
2D6
330
1F
100
AcDbEntity
  8
0
  6
Continuous
 62
     7
370
    25
100
AcDbCircle
 10
390.0840410959
 20
109.0504246575
 30
0.0
 40
0.4499999999999886
100
AcDbArc
 50
180.0
 51
270.0
  0
LINE
  5
2D7
330
1F
100
AcDbEntity
  8
0
  6
Continuous
 62
     7
370
    25
100
AcDbLine
 10
390.9340410959
 20
109.5004246575
 30
0.0
 11
390.0840410959
 21
109.5004246575
 31
0.0
  0
ARC
  5
2D8
330
1F
100
AcDbEntity
  8
0
  6
Continuous
 62
     7
370
    25
100
AcDbCircle
 10
390.9340410959
 20
80.2004246575
 30
0.0
 40
0.3500000000000227
100
AcDbArc
 50
0.0
 51
90.0
  0
LINE
  5
2D9
330
1F
100
AcDbEntity
  8
0
  6
Continuous
 62
     7
370
    25
100
AcDbLine
 10
390.9340410959
 20
80.5504246575
 30
0.0
 11
390.0840410959
 21
80.5504246575
 31
0.0
  0
ARC
  5
2DA
330
1F
100
AcDbEntity
  8
0
  6
Continuous
 62
     7
370
    25
100
AcDbCircle
 10
390.0840410959
 20
80.2004246575
 30
0.0
 40
0.3499999999999943
100
AcDbArc
 50
90.0
 51
180.0
  0
LINE
  5
2DB
330
1F
100
AcDbEntity
  8
0
  6
Continuous
 62
     7
370
    25
100
AcDbLine
 10
389.7340410959
 20
80.2004246575
 30
0.0
 11
389.7340410959
 21
80.1004246575
 31
0.0
  0
LINE
  5
2DC
330
1F
100
AcDbEntity
  8
0
  6
Continuous
 62
     7
370
    25
100
AcDbLine
 10
391.2840410959
 20
80.1004246575
 30
0.0
 11
391.2840410959
 21
80.2004246575
 31
0.0
  0
LINE
  5
2DD
330
1F
100
AcDbEntity
  8
0
  6
Continuous
 62
     7
370
    25
100
AcDbLine
 10
389.6340410959
 20
80.2004246575
 30
0.0
 11
389.6340410959
 21
80.1004246575
 31
0.0
  0
ARC
  5
2DE
330
1F
100
AcDbEntity
  8
0
  6
Continuous
 62
     7
370
    25
100
AcDbCircle
 10
390.0840410959
 20
80.2004246575
 30
0.0
 40
0.4500000000000028
100
AcDbArc
 50
90.0
 51
180.0
  0
ARC
  5
2DF
330
1F
100
AcDbEntity
  8
0
  6
Continuous
 62
     7
370
    25
100
AcDbCircle
 10
390.0840410959
 20
80.1004246575
 30
0.0
 40
0.3500000000000085
100
AcDbArc
 50
180.0
 51
270.0
  0
LINE
  5
2E0
330
1F
100
AcDbEntity
  8
0
  6
Continuous
 62
     7
370
    25
100
AcDbLine
 10
390.0840410959
 20
79.7504246575
 30
0.0
 11
390.9340410959
 21
79.7504246575
 31
0.0
  0
ARC
  5
2E1
330
1F
100
AcDbEntity
  8
0
  6
Continuous
 62
     7
370
    25
100
AcDbCircle
 10
390.9340410959
 20
80.1004246575
 30
0.0
 40
0.3500000000000227
100
AcDbArc
 50
270.0
 51
0.0
  0
LINE
  5
2E2
330
1F
100
AcDbEntity
  8
0
  6
Continuous
 62
     7
370
    25
100
AcDbLine
 10
390.9340410959
 20
80.6504246575
 30
0.0
 11
390.0840410959
 21
80.6504246575
 31
0.0
  0
ARC
  5
2E3
330
1F
100
AcDbEntity
  8
0
  6
Continuous
 62
     7
370
    25
100
AcDbCircle
 10
390.0840410959
 20
80.1004246575
 30
0.0
 40
0.4499999999999886
100
AcDbArc
 50
180.0
 51
270.0
  0
ARC
  5
2E4
330
1F
100
AcDbEntity
  8
0
  6
Continuous
 62
     7
370
    25
100
AcDbCircle
 10
390.9340410959
 20
80.1004246575
 30
0.0
 40
0.4500000000000455
100
AcDbArc
 50
270.0
 51
0.0
  0
LINE
  5
2E5
330
1F
100
AcDbEntity
  8
0
  6
Continuous
 62
     7
370
    25
100
AcDbLine
 10
391.3840410959
 20
80.1004246575
 30
0.0
 11
391.3840410959
 21
80.2004246575
 31
0.0
  0
ARC
  5
2E6
330
1F
100
AcDbEntity
  8
0
  6
Continuous
 62
     7
370
    25
100
AcDbCircle
 10
390.9340410959
 20
80.2004246575
 30
0.0
 40
0.4500000000000455
100
AcDbArc
 50
0.0
 51
90.0
  0
LINE
  5
2E7
330
1F
100
AcDbEntity
  8
0
  6
Continuous
 62
     7
370
    25
100
AcDbLine
 10
390.0840410959
 20
79.6504246575
 30
0.0
 11
390.9340410959
 21
79.6504246575
 31
0.0
  0
ARC
  5
2E8
330
1F
100
AcDbEntity
  8
0
  6
Continuous
 62
     7
370
    25
100
AcDbCircle
 10
390.9340410959
 20
100.2504246575
 30
0.0
 40
0.3500000000000227
100
AcDbArc
 50
0.0
 51
90.0
  0
LINE
  5
2E9
330
1F
100
AcDbEntity
  8
0
  6
Continuous
 62
     7
370
    25
100
AcDbLine
 10
390.9340410959
 20
100.6004246575
 30
0.0
 11
390.0840410959
 21
100.6004246575
 31
0.0
  0
ARC
  5
2EA
330
1F
100
AcDbEntity
  8
0
  6
Continuous
 62
     7
370
    25
100
AcDbCircle
 10
390.0840410959
 20
100.2504246575
 30
0.0
 40
0.3499999999999943
100
AcDbArc
 50
90.0
 51
180.0
  0
LINE
  5
2EB
330
1F
100
AcDbEntity
  8
0
  6
Continuous
 62
     7
370
    25
100
AcDbLine
 10
389.7340410959
 20
100.2504246575
 30
0.0
 11
389.7340410959
 21
100.1504246575
 31
0.0
  0
ARC
  5
2EC
330
1F
100
AcDbEntity
  8
0
  6
Continuous
 62
     7
370
    25
100
AcDbCircle
 10
390.0840410959
 20
100.1504246575
 30
0.0
 40
0.3500000000000085
100
AcDbArc
 50
180.0
 51
270.0
  0
LINE
  5
2ED
330
1F
100
AcDbEntity
  8
0
  6
Continuous
 62
     7
370
    25
100
AcDbLine
 10
390.9340410959
 20
100.7004246575
 30
0.0
 11
390.0840410959
 21
100.7004246575
 31
0.0
  0
ARC
  5
2EE
330
1F
100
AcDbEntity
  8
0
  6
Continuous
 62
     7
370
    25
100
AcDbCircle
 10
390.9340410959
 20
100.2504246575
 30
0.0
 40
0.4500000000000455
100
AcDbArc
 50
0.0
 51
90.0
  0
ARC
  5
2EF
330
1F
100
AcDbEntity
  8
0
  6
Continuous
 62
     7
370
    25
100
AcDbCircle
 10
390.0840410959
 20
100.1504246575
 30
0.0
 40
0.4500000000000028
100
AcDbArc
 50
180.0
 51
270.0
  0
LINE
  5
2F0
330
1F
100
AcDbEntity
  8
0
  6
Continuous
 62
     7
370
    25
100
AcDbLine
 10
389.6340410959
 20
100.2504246575
 30
0.0
 11
389.6340410959
 21
100.1504246575
 31
0.0
  0
ARC
  5
2F1
330
1F
100
AcDbEntity
  8
0
  6
Continuous
 62
     7
370
    25
100
AcDbCircle
 10
390.0840410959
 20
100.2504246575
 30
0.0
 40
0.4500000000000028
100
AcDbArc
 50
90.0
 51
180.0
  0
LINE
  5
2F2
330
1F
100
AcDbEntity
  8
0
  6
Continuous
 62
     7
370
    25
100
AcDbLine
 10
390.0840410959
 20
99.8004246575
 30
0.0
 11
390.9340410959
 21
99.8004246575
 31
0.0
  0
ARC
  5
2F3
330
1F
100
AcDbEntity
  8
0
  6
Continuous
 62
     7
370
    25
100
AcDbCircle
 10
390.9340410959
 20
100.1504246575
 30
0.0
 40
0.4500000000000455
100
AcDbArc
 50
270.0
 51
0.0
  0
LINE
  5
2F4
330
1F
100
AcDbEntity
  8
0
  6
Continuous
 62
     7
370
    25
100
AcDbLine
 10
390.0840410959
 20
99.7004246575
 30
0.0
 11
390.9340410959
 21
99.7004246575
 31
0.0
  0
LINE
  5
2F5
330
1F
100
AcDbEntity
  8
0
  6
Continuous
 62
     7
370
    25
100
AcDbLine
 10
391.2840410959
 20
100.1504246575
 30
0.0
 11
391.2840410959
 21
100.2504246575
 31
0.0
  0
ARC
  5
2F6
330
1F
100
AcDbEntity
  8
0
  6
Continuous
 62
     7
370
    25
100
AcDbCircle
 10
390.9340410959
 20
100.1504246575
 30
0.0
 40
0.3500000000000227
100
AcDbArc
 50
270.0
 51
0.0
  0
LINE
  5
2F7
330
1F
100
AcDbEntity
  8
0
  6
Continuous
 62
     7
370
    25
100
AcDbLine
 10
391.3840410959
 20
100.1504246575
 30
0.0
 11
391.3840410959
 21
100.2504246575
 31
0.0
  0
ARC
  5
2F8
330
1F
100
AcDbEntity
  8
0
  6
Continuous
 62
     7
370
    25
100
AcDbCircle
 10
390.0840410959
 20
89.0004246575
 30
0.0
 40
0.3500000000000085
100
AcDbArc
 50
180.0
 51
270.0
  0
LINE
  5
2F9
330
1F
100
AcDbEntity
  8
0
  6
Continuous
 62
     7
370
    25
100
AcDbLine
 10
390.0840410959
 20
88.6504246575
 30
0.0
 11
390.9340410959
 21
88.6504246575
 31
0.0
  0
ARC
  5
2FA
330
1F
100
AcDbEntity
  8
0
  6
Continuous
 62
     7
370
    25
100
AcDbCircle
 10
390.9340410959
 20
89.0004246575
 30
0.0
 40
0.3500000000000227
100
AcDbArc
 50
270.0
 51
360.0
  0
LINE
  5
2FB
330
1F
100
AcDbEntity
  8
0
  6
Continuous
 62
     7
370
    25
100
AcDbLine
 10
391.2840410959
 20
89.0004246575
 30
0.0
 11
391.2840410959
 21
89.1004246575
 31
0.0
  0
ARC
  5
2FC
330
1F
100
AcDbEntity
  8
0
  6
Continuous
 62
     7
370
    25
100
AcDbCircle
 10
390.9340410959
 20
89.1004246575
 30
0.0
 40
0.3500000000000227
100
AcDbArc
 50
360.0
 51
90.0
  0
LINE
  5
2FD
330
1F
100
AcDbEntity
  8
0
  6
Continuous
 62
     7
370
    25
100
AcDbLine
 10
390.9340410959
 20
89.4504246575
 30
0.0
 11
390.0840410959
 21
89.4504246575
 31
0.0
  0
ARC
  5
2FE
330
1F
100
AcDbEntity
  8
0
  6
Continuous
 62
     7
370
    25
100
AcDbCircle
 10
390.0840410959
 20
89.1004246575
 30
0.0
 40
0.3499999999999943
100
AcDbArc
 50
90.0
 51
180.0
  0
LINE
  5
2FF
330
1F
100
AcDbEntity
  8
0
  6
Continuous
 62
     7
370
    25
100
AcDbLine
 10
389.7340410959
 20
89.1004246575
 30
0.0
 11
389.7340410959
 21
89.0004246575
 31
0.0
  0
LINE
  5
300
330
1F
100
AcDbEntity
  8
0
  6
Continuous
 62
     7
370
    25
100
AcDbLine
 10
390.0840410959
 20
88.5504246575
 30
0.0
 11
390.9340410959
 21
88.5504246575
 31
0.0
  0
ARC
  5
301
330
1F
100
AcDbEntity
  8
0
  6
Continuous
 62
     7
370
    25
100
AcDbCircle
 10
390.0840410959
 20
89.0004246575
 30
0.0
 40
0.4500000000000028
100
AcDbArc
 50
180.0
 51
270.0
  0
LINE
  5
302
330
1F
100
AcDbEntity
  8
0
  6
Continuous
 62
     7
370
    25
100
AcDbLine
 10
389.6340410959
 20
89.1004246575
 30
0.0
 11
389.6340410959
 21
89.0004246575
 31
0.0
  0
ARC
  5
303
330
1F
100
AcDbEntity
  8
0
  6
Continuous
 62
     7
370
    25
100
AcDbCircle
 10
390.0840410959
 20
89.1004246575
 30
0.0
 40
0.4500000000000028
100
AcDbArc
 50
90.0
 51
180.0
  0
LINE
  5
304
330
1F
100
AcDbEntity
  8
0
  6
Continuous
 62
     7
370
    25
100
AcDbLine
 10
390.9340410959
 20
89.5504246575
 30
0.0
 11
390.0840410959
 21
89.5504246575
 31
0.0
  0
ARC
  5
305
330
1F
100
AcDbEntity
  8
0
  6
Continuous
 62
     7
370
    25
100
AcDbCircle
 10
390.9340410959
 20
89.1004246575
 30
0.0
 40
0.4500000000000455
100
AcDbArc
 50
0.0
 51
90.0
  0
LINE
  5
306
330
1F
100
AcDbEntity
  8
0
  6
Continuous
 62
     7
370
    25
100
AcDbLine
 10
391.3840410959
 20
89.0004246575
 30
0.0
 11
391.3840410959
 21
89.1004246575
 31
0.0
  0
ARC
  5
307
330
1F
100
AcDbEntity
  8
0
  6
Continuous
 62
     7
370
    25
100
AcDbCircle
 10
390.9340410959
 20
89.0004246575
 30
0.0
 40
0.4500000000000455
100
AcDbArc
 50
270.0
 51
0.0
  0
LINE
  5
308
330
1F
100
AcDbEntity
  8
0
  6
Continuous
 62
     7
370
    25
100
AcDbLine
 10
374.5090410959
 20
114.5004246575
 30
0.0
 11
406.5090410959
 21
114.5004246575
 31
0.0
  0
LINE
  5
309
330
1F
100
AcDbEntity
  8
0
  6
Continuous
 62
     7
370
    25
100
AcDbLine
 10
406.5090410959
 20
114.5004246575
 30
0.0
 11
406.5090410959
 21
94.8004246575
 31
0.0
  0
LINE
  5
30A
330
1F
100
AcDbEntity
  8
0
  6
Continuous
 62
     7
370
    25
100
AcDbLine
 10
406.5090410959
 20
94.8004246575
 30
0.0
 11
374.5090410959
 21
94.8004246575
 31
0.0
  0
LINE
  5
30B
330
1F
100
AcDbEntity
  8
0
  6
Continuous
 62
     7
370
    25
100
AcDbLine
 10
374.5090410959
 20
94.8004246575
 30
0.0
 11
374.5090410959
 21
114.5004246575
 31
0.0
  0
LINE
  5
30C
330
1F
100
AcDbEntity
  8
0
  6
Continuous
 62
     7
370
    25
100
AcDbLine
 10
406.5090410959
 20
94.4504246575
 30
0.0
 11
406.5090410959
 21
74.7504246575
 31
0.0
  0
LINE
  5
30D
330
1F
100
AcDbEntity
  8
0
  6
Continuous
 62
     7
370
    25
100
AcDbLine
 10
406.5090410959
 20
74.7504246575
 30
0.0
 11
374.5090410959
 21
74.7504246575
 31
0.0
  0
LINE
  5
30E
330
1F
100
AcDbEntity
  8
0
  6
Continuous
 62
     7
370
    25
100
AcDbLine
 10
374.5090410959
 20
74.7504246575
 30
0.0
 11
374.5090410959
 21
94.4504246575
 31
0.0
  0
LINE
  5
30F
330
1F
100
AcDbEntity
  8
0
  6
Continuous
 62
     7
370
    25
100
AcDbLine
 10
374.5090410959
 20
94.4504246575
 30
0.0
 11
406.5090410959
 21
94.4504246575
 31
0.0
  0
LINE
  5
310
330
1F
100
AcDbEntity
  8
0
  6
Continuous
 62
     7
370
    25
100
AcDbLine
 10
406.5067271041
 20
114.4981106658
 30
0.0
 11
406.5067271041
 21
94.8027386493
 31
0.0
  0
LINE
  5
311
330
1F
100
AcDbEntity
  8
0
  6
Continuous
 62
     7
370
    25
100
AcDbLine
 10
406.5067271041
 20
94.8027386493
 30
0.0
 11
374.5113550877
 21
94.8027386493
 31
0.0
  0
LINE
  5
312
330
1F
100
AcDbEntity
  8
0
  6
Continuous
 62
     7
370
    25
100
AcDbLine
 10
374.5113550877
 20
114.4981106658
 30
0.0
 11
406.5067271041
 21
114.4981106658
 31
0.0
  0
LINE
  5
313
330
1F
100
AcDbEntity
  8
0
  6
Continuous
 62
     7
370
    25
100
AcDbLine
 10
374.5113550877
 20
94.8027386493
 30
0.0
 11
374.5113550877
 21
114.4981106658
 31
0.0
  0
LINE
  5
314
330
1F
100
AcDbEntity
  8
0
  6
Continuous
 62
     7
370
    25
100
AcDbLine
 10
406.6590410959
 20
94.6504246575
 30
0.0
 11
374.3590410959
 21
94.6504246575
 31
0.0
  0
LINE
  5
315
330
1F
100
AcDbEntity
  8
0
  6
Continuous
 62
     7
370
    25
100
AcDbLine
 10
374.3590410959
 20
94.6504246575
 30
0.0
 11
374.3590410959
 21
114.6504246575
 31
0.0
  0
LINE
  5
316
330
1F
100
AcDbEntity
  8
0
  6
Continuous
 62
     7
370
    25
100
AcDbLine
 10
374.3590410959
 20
114.6504246575
 30
0.0
 11
406.6590410959
 21
114.6504246575
 31
0.0
  0
LINE
  5
317
330
1F
100
AcDbEntity
  8
0
  6
Continuous
 62
     7
370
    25
100
AcDbLine
 10
406.6590410959
 20
114.6504246575
 30
0.0
 11
406.6590410959
 21
94.6504246575
 31
0.0
  0
LINE
  5
318
330
1F
100
AcDbEntity
  8
0
  6
Continuous
 62
     7
370
    25
100
AcDbLine
 10
406.5067271041
 20
74.7527386493
 30
0.0
 11
374.5113550877
 21
74.7527386493
 31
0.0
  0
LINE
  5
319
330
1F
100
AcDbEntity
  8
0
  6
Continuous
 62
     7
370
    25
100
AcDbLine
 10
406.5067271041
 20
94.4481106658
 30
0.0
 11
406.5067271041
 21
74.7527386493
 31
0.0
  0
LINE
  5
31A
330
1F
100
AcDbEntity
  8
0
  6
Continuous
 62
     7
370
    25
100
AcDbLine
 10
374.5113550877
 20
94.4481106658
 30
0.0
 11
406.5067271041
 21
94.4481106658
 31
0.0
  0
LINE
  5
31B
330
1F
100
AcDbEntity
  8
0
  6
Continuous
 62
     7
370
    25
100
AcDbLine
 10
374.5113550877
 20
74.7527386493
 30
0.0
 11
374.5113550877
 21
94.4481106658
 31
0.0
  0
LINE
  5
31C
330
1F
100
AcDbEntity
  8
0
  6
Continuous
 62
     7
370
    25
100
AcDbLine
 10
406.6590410959
 20
94.6004246575
 30
0.0
 11
406.6590410959
 21
74.6004246575
 31
0.0
  0
LINE
  5
31D
330
1F
100
AcDbEntity
  8
0
  6
Continuous
 62
     7
370
    25
100
AcDbLine
 10
406.6590410959
 20
74.6004246575
 30
0.0
 11
374.3590410959
 21
74.6004246575
 31
0.0
  0
LINE
  5
31E
330
1F
100
AcDbEntity
  8
0
  6
Continuous
 62
     7
370
    25
100
AcDbLine
 10
374.3590410959
 20
74.6004246575
 30
0.0
 11
374.3590410959
 21
94.6004246575
 31
0.0
  0
LINE
  5
31F
330
1F
100
AcDbEntity
  8
0
  6
Continuous
 62
     7
370
    25
100
AcDbLine
 10
374.3590410959
 20
94.6004246575
 30
0.0
 11
406.6590410959
 21
94.6004246575
 31
0.0
  0
LINE
  5
320
330
1F
100
AcDbEntity
  8
0
  6
Continuous
 62
     7
370
    25
100
AcDbLine
 10
418.4392502005
 20
136.4754246575
 30
0.0
 11
418.4392502005
 21
136.2754246575
 31
0.0
  0
LINE
  5
321
330
1F
100
AcDbEntity
  8
0
  6
Continuous
 62
     7
370
    25
100
AcDbLine
 10
420.4392502005
 20
136.4754246575
 30
0.0
 11
420.4392502005
 21
136.2754246575
 31
0.0
  0
LINE
  5
322
330
1F
100
AcDbEntity
  8
0
  6
Continuous
 62
     7
370
    25
100
AcDbLine
 10
418.4392502005
 20
136.2754246575
 30
0.0
 11
420.4392502005
 21
136.2754246575
 31
0.0
  0
LINE
  5
323
330
1F
100
AcDbEntity
  8
0
  6
Continuous
 62
     7
370
    25
100
AcDbLine
 10
418.4392502005
 20
136.4754246575
 30
0.0
 11
420.4392502005
 21
136.4754246575
 31
0.0
  0
LINE
  5
324
330
1F
100
AcDbEntity
  8
0
  6
Continuous
 62
     7
370
    25
100
AcDbLine
 10
418.4392502005
 20
136.5257700817
 30
0.0
 11
418.4392502005
 21
136.4754246575
 31
0.0
  0
LINE
  5
325
330
1F
100
AcDbEntity
  8
0
  6
Continuous
 62
     7
370
    25
100
AcDbLine
 10
420.4392502005
 20
136.5257700817
 30
0.0
 11
420.4392502005
 21
136.4754246575
 31
0.0
  0
LINE
  5
326
330
1F
100
AcDbEntity
  8
0
  6
Continuous
 62
     7
370
    25
100
AcDbLine
 10
420.4392502005
 20
137.2579520011
 30
0.0
 11
420.4392502005
 21
136.5257700817
 31
0.0
  0
LINE
  5
327
330
1F
100
AcDbEntity
  8
0
  6
Continuous
 62
     7
370
    25
100
AcDbLine
 10
418.4392502005
 20
137.2579520011
 30
0.0
 11
418.4392502005
 21
136.5257700817
 31
0.0
  0
LINE
  5
328
330
1F
100
AcDbEntity
  8
0
  6
Continuous
 62
     7
370
    25
100
AcDbLine
 10
418.4392502005
 20
137.3754246575
 30
0.0
 11
418.4392502005
 21
137.2579520011
 31
0.0
  0
LINE
  5
329
330
1F
100
AcDbEntity
  8
0
  6
Continuous
 62
     7
370
    25
100
AcDbLine
 10
420.4392502005
 20
137.3754246575
 30
0.0
 11
420.4392502005
 21
137.2579520011
 31
0.0
  0
LINE
  5
32A
330
1F
100
AcDbEntity
  8
0
  6
Continuous
 62
     7
370
    25
100
AcDbLine
 10
420.4392502005
 20
52.9754246575
 30
0.0
 11
418.4392502005
 21
52.9754246575
 31
0.0
  0
LINE
  5
32B
330
1F
100
AcDbEntity
  8
0
  6
Continuous
 62
     7
370
    25
100
AcDbLine
 10
420.4392502005
 20
52.7754246575
 30
0.0
 11
420.4392502005
 21
52.9754246575
 31
0.0
  0
LINE
  5
32C
330
1F
100
AcDbEntity
  8
0
  6
Continuous
 62
     7
370
    25
100
AcDbLine
 10
420.4392502005
 20
52.7754246575
 30
0.0
 11
418.4392502005
 21
52.7754246575
 31
0.0
  0
LINE
  5
32D
330
1F
100
AcDbEntity
  8
0
  6
Continuous
 62
     7
370
    25
100
AcDbLine
 10
418.4392502005
 20
52.7754246575
 30
0.0
 11
418.4392502005
 21
52.9754246575
 31
0.0
  0
LINE
  5
32E
330
1F
100
AcDbEntity
  8
0
  6
Continuous
 62
     7
370
    25
100
AcDbLine
 10
420.4392502005
 20
52.7250792334
 30
0.0
 11
420.4392502005
 21
52.7754246575
 31
0.0
  0
LINE
  5
32F
330
1F
100
AcDbEntity
  8
0
  6
Continuous
 62
     7
370
    25
100
AcDbLine
 10
418.4392502005
 20
52.7250792334
 30
0.0
 11
418.4392502005
 21
52.7754246575
 31
0.0
  0
LINE
  5
330
330
1F
100
AcDbEntity
  8
0
  6
Continuous
 62
     7
370
    25
100
AcDbLine
 10
418.4392502005
 20
51.9928973139
 30
0.0
 11
418.4392502005
 21
52.7250792334
 31
0.0
  0
LINE
  5
331
330
1F
100
AcDbEntity
  8
0
  6
Continuous
 62
     7
370
    25
100
AcDbLine
 10
420.4392502005
 20
51.9928973139
 30
0.0
 11
420.4392502005
 21
52.7250792334
 31
0.0
  0
LINE
  5
332
330
1F
100
AcDbEntity
  8
0
  6
Continuous
 62
     7
370
    25
100
AcDbLine
 10
420.4392502005
 20
51.8754246575
 30
0.0
 11
420.4392502005
 21
51.9928973139
 31
0.0
  0
LINE
  5
333
330
1F
100
AcDbEntity
  8
0
  6
Continuous
 62
     7
370
    25
100
AcDbLine
 10
418.4392502005
 20
51.8754246575
 30
0.0
 11
418.4392502005
 21
51.9928973139
 31
0.0
  0
ARC
  5
334
330
1F
100
AcDbEntity
  8
0
  6
Continuous
 62
     7
370
    25
100
AcDbCircle
 10
390.0840410959
 20
120.2504246575
 30
0.0
 40
0.3500000000000227
100
AcDbArc
 50
90.0
 51
180.0
  0
ARC
  5
335
330
1F
100
AcDbEntity
  8
0
  6
Continuous
 62
     7
370
    25
100
AcDbCircle
 10
390.9340410959
 20
120.1504246575
 30
0.0
 40
0.3499999999999943
100
AcDbArc
 50
270.0
 51
0.0
  0
LINE
  5
336
330
1F
100
AcDbEntity
  8
0
  6
Continuous
 62
     7
370
    25
100
AcDbLine
 10
391.3840410959
 20
120.1504246575
 30
0.0
 11
391.3840410959
 21
120.2504246575
 31
0.0
  0
ARC
  5
337
330
1F
100
AcDbEntity
  8
0
  6
Continuous
 62
     7
370
    25
100
AcDbCircle
 10
390.9340410959
 20
120.1504246575
 30
0.0
 40
0.4500000000000455
100
AcDbArc
 50
270.0
 51
0.0
  0
LINE
  5
338
330
1F
100
AcDbEntity
  8
0
  6
Continuous
 62
     7
370
    25
100
AcDbLine
 10
390.0840410959
 20
119.7004246575
 30
0.0
 11
390.9340410959
 21
119.7004246575
 31
0.0
  0
ARC
  5
339
330
1F
100
AcDbEntity
  8
0
  6
Continuous
 62
     7
370
    25
100
AcDbCircle
 10
390.0840410959
 20
120.1504246575
 30
0.0
 40
0.4500000000000455
100
AcDbArc
 50
180.0
 51
270.0
  0
LINE
  5
33A
330
1F
100
AcDbEntity
  8
0
  6
Continuous
 62
     7
370
    25
100
AcDbLine
 10
389.6340410959
 20
120.2504246575
 30
0.0
 11
389.6340410959
 21
120.1504246575
 31
0.0
  0
ARC
  5
33B
330
1F
100
AcDbEntity
  8
0
  6
Continuous
 62
     7
370
    25
100
AcDbCircle
 10
390.0840410959
 20
120.2504246575
 30
0.0
 40
0.4500000000000455
100
AcDbArc
 50
90.0
 51
180.0
  0
LINE
  5
33C
330
1F
100
AcDbEntity
  8
0
  6
Continuous
 62
     7
370
    25
100
AcDbLine
 10
390.9340410959
 20
120.6004246575
 30
0.0
 11
390.0840410959
 21
120.6004246575
 31
0.0
  0
ARC
  5
33D
330
1F
100
AcDbEntity
  8
0
  6
Continuous
 62
     7
370
    25
100
AcDbCircle
 10
390.9340410959
 20
120.2504246575
 30
0.0
 40
0.3500000000000085
100
AcDbArc
 50
0.0
 51
90.0
  0
LINE
  5
33E
330
1F
100
AcDbEntity
  8
0
  6
Continuous
 62
     7
370
    25
100
AcDbLine
 10
391.2840410959
 20
120.1504246575
 30
0.0
 11
391.2840410959
 21
120.2504246575
 31
0.0
  0
LINE
  5
33F
330
1F
100
AcDbEntity
  8
0
  6
Continuous
 62
     7
370
    25
100
AcDbLine
 10
389.7340410959
 20
120.2504246575
 30
0.0
 11
389.7340410959
 21
120.1504246575
 31
0.0
  0
LINE
  5
340
330
1F
100
AcDbEntity
  8
0
  6
Continuous
 62
     7
370
    25
100
AcDbLine
 10
390.9340410959
 20
120.7004246575
 30
0.0
 11
390.0840410959
 21
120.7004246575
 31
0.0
  0
ARC
  5
341
330
1F
100
AcDbEntity
  8
0
  6
Continuous
 62
     7
370
    25
100
AcDbCircle
 10
390.9340410959
 20
120.2504246575
 30
0.0
 40
0.4500000000000455
100
AcDbArc
 50
0.0
 51
90.0
  0
ARC
  5
342
330
1F
100
AcDbEntity
  8
0
  6
Continuous
 62
     7
370
    25
100
AcDbCircle
 10
390.0840410959
 20
120.1504246575
 30
0.0
 40
0.3500000000000227
100
AcDbArc
 50
180.0
 51
270.0
  0
LINE
  5
343
330
1F
100
AcDbEntity
  8
0
  6
Continuous
 62
     7
370
    25
100
AcDbLine
 10
390.0840410959
 20
119.8004246575
 30
0.0
 11
390.9340410959
 21
119.8004246575
 31
0.0
  0
ARC
  5
344
330
1F
100
AcDbEntity
  8
0
  6
Continuous
 62
     7
370
    25
100
AcDbCircle
 10
390.9340410959
 20
69.0004246575
 30
0.0
 40
0.3500000000000085
100
AcDbArc
 50
270.0
 51
0.0
  0
LINE
  5
345
330
1F
100
AcDbEntity
  8
0
  6
Continuous
 62
     7
370
    25
100
AcDbLine
 10
391.2840410959
 20
69.0004246575
 30
0.0
 11
391.2840410959
 21
69.1004246575
 31
0.0
  0
LINE
  5
346
330
1F
100
AcDbEntity
  8
0
  6
Continuous
 62
     7
370
    25
100
AcDbLine
 10
389.6340410959
 20
69.1004246575
 30
0.0
 11
389.6340410959
 21
69.0004246575
 31
0.0
  0
ARC
  5
347
330
1F
100
AcDbEntity
  8
0
  6
Continuous
 62
     7
370
    25
100
AcDbCircle
 10
390.0840410959
 20
69.1004246575
 30
0.0
 40
0.4500000000000455
100
AcDbArc
 50
90.0
 51
180.0
  0
LINE
  5
348
330
1F
100
AcDbEntity
  8
0
  6
Continuous
 62
     7
370
    25
100
AcDbLine
 10
390.9340410959
 20
69.5504246575
 30
0.0
 11
390.0840410959
 21
69.5504246575
 31
0.0
  0
ARC
  5
349
330
1F
100
AcDbEntity
  8
0
  6
Continuous
 62
     7
370
    25
100
AcDbCircle
 10
390.9340410959
 20
69.1004246575
 30
0.0
 40
0.4500000000000455
100
AcDbArc
 50
0.0
 51
90.0
  0
LINE
  5
34A
330
1F
100
AcDbEntity
  8
0
  6
Continuous
 62
     7
370
    25
100
AcDbLine
 10
391.3840410959
 20
69.0004246575
 30
0.0
 11
391.3840410959
 21
69.1004246575
 31
0.0
  0
ARC
  5
34B
330
1F
100
AcDbEntity
  8
0
  6
Continuous
 62
     7
370
    25
100
AcDbCircle
 10
390.9340410959
 20
69.1004246575
 30
0.0
 40
0.3499999999999943
100
AcDbArc
 50
0.0
 51
90.0
  0
ARC
  5
34C
330
1F
100
AcDbEntity
  8
0
  6
Continuous
 62
     7
370
    25
100
AcDbCircle
 10
390.0840410959
 20
69.1004246575
 30
0.0
 40
0.3500000000000227
100
AcDbArc
 50
90.0
 51
180.0
  0
LINE
  5
34D
330
1F
100
AcDbEntity
  8
0
  6
Continuous
 62
     7
370
    25
100
AcDbLine
 10
390.9340410959
 20
69.4504246575
 30
0.0
 11
390.0840410959
 21
69.4504246575
 31
0.0
  0
ARC
  5
34E
330
1F
100
AcDbEntity
  8
0
  6
Continuous
 62
     7
370
    25
100
AcDbCircle
 10
390.9340410959
 20
69.0004246575
 30
0.0
 40
0.4500000000000455
100
AcDbArc
 50
270.0
 51
0.0
  0
ARC
  5
34F
330
1F
100
AcDbEntity
  8
0
  6
Continuous
 62
     7
370
    25
100
AcDbCircle
 10
390.0840410959
 20
69.0004246575
 30
0.0
 40
0.4500000000000455
100
AcDbArc
 50
180.0
 51
270.0
  0
ARC
  5
350
330
1F
100
AcDbEntity
  8
0
  6
Continuous
 62
     7
370
    25
100
AcDbCircle
 10
390.0840410959
 20
69.0004246575
 30
0.0
 40
0.3500000000000227
100
AcDbArc
 50
180.0
 51
270.0
  0
LINE
  5
351
330
1F
100
AcDbEntity
  8
0
  6
Continuous
 62
     7
370
    25
100
AcDbLine
 10
390.0840410959
 20
68.6504246575
 30
0.0
 11
390.9340410959
 21
68.6504246575
 31
0.0
  0
LINE
  5
352
330
1F
100
AcDbEntity
  8
0
  6
Continuous
 62
     7
370
    25
100
AcDbLine
 10
389.7340410959
 20
69.1004246575
 30
0.0
 11
389.7340410959
 21
69.0004246575
 31
0.0
  0
LINE
  5
353
330
1F
100
AcDbEntity
  8
0
  6
Continuous
 62
     7
370
    25
100
AcDbLine
 10
390.0840410959
 20
68.5504246575
 30
0.0
 11
390.9340410959
 21
68.5504246575
 31
0.0
  0
ARC
  5
354
330
1F
100
AcDbEntity
  8
0
  6
Continuous
 62
     7
370
    25
100
AcDbCircle
 10
390.0840410959
 20
136.2504246575
 30
0.0
 40
0.3500000000000227
100
AcDbArc
 50
180.0
 51
270.0
  0
ARC
  5
355
330
1F
100
AcDbEntity
  8
0
  6
Continuous
 62
     7
370
    25
100
AcDbCircle
 10
390.9340410959
 20
136.2504246575
 30
0.0
 40
0.3499999999999943
100
AcDbArc
 50
270.0
 51
0.0
  0
ARC
  5
356
330
1F
100
AcDbEntity
  8
0
  6
Continuous
 62
     7
370
    25
100
AcDbCircle
 10
390.9340410959
 20
136.3504246575
 30
0.0
 40
0.3499999999999659
100
AcDbArc
 50
0.0
 51
90.0
  0
LINE
  5
357
330
1F
100
AcDbEntity
  8
0
  6
Continuous
 62
     7
370
    25
100
AcDbLine
 10
390.9340410959
 20
136.7004246575
 30
0.0
 11
390.0840410959
 21
136.7004246575
 31
0.0
  0
ARC
  5
358
330
1F
100
AcDbEntity
  8
0
  6
Continuous
 62
     7
370
    25
100
AcDbCircle
 10
390.0840410959
 20
136.3504246575
 30
0.0
 40
0.3500000000000227
100
AcDbArc
 50
90.0
 51
180.0
  0
LINE
  5
359
330
1F
100
AcDbEntity
  8
0
  6
Continuous
 62
     7
370
    25
100
AcDbLine
 10
389.7340410959
 20
136.3504246575
 30
0.0
 11
389.7340410959
 21
136.2504246575
 31
0.0
  0
LINE
  5
35A
330
1F
100
AcDbEntity
  8
0
  6
Continuous
 62
     7
370
    25
100
AcDbLine
 10
390.0840410959
 20
135.8004246575
 30
0.0
 11
390.9340410959
 21
135.8004246575
 31
0.0
  0
ARC
  5
35B
330
1F
100
AcDbEntity
  8
0
  6
Continuous
 62
     7
370
    25
100
AcDbCircle
 10
390.0840410959
 20
136.2504246575
 30
0.0
 40
0.4500000000000455
100
AcDbArc
 50
180.0
 51
270.0
  0
ARC
  5
35C
330
1F
100
AcDbEntity
  8
0
  6
Continuous
 62
     7
370
    25
100
AcDbCircle
 10
390.0840410959
 20
136.3504246575
 30
0.0
 40
0.4500000000000455
100
AcDbArc
 50
90.0
 51
180.0
  0
LINE
  5
35D
330
1F
100
AcDbEntity
  8
0
  6
Continuous
 62
     7
370
    25
100
AcDbLine
 10
390.9340410959
 20
136.8004246575
 30
0.0
 11
390.0840410959
 21
136.8004246575
 31
0.0
  0
ARC
  5
35E
330
1F
100
AcDbEntity
  8
0
  6
Continuous
 62
     7
370
    25
100
AcDbCircle
 10
390.9340410959
 20
136.3504246575
 30
0.0
 40
0.4500000000000455
100
AcDbArc
 50
0.0
 51
90.0
  0
LINE
  5
35F
330
1F
100
AcDbEntity
  8
0
  6
Continuous
 62
     7
370
    25
100
AcDbLine
 10
391.3840410959
 20
136.2504246575
 30
0.0
 11
391.3840410959
 21
136.3504246575
 31
0.0
  0
ARC
  5
360
330
1F
100
AcDbEntity
  8
0
  6
Continuous
 62
     7
370
    25
100
AcDbCircle
 10
390.9340410959
 20
136.2504246575
 30
0.0
 40
0.4500000000000455
100
AcDbArc
 50
270.0
 51
0.0
  0
LINE
  5
361
330
1F
100
AcDbEntity
  8
0
  6
Continuous
 62
     7
370
    25
100
AcDbLine
 10
391.2840410959
 20
136.2504246575
 30
0.0
 11
391.2840410959
 21
136.3504246575
 31
0.0
  0
LINE
  5
362
330
1F
100
AcDbEntity
  8
0
  6
Continuous
 62
     7
370
    25
100
AcDbLine
 10
390.0840410959
 20
135.9004246575
 30
0.0
 11
390.9340410959
 21
135.9004246575
 31
0.0
  0
LINE
  5
363
330
1F
100
AcDbEntity
  8
0
  6
Continuous
 62
     7
370
    25
100
AcDbLine
 10
389.6340410959
 20
136.3504246575
 30
0.0
 11
389.6340410959
 21
136.2504246575
 31
0.0
  0
ARC
  5
364
330
1F
100
AcDbEntity
  8
0
  6
Continuous
 62
     7
370
    25
100
AcDbCircle
 10
390.9340410959
 20
52.9004246575
 30
0.0
 40
0.3500000000000014
100
AcDbArc
 50
270.0
 51
0.0
  0
LINE
  5
365
330
1F
100
AcDbEntity
  8
0
  6
Continuous
 62
     7
370
    25
100
AcDbLine
 10
391.2840410959
 20
52.9004246575
 30
0.0
 11
391.2840410959
 21
53.0004246575
 31
0.0
  0
LINE
  5
366
330
1F
100
AcDbEntity
  8
0
  6
Continuous
 62
     7
370
    25
100
AcDbLine
 10
390.9340410959
 20
53.4504246575
 30
0.0
 11
390.0840410959
 21
53.4504246575
 31
0.0
  0
ARC
  5
367
330
1F
100
AcDbEntity
  8
0
  6
Continuous
 62
     7
370
    25
100
AcDbCircle
 10
390.9340410959
 20
53.0004246575
 30
0.0
 40
0.4500000000000455
100
AcDbArc
 50
0.0
 51
90.0
  0
LINE
  5
368
330
1F
100
AcDbEntity
  8
0
  6
Continuous
 62
     7
370
    25
100
AcDbLine
 10
390.0840410959
 20
52.4504246575
 30
0.0
 11
390.9340410959
 21
52.4504246575
 31
0.0
  0
ARC
  5
369
330
1F
100
AcDbEntity
  8
0
  6
Continuous
 62
     7
370
    25
100
AcDbCircle
 10
390.0840410959
 20
52.9004246575
 30
0.0
 40
0.4500000000000455
100
AcDbArc
 50
180.0
 51
270.0
  0
LINE
  5
36A
330
1F
100
AcDbEntity
  8
0
  6
Continuous
 62
     7
370
    25
100
AcDbLine
 10
389.6340410959
 20
53.0004246575
 30
0.0
 11
389.6340410959
 21
52.9004246575
 31
0.0
  0
ARC
  5
36B
330
1F
100
AcDbEntity
  8
0
  6
Continuous
 62
     7
370
    25
100
AcDbCircle
 10
390.0840410959
 20
53.0004246575
 30
0.0
 40
0.4500000000000455
100
AcDbArc
 50
90.0
 51
180.0
  0
LINE
  5
36C
330
1F
100
AcDbEntity
  8
0
  6
Continuous
 62
     7
370
    25
100
AcDbLine
 10
390.9340410959
 20
53.3504246575
 30
0.0
 11
390.0840410959
 21
53.3504246575
 31
0.0
  0
ARC
  5
36D
330
1F
100
AcDbEntity
  8
0
  6
Continuous
 62
     7
370
    25
100
AcDbCircle
 10
390.9340410959
 20
53.0004246575
 30
0.0
 40
0.3500000000000014
100
AcDbArc
 50
0.0
 51
90.0
  0
ARC
  5
36E
330
1F
100
AcDbEntity
  8
0
  6
Continuous
 62
     7
370
    25
100
AcDbCircle
 10
390.0840410959
 20
53.0004246575
 30
0.0
 40
0.3500000000000227
100
AcDbArc
 50
90.0
 51
180.0
  0
ARC
  5
36F
330
1F
100
AcDbEntity
  8
0
  6
Continuous
 62
     7
370
    25
100
AcDbCircle
 10
390.9340410959
 20
52.9004246575
 30
0.0
 40
0.4500000000000455
100
AcDbArc
 50
270.0
 51
0.0
  0
ARC
  5
370
330
1F
100
AcDbEntity
  8
0
  6
Continuous
 62
     7
370
    25
100
AcDbCircle
 10
390.0840410959
 20
52.9004246575
 30
0.0
 40
0.3500000000000227
100
AcDbArc
 50
180.0
 51
270.0
  0
LINE
  5
371
330
1F
100
AcDbEntity
  8
0
  6
Continuous
 62
     7
370
    25
100
AcDbLine
 10
389.7340410959
 20
53.0004246575
 30
0.0
 11
389.7340410959
 21
52.9004246575
 31
0.0
  0
LINE
  5
372
330
1F
100
AcDbEntity
  8
0
  6
Continuous
 62
     7
370
    25
100
AcDbLine
 10
390.0840410959
 20
52.5504246575
 30
0.0
 11
390.9340410959
 21
52.5504246575
 31
0.0
  0
LINE
  5
373
330
1F
100
AcDbEntity
  8
0
  6
Continuous
 62
     7
370
    25
100
AcDbLine
 10
391.3840410959
 20
52.9004246575
 30
0.0
 11
391.3840410959
 21
53.0004246575
 31
0.0
  0
LINE
  5
374
330
1F
100
AcDbEntity
  8
0
  6
Continuous
 62
     7
370
    25
100
AcDbLine
 10
374.5090410959
 20
47.5754246575
 30
0.0
 11
374.5090410959
 21
74.4254246575
 31
0.0
  0
LINE
  5
375
330
1F
100
AcDbEntity
  8
0
  6
Continuous
 62
     7
370
    25
100
AcDbLine
 10
374.5090410959
 20
74.4254246575
 30
0.0
 11
406.5090410959
 21
74.4254246575
 31
0.0
  0
LINE
  5
376
330
1F
100
AcDbEntity
  8
0
  6
Continuous
 62
     7
370
    25
100
AcDbLine
 10
406.5090410959
 20
74.4254246575
 30
0.0
 11
406.5090410959
 21
47.5754246575
 31
0.0
  0
LINE
  5
377
330
1F
100
AcDbEntity
  8
0
  6
Continuous
 62
     7
370
    25
100
AcDbLine
 10
406.5090410959
 20
47.5754246575
 30
0.0
 11
374.5090410959
 21
47.5754246575
 31
0.0
  0
LINE
  5
378
330
1F
100
AcDbEntity
  8
0
  6
Continuous
 62
     7
370
    25
100
AcDbLine
 10
374.5090410959
 20
114.8254246575
 30
0.0
 11
374.5090410959
 21
141.6754246575
 31
0.0
  0
LINE
  5
379
330
1F
100
AcDbEntity
  8
0
  6
Continuous
 62
     7
370
    25
100
AcDbLine
 10
374.5090410959
 20
141.6754246575
 30
0.0
 11
406.5090410959
 21
141.6754246575
 31
0.0
  0
LINE
  5
37A
330
1F
100
AcDbEntity
  8
0
  6
Continuous
 62
     7
370
    25
100
AcDbLine
 10
406.5090410959
 20
141.6754246575
 30
0.0
 11
406.5090410959
 21
114.8254246575
 31
0.0
  0
LINE
  5
37B
330
1F
100
AcDbEntity
  8
0
  6
Continuous
 62
     7
370
    25
100
AcDbLine
 10
406.5090410959
 20
114.8254246575
 30
0.0
 11
374.5090410959
 21
114.8254246575
 31
0.0
  0
LINE
  5
37C
330
1F
100
AcDbEntity
  8
0
  6
Continuous
 62
     7
370
    25
100
AcDbLine
 10
406.5067271041
 20
114.8277386493
 30
0.0
 11
374.5113550877
 21
114.8277386493
 31
0.0
  0
LINE
  5
37D
330
1F
100
AcDbEntity
  8
0
  6
Continuous
 62
     7
370
    25
100
AcDbLine
 10
406.5067271041
 20
141.6731106658
 30
0.0
 11
406.5067271041
 21
114.8277386493
 31
0.0
  0
LINE
  5
37E
330
1F
100
AcDbEntity
  8
0
  6
Continuous
 62
     7
370
    25
100
AcDbLine
 10
374.5113550877
 20
141.6731106658
 30
0.0
 11
406.5067271041
 21
141.6731106658
 31
0.0
  0
LINE
  5
37F
330
1F
100
AcDbEntity
  8
0
  6
Continuous
 62
     7
370
    25
100
AcDbLine
 10
374.5113550877
 20
114.8277386493
 30
0.0
 11
374.5113550877
 21
141.6731106658
 31
0.0
  0
LINE
  5
380
330
1F
100
AcDbEntity
  8
0
  6
Continuous
 62
     7
370
    25
100
AcDbLine
 10
406.6590410959
 20
141.8254246575
 30
0.0
 11
406.6590410959
 21
114.6754246575
 31
0.0
  0
LINE
  5
381
330
1F
100
AcDbEntity
  8
0
  6
Continuous
 62
     7
370
    25
100
AcDbLine
 10
406.6590410959
 20
114.6754246575
 30
0.0
 11
374.3590410959
 21
114.6754246575
 31
0.0
  0
LINE
  5
382
330
1F
100
AcDbEntity
  8
0
  6
Continuous
 62
     7
370
    25
100
AcDbLine
 10
374.3590410959
 20
114.6754246575
 30
0.0
 11
374.3590410959
 21
141.8254246575
 31
0.0
  0
LINE
  5
383
330
1F
100
AcDbEntity
  8
0
  6
Continuous
 62
     7
370
    25
100
AcDbLine
 10
374.3590410959
 20
141.8254246575
 30
0.0
 11
406.6590410959
 21
141.8254246575
 31
0.0
  0
LINE
  5
384
330
1F
100
AcDbEntity
  8
0
  6
Continuous
 62
     7
370
    25
100
AcDbLine
 10
406.5067271041
 20
47.5777386493
 30
0.0
 11
374.5113550877
 21
47.5777386493
 31
0.0
  0
LINE
  5
385
330
1F
100
AcDbEntity
  8
0
  6
Continuous
 62
     7
370
    25
100
AcDbLine
 10
406.5067271041
 20
74.4231106658
 30
0.0
 11
406.5067271041
 21
47.5777386493
 31
0.0
  0
LINE
  5
386
330
1F
100
AcDbEntity
  8
0
  6
Continuous
 62
     7
370
    25
100
AcDbLine
 10
374.5113550877
 20
74.4231106658
 30
0.0
 11
406.5067271041
 21
74.4231106658
 31
0.0
  0
LINE
  5
387
330
1F
100
AcDbEntity
  8
0
  6
Continuous
 62
     7
370
    25
100
AcDbLine
 10
374.5113550877
 20
47.5777386493
 30
0.0
 11
374.5113550877
 21
74.4231106658
 31
0.0
  0
LINE
  5
388
330
1F
100
AcDbEntity
  8
0
  6
Continuous
 62
     7
370
    25
100
AcDbLine
 10
374.3590410959
 20
47.4254246575
 30
0.0
 11
374.3590410959
 21
74.5754246575
 31
0.0
  0
LINE
  5
389
330
1F
100
AcDbEntity
  8
0
  6
Continuous
 62
     7
370
    25
100
AcDbLine
 10
374.3590410959
 20
74.5754246575
 30
0.0
 11
406.6590410959
 21
74.5754246575
 31
0.0
  0
LINE
  5
38A
330
1F
100
AcDbEntity
  8
0
  6
Continuous
 62
     7
370
    25
100
AcDbLine
 10
406.6590410959
 20
47.4254246575
 30
0.0
 11
374.3590410959
 21
47.4254246575
 31
0.0
  0
LINE
  5
38B
330
1F
100
AcDbEntity
  8
0
  6
Continuous
 62
     7
370
    25
100
AcDbLine
 10
406.6590410959
 20
74.5754246575
 30
0.0
 11
406.6590410959
 21
47.4254246575
 31
0.0
  0
LINE
  5
38C
330
1F
100
AcDbEntity
  8
0
  6
Continuous
 62
     7
370
    25
100
AcDbLine
 10
406.9090410959
 20
141.6254246575
 30
0.0
 11
406.9090410959
 21
47.6254246575
 31
0.0
  0
LINE
  5
38D
330
1F
100
AcDbEntity
  8
0
  6
Continuous
 62
     7
370
    25
100
AcDbLine
 10
406.9090410959
 20
47.6254246575
 30
0.0
 11
406.7090410959
 21
47.6254246575
 31
0.0
  0
LINE
  5
38E
330
1F
100
AcDbEntity
  8
0
  6
Continuous
 62
     7
370
    25
100
AcDbLine
 10
406.9090410959
 20
141.6254246575
 30
0.0
 11
406.7090410959
 21
141.6254246575
 31
0.0
  0
LINE
  5
38F
330
1F
100
AcDbEntity
  8
0
  6
Continuous
 62
     7
370
    25
100
AcDbLine
 10
406.7090410959
 20
141.6254246575
 30
0.0
 11
406.7090410959
 21
47.6254246575
 31
0.0
  0
LINE
  5
390
330
1F
100
AcDbEntity
  8
0
  6
Continuous
 62
     7
370
    25
100
AcDbLine
 10
402.7590410959
 20
114.6754246575
 30
0.0
 11
402.7590410959
 21
114.6504246575
 31
0.0
  0
LINE
  5
391
330
1F
100
AcDbEntity
  8
0
  6
Continuous
 62
     7
370
    25
100
AcDbLine
 10
402.7590410959
 20
94.6504246575
 30
0.0
 11
402.7590410959
 21
94.6004246575
 31
0.0
  0
LINE
  5
392
330
1F
100
AcDbEntity
  8
0
  6
Continuous
 62
     7
370
    25
100
AcDbLine
 10
402.7590410959
 20
74.6004246575
 30
0.0
 11
402.7590410959
 21
74.5754246575
 31
0.0
  0
LINE
  5
393
330
1F
100
AcDbEntity
  8
0
  6
Continuous
 62
     7
370
    25
100
AcDbLine
 10
406.6590410959
 20
47.6254246575
 30
0.0
 11
406.7090410959
 21
47.6254246575
 31
0.0
  0
LINE
  5
394
330
1F
100
AcDbEntity
  8
0
  6
Continuous
 62
     7
370
    25
100
AcDbLine
 10
406.6590410959
 20
141.6254246575
 30
0.0
 11
406.7090410959
 21
141.6254246575
 31
0.0
  0
LINE
  5
395
330
1F
100
AcDbEntity
  8
0
  6
Continuous
 62
     7
370
    25
100
AcDbLine
 10
400.7590410959
 20
114.6754246575
 30
0.0
 11
400.7590410959
 21
114.6504246575
 31
0.0
  0
LINE
  5
396
330
1F
100
AcDbEntity
  8
0
  6
Continuous
 62
     7
370
    25
100
AcDbLine
 10
400.7590410959
 20
94.6504246575
 30
0.0
 11
400.7590410959
 21
94.6004246575
 31
0.0
  0
LINE
  5
397
330
1F
100
AcDbEntity
  8
0
  6
Continuous
 62
     7
370
    25
100
AcDbLine
 10
400.7590410959
 20
74.6004246575
 30
0.0
 11
400.7590410959
 21
74.5754246575
 31
0.0
  0
LINE
  5
398
330
1F
100
AcDbEntity
  8
0
  6
Continuous
 62
     7
370
    25
100
AcDbLine
 10
400.7090410959
 20
141.8754246575
 30
0.0
 11
400.7090410959
 21
141.8254246575
 31
0.0
  0
LINE
  5
399
330
1F
100
AcDbEntity
  8
0
  6
Continuous
 62
     7
370
    25
100
AcDbLine
 10
400.4590410959
 20
141.8754246575
 30
0.0
 11
400.4590410959
 21
141.8254246575
 31
0.0
  0
LINE
  5
39A
330
1F
100
AcDbEntity
  8
0
  6
Continuous
 62
     7
370
    25
100
AcDbLine
 10
402.8090410959
 20
141.8754246575
 30
0.0
 11
402.8090410959
 21
141.8254246575
 31
0.0
  0
LINE
  5
39B
330
1F
100
AcDbEntity
  8
0
  6
Continuous
 62
     7
370
    25
100
AcDbLine
 10
403.0590410959
 20
141.8754246575
 30
0.0
 11
403.0590410959
 21
141.8254246575
 31
0.0
  0
LINE
  5
39C
330
1F
100
AcDbEntity
  8
0
  6
Continuous
 62
     7
370
    25
100
AcDbLine
 10
400.4590410959
 20
47.4254246575
 30
0.0
 11
400.4590410959
 21
47.3754246575
 31
0.0
  0
LINE
  5
39D
330
1F
100
AcDbEntity
  8
0
  6
Continuous
 62
     7
370
    25
100
AcDbLine
 10
400.7090410959
 20
47.4254246575
 30
0.0
 11
400.7090410959
 21
47.3754246575
 31
0.0
  0
LINE
  5
39E
330
1F
100
AcDbEntity
  8
0
  6
Continuous
 62
     7
370
    25
100
AcDbLine
 10
403.0590410959
 20
47.4254246575
 30
0.0
 11
403.0590410959
 21
47.3754246575
 31
0.0
  0
LINE
  5
39F
330
1F
100
AcDbEntity
  8
0
  6
Continuous
 62
     7
370
    25
100
AcDbLine
 10
402.8090410959
 20
47.4254246575
 30
0.0
 11
402.8090410959
 21
47.3754246575
 31
0.0
  0
LINE
  5
3A0
330
1F
100
AcDbEntity
  8
0
  6
Continuous
 62
     7
370
    25
100
AcDbLine
 10
412.0090410959
 20
141.8754246575
 30
0.0
 11
412.0090410959
 21
142.0754246575
 31
0.0
  0
LINE
  5
3A1
330
1F
100
AcDbEntity
  8
0
  6
Continuous
 62
     7
370
    25
100
AcDbLine
 10
374.3090410959
 20
141.8754246575
 30
0.0
 11
374.3090410959
 21
142.0754246575
 31
0.0
  0
LINE
  5
3A2
330
1F
100
AcDbEntity
  8
0
  6
Continuous
 62
     7
370
    25
100
AcDbLine
 10
412.0090410959
 20
142.0754246575
 30
0.0
 11
374.3090410959
 21
142.0754246575
 31
0.0
  0
LINE
  5
3A3
330
1F
100
AcDbEntity
  8
0
  6
Continuous
 62
     7
370
    25
100
AcDbLine
 10
412.0090410959
 20
141.8754246575
 30
0.0
 11
374.3090410959
 21
141.8754246575
 31
0.0
  0
LINE
  5
3A4
330
1F
100
AcDbEntity
  8
0
  6
Continuous
 62
     7
370
    25
100
AcDbLine
 10
379.0590410959
 20
141.8254246575
 30
0.0
 11
379.0590410959
 21
141.8754246575
 31
0.0
  0
LINE
  5
3A5
330
1F
100
AcDbEntity
  8
0
  6
Continuous
 62
     7
370
    25
100
AcDbLine
 10
399.5090410959
 20
141.8754246575
 30
0.0
 11
399.5090410959
 21
141.8254246575
 31
0.0
  0
LINE
  5
3A6
330
1F
100
AcDbEntity
  8
0
  6
Continuous
 62
     7
370
    25
100
AcDbLine
 10
412.0090410959
 20
47.3754246575
 30
0.0
 11
412.0090410959
 21
47.1754246575
 31
0.0
  0
LINE
  5
3A7
330
1F
100
AcDbEntity
  8
0
  6
Continuous
 62
     7
370
    25
100
AcDbLine
 10
374.3090410959
 20
47.3754246575
 30
0.0
 11
374.3090410959
 21
47.1754246575
 31
0.0
  0
LINE
  5
3A8
330
1F
100
AcDbEntity
  8
0
  6
Continuous
 62
     7
370
    25
100
AcDbLine
 10
412.0090410959
 20
47.1754246575
 30
0.0
 11
374.3090410959
 21
47.1754246575
 31
0.0
  0
LINE
  5
3A9
330
1F
100
AcDbEntity
  8
0
  6
Continuous
 62
     7
370
    25
100
AcDbLine
 10
412.0090410959
 20
47.3754246575
 30
0.0
 11
374.3090410959
 21
47.3754246575
 31
0.0
  0
LINE
  5
3AA
330
1F
100
AcDbEntity
  8
0
  6
Continuous
 62
     7
370
    25
100
AcDbLine
 10
399.5090410959
 20
47.3754246575
 30
0.0
 11
399.5090410959
 21
47.4254246575
 31
0.0
  0
LINE
  5
3AB
330
1F
100
AcDbEntity
  8
0
  6
Continuous
 62
     7
370
    25
100
AcDbLine
 10
379.0590410959
 20
47.4254246575
 30
0.0
 11
379.0590410959
 21
47.3754246575
 31
0.0
  0
LINE
  5
3AC
330
1F
100
AcDbEntity
  8
0
  6
Continuous
 62
     7
370
    25
100
AcDbLine
 10
374.1090410959
 20
142.0754246575
 30
0.0
 11
374.3090410959
 21
142.0754246575
 31
0.0
  0
LINE
  5
3AD
330
1F
100
AcDbEntity
  8
0
  6
Continuous
 62
     7
370
    25
100
AcDbLine
 10
374.1090410959
 20
47.1754246575
 30
0.0
 11
374.3090410959
 21
47.1754246575
 31
0.0
  0
LINE
  5
3AE
330
1F
100
AcDbEntity
  8
0
  6
Continuous
 62
     7
370
    25
100
AcDbLine
 10
374.1090410959
 20
47.1754246575
 30
0.0
 11
374.1090410959
 21
142.0754246575
 31
0.0
  0
LINE
  5
3AF
330
1F
100
AcDbEntity
  8
0
  6
Continuous
 62
     7
370
    25
100
AcDbLine
 10
374.3090410959
 20
47.1754246575
 30
0.0
 11
374.3090410959
 21
142.0754246575
 31
0.0
  0
LINE
  5
3B0
330
1F
100
AcDbEntity
  8
0
  6
Continuous
 62
     7
370
    25
100
AcDbLine
 10
379.4090410959
 20
94.6504246575
 30
0.0
 11
379.4090410959
 21
94.6004246575
 31
0.0
  0
LINE
  5
3B1
330
1F
100
AcDbEntity
  8
0
  6
Continuous
 62
     7
370
    25
100
AcDbLine
 10
379.0590410959
 20
114.6504246575
 30
0.0
 11
379.0590410959
 21
114.6754246575
 31
0.0
  0
LINE
  5
3B2
330
1F
100
AcDbEntity
  8
0
  6
Continuous
 62
     7
370
    25
100
AcDbLine
 10
379.0590410959
 20
74.5754246575
 30
0.0
 11
379.0590410959
 21
74.6004246575
 31
0.0
  0
LINE
  5
3B3
330
1F
100
AcDbEntity
  8
0
  6
Continuous
 62
     7
370
    25
100
AcDbLine
 10
434.4590410959
 20
141.7254246575
 30
0.0
 11
434.4590410959
 21
47.5254246575
 31
0.0
  0
CIRCLE
  5
3B4
330
1F
100
AcDbEntity
  8
0
  6
Continuous
 62
     7
370
    25
100
AcDbCircle
 10
432.2090410959
 20
57.5254246575
 30
0.0
 40
0.2999999999999545
  0
CIRCLE
  5
3B5
330
1F
100
AcDbEntity
  8
0
  6
Continuous
 62
     7
370
    25
100
AcDbCircle
 10
432.2090410959
 20
131.7254246575
 30
0.0
 40
0.2999999999999545
  0
LINE
  5
3B6
330
1F
100
AcDbEntity
  8
0
  6
Continuous
 62
     7
370
    25
100
AcDbLine
 10
429.9590410959
 20
137.3754246575
 30
0.0
 11
429.9590410959
 21
51.8754246575
 31
0.0
  0
LINE
  5
3B7
330
1F
100
AcDbEntity
  8
0
  6
Continuous
 62
     7
370
    25
100
AcDbLine
 10
429.9590410959
 20
51.8754246575
 30
0.0
 11
406.9090410959
 21
51.8754246575
 31
0.0
  0
LINE
  5
3B8
330
1F
100
AcDbEntity
  8
0
  6
Continuous
 62
     7
370
    25
100
AcDbLine
 10
406.9090410959
 20
137.3754246575
 30
0.0
 11
429.9590410959
 21
137.3754246575
 31
0.0
  0
LINE
  5
3B9
330
1F
100
AcDbEntity
  8
0
  6
Continuous
 62
     7
370
    25
100
AcDbLine
 10
406.6590410959
 20
141.7254246575
 30
0.0
 11
434.4590410959
 21
141.7254246575
 31
0.0
  0
LINE
  5
3BA
330
1F
100
AcDbEntity
  8
0
  6
Continuous
 62
     7
370
    25
100
AcDbLine
 10
406.6590410959
 20
47.5254246575
 30
0.0
 11
434.4590410959
 21
47.5254246575
 31
0.0
  0
LINE
  5
3BB
330
1F
100
AcDbEntity
  8
0
  6
PHANTOM
 62
     1
370
    18
100
AcDbLine
 10
418.4392502005
 20
136.5257700817
 30
0.0
 11
420.4392502005
 21
136.5257700817
 31
0.0
  0
LINE
  5
3BC
330
1F
100
AcDbEntity
  8
0
  6
PHANTOM
 62
     1
370
    18
100
AcDbLine
 10
418.4392502005
 20
137.2579520011
 30
0.0
 11
420.4392502005
 21
137.2579520011
 31
0.0
  0
LINE
  5
3BD
330
1F
100
AcDbEntity
  8
0
  6
PHANTOM
 62
     1
370
    18
100
AcDbLine
 10
420.4392502005
 20
52.7250792334
 30
0.0
 11
418.4392502005
 21
52.7250792334
 31
0.0
  0
LINE
  5
3BE
330
1F
100
AcDbEntity
  8
0
  6
PHANTOM
 62
     1
370
    18
100
AcDbLine
 10
420.4392502005
 20
51.9928973139
 30
0.0
 11
418.4392502005
 21
51.9928973139
 31
0.0
  0
LINE
  5
3BF
330
1F
100
AcDbEntity
  8
0
  6
PHANTOM
 62
     1
370
    18
100
AcDbLine
 10
401.0090410959
 20
114.6754246575
 30
0.0
 11
401.0090410959
 21
114.6504246575
 31
0.0
  0
LINE
  5
3C0
330
1F
100
AcDbEntity
  8
0
  6
PHANTOM
 62
     1
370
    18
100
AcDbLine
 10
401.0090410959
 20
94.6504246575
 30
0.0
 11
401.0090410959
 21
94.6004246575
 31
0.0
  0
LINE
  5
3C1
330
1F
100
AcDbEntity
  8
0
  6
PHANTOM
 62
     1
370
    18
100
AcDbLine
 10
401.0090410959
 20
74.6004246575
 30
0.0
 11
401.0090410959
 21
74.5754246575
 31
0.0
  0
LINE
  5
3C2
330
1F
100
AcDbEntity
  8
0
  6
PHANTOM
 62
     1
370
    18
100
AcDbLine
 10
402.5090410959
 20
114.6754246575
 30
0.0
 11
402.5090410959
 21
114.6504246575
 31
0.0
  0
LINE
  5
3C3
330
1F
100
AcDbEntity
  8
0
  6
PHANTOM
 62
     1
370
    18
100
AcDbLine
 10
402.5090410959
 20
94.6504246575
 30
0.0
 11
402.5090410959
 21
94.6004246575
 31
0.0
  0
LINE
  5
3C4
330
1F
100
AcDbEntity
  8
0
  6
PHANTOM
 62
     1
370
    18
100
AcDbLine
 10
402.5090410959
 20
74.6004246575
 30
0.0
 11
402.5090410959
 21
74.5754246575
 31
0.0
  0
LINE
  5
3C5
330
1F
100
AcDbEntity
  8
0
  6
PHANTOM
 62
     1
370
    18
100
AcDbLine
 10
374.4590410959
 20
47.3754246575
 30
0.0
 11
374.4590410959
 21
47.4254246575
 31
0.0
  0
LINE
  5
3C6
330
1F
100
AcDbEntity
  8
0
  6
PHANTOM
 62
     1
370
    18
100
AcDbLine
 10
374.4590410959
 20
74.5754246575
 30
0.0
 11
374.4590410959
 21
74.6004246575
 31
0.0
  0
LINE
  5
3C7
330
1F
100
AcDbEntity
  8
0
  6
PHANTOM
 62
     1
370
    18
100
AcDbLine
 10
374.4590410959
 20
94.6004246575
 30
0.0
 11
374.4590410959
 21
94.6504246575
 31
0.0
  0
LINE
  5
3C8
330
1F
100
AcDbEntity
  8
0
  6
PHANTOM
 62
     1
370
    18
100
AcDbLine
 10
374.4590410959
 20
114.6504246575
 30
0.0
 11
374.4590410959
 21
114.6754246575
 31
0.0
  0
LINE
  5
3C9
330
1F
100
AcDbEntity
  8
0
  6
PHANTOM
 62
     1
370
    18
100
AcDbLine
 10
374.4590410959
 20
141.8254246575
 30
0.0
 11
374.4590410959
 21
141.8754246575
 31
0.0
  0
LINE
  5
3CA
330
1F
100
AcDbEntity
  8
0
  6
PHANTOM
 62
     1
370
    18
100
AcDbLine
 10
379.0590410959
 20
94.6004246575
 30
0.0
 11
379.0590410959
 21
94.6504246575
 31
0.0
  0
LINE
  5
3CB
330
1F
100
AcDbEntity
  8
0
  6
Continuous
 62
     7
370
    25
100
AcDbLine
 10
115.3869899265
 20
389.8104931507
 30
0.0
 11
115.3869899265
 21
389.9955286381
 31
0.0
  0
LINE
  5
3CC
330
1F
100
AcDbEntity
  8
0
  6
Continuous
 62
     7
370
    25
100
AcDbLine
 10
113.3869899265
 20
389.8104931507
 30
0.0
 11
113.3869899265
 21
389.9955286381
 31
0.0
  0
LINE
  5
3CD
330
1F
100
AcDbEntity
  8
0
  6
Continuous
 62
     7
370
    25
100
AcDbLine
 10
113.3869899265
 20
389.9955286381
 30
0.0
 11
113.3869899265
 21
390.6463570109
 31
0.0
  0
LINE
  5
3CE
330
1F
100
AcDbEntity
  8
0
  6
Continuous
 62
     7
370
    25
100
AcDbLine
 10
115.3869899265
 20
389.9955286381
 30
0.0
 11
115.3869899265
 21
390.6463570109
 31
0.0
  0
LINE
  5
3CF
330
1F
100
AcDbEntity
  8
0
  6
Continuous
 62
     7
370
    25
100
AcDbLine
 10
115.3869899265
 20
390.6463570109
 30
0.0
 11
115.3869899265
 21
390.7584684087
 31
0.0
  0
LINE
  5
3D0
330
1F
100
AcDbEntity
  8
0
  6
Continuous
 62
     7
370
    25
100
AcDbLine
 10
113.3869899265
 20
390.6463570109
 30
0.0
 11
113.3869899265
 21
390.7584684087
 31
0.0
  0
LINE
  5
3D1
330
1F
100
AcDbEntity
  8
0
  6
Continuous
 62
     7
370
    25
100
AcDbLine
 10
115.3869899265
 20
390.7584684087
 30
0.0
 11
115.3869899265
 21
392.3512952862
 31
0.0
  0
LINE
  5
3D2
330
1F
100
AcDbEntity
  8
0
  6
Continuous
 62
     7
370
    25
100
AcDbLine
 10
114.7619899265
 20
391.8512952862
 30
0.0
 11
114.0119899265
 21
391.8512952862
 31
0.0
  0
ARC
  5
3D3
330
1F
100
AcDbEntity
  8
0
  6
Continuous
 62
     7
370
    25
100
AcDbCircle
 10
114.0119899265
 20
391.6012952862
 30
0.0
 40
0.2500000000000568
100
AcDbArc
 50
90.0
 51
270.0
  0
ARC
  5
3D4
330
1F
100
AcDbEntity
  8
0
  6
Continuous
 62
     7
370
    25
100
AcDbCircle
 10
114.7619899265
 20
391.6012952862
 30
0.0
 40
0.2500000000000568
100
AcDbArc
 50
270.0
 51
90.0
  0
LINE
  5
3D5
330
1F
100
AcDbEntity
  8
0
  6
Continuous
 62
     7
370
    25
100
AcDbLine
 10
113.3869899265
 20
390.7584684087
 30
0.0
 11
113.3869899265
 21
392.3512952862
 31
0.0
  0
LINE
  5
3D6
330
1F
100
AcDbEntity
  8
0
  6
Continuous
 62
     7
370
    25
100
AcDbLine
 10
114.0119899265
 20
391.3512952862
 30
0.0
 11
114.7619899265
 21
391.3512952862
 31
0.0
  0
LINE
  5
3D7
330
1F
100
AcDbEntity
  8
0
  6
Continuous
 62
     7
370
    25
100
AcDbLine
 10
115.3869899265
 20
392.3512952862
 30
0.0
 11
113.3869899265
 21
392.3512952862
 31
0.0
  0
LINE
  5
3D8
330
1F
100
AcDbEntity
  8
0
  6
Continuous
 62
     7
370
    25
100
AcDbLine
 10
69.9239252544
 20
400.0104931507
 30
0.0
 11
69.8974762073
 21
400.1604931507
 31
0.0
  0
LINE
  5
3D9
330
1F
100
AcDbEntity
  8
0
  6
Continuous
 62
     7
370
    25
100
AcDbLine
 10
106.9567808219
 20
403.5104931507
 30
0.0
 11
69.2567808219
 21
403.5104931507
 31
0.0
  0
LINE
  5
3DA
330
1F
100
AcDbEntity
  8
0
  6
Continuous
 62
     7
370
    25
100
AcDbLine
 10
106.9567808219
 20
387.0104931507
 30
0.0
 11
106.9567808219
 21
403.5104931507
 31
0.0
  0
LINE
  5
3DB
330
1F
100
AcDbEntity
  8
0
  6
Continuous
 62
     7
370
    25
100
AcDbLine
 10
94.4567808219
 20
387.0104931507
 30
0.0
 11
106.9567808219
 21
387.0104931507
 31
0.0
  0
LINE
  5
3DC
330
1F
100
AcDbEntity
  8
0
  6
Continuous
 62
     7
370
    25
100
AcDbLine
 10
94.4567808219
 20
400.0104931507
 30
0.0
 11
94.4567808219
 21
387.0104931507
 31
0.0
  0
LINE
  5
3DD
330
1F
100
AcDbEntity
  8
0
  6
Continuous
 62
     7
370
    25
100
AcDbLine
 10
94.4567808219
 20
400.0104931507
 30
0.0
 11
94.5167808219
 21
400.0104931507
 31
0.0
  0
LINE
  5
3DE
330
1F
100
AcDbEntity
  8
0
  6
Continuous
 62
     7
370
    25
100
AcDbLine
 10
94.5167808219
 20
400.0104931507
 30
0.0
 11
94.5167808219
 21
400.2204931507
 31
0.0
  0
LINE
  5
3DF
330
1F
100
AcDbEntity
  8
0
  6
Continuous
 62
     7
370
    25
100
AcDbLine
 10
94.4567808219
 20
400.2204931507
 30
0.0
 11
94.4567808219
 21
400.1604931507
 31
0.0
  0
LINE
  5
3E0
330
1F
100
AcDbEntity
  8
0
  6
Continuous
 62
     7
370
    25
100
AcDbLine
 10
69.2567808219
 20
400.1604931507
 30
0.0
 11
74.0067808219
 21
400.1604931507
 31
0.0
  0
ARC
  5
3E1
330
1F
100
AcDbEntity
  8
0
  6
Continuous
 62
     7
370
    25
100
AcDbCircle
 10
94.4867808219
 20
400.2204931507
 30
0.0
 40
0.0300000000000011
100
AcDbArc
 50
0.0
 51
180.0
  0
LINE
  5
3E2
330
1F
100
AcDbEntity
  8
0
  6
Continuous
 62
     7
370
    25
100
AcDbLine
 10
69.2567808219
 20
403.5104931507
 30
0.0
 11
69.2567808219
 21
400.1604931507
 31
0.0
  0
LINE
  5
3E3
330
1F
100
AcDbEntity
  8
0
  6
Continuous
 62
     7
370
    25
100
AcDbLine
 10
74.0067808219
 20
399.8104931507
 30
0.0
 11
94.4567808219
 21
399.8104931507
 31
0.0
  0
LINE
  5
3E4
330
1F
100
AcDbEntity
  8
0
  6
Continuous
 62
     7
370
    25
100
AcDbLine
 10
74.0067808219
 20
400.0104931507
 30
0.0
 11
74.0067808219
 21
400.1604931507
 31
0.0
  0
LINE
  5
3E5
330
1F
100
AcDbEntity
  8
0
  6
Continuous
 62
     7
370
    25
100
AcDbLine
 10
94.4567808219
 20
400.1604931507
 30
0.0
 11
94.4567808219
 21
400.0104931507
 31
0.0
  0
ARC
  5
3E6
330
1F
100
AcDbEntity
  8
0
  6
Continuous
 62
     7
370
    25
100
AcDbCircle
 10
69.4067808219
 20
400.1604931507
 30
0.0
 40
0.3500000000000085
100
AcDbArc
 50
180.0
 51
270.0
  0
ARC
  5
3E7
330
1F
100
AcDbEntity
  8
0
  6
Continuous
 62
     7
370
    25
100
AcDbCircle
 10
69.4067808219
 20
400.1604931507
 30
0.0
 40
0.1500000000000341
100
AcDbArc
 50
180.0
 51
270.0
  0
LINE
  5
3E8
330
1F
100
AcDbEntity
  8
0
  6
Continuous
 62
     7
370
    25
100
AcDbLine
 10
74.0067808219
 20
399.8104931507
 30
0.0
 11
74.0067808219
 21
400.0104931507
 31
0.0
  0
LINE
  5
3E9
330
1F
100
AcDbEntity
  8
0
  6
Continuous
 62
     7
370
    25
100
AcDbLine
 10
69.4067808219
 20
400.0104931507
 30
0.0
 11
74.0067808219
 21
400.0104931507
 31
0.0
  0
LINE
  5
3EA
330
1F
100
AcDbEntity
  8
0
  6
Continuous
 62
     7
370
    25
100
AcDbLine
 10
69.4067808219
 20
399.8104931507
 30
0.0
 11
74.0067808219
 21
399.8104931507
 31
0.0
  0
LINE
  5
3EB
330
1F
100
AcDbEntity
  8
0
  6
Continuous
 62
     7
370
    25
100
AcDbLine
 10
69.0567808219
 20
403.5104931507
 30
0.0
 11
69.2567808219
 21
403.5104931507
 31
0.0
  0
LINE
  5
3EC
330
1F
100
AcDbEntity
  8
0
  6
Continuous
 62
     7
370
    25
100
AcDbLine
 10
69.0567808219
 20
400.1604931507
 30
0.0
 11
69.0567808219
 21
403.5104931507
 31
0.0
  0
LINE
  5
3ED
330
1F
100
AcDbEntity
  8
0
  6
Continuous
 62
     7
370
    25
100
AcDbLine
 10
106.9567808219
 20
389.8104931507
 30
0.0
 11
129.4067808219
 21
389.8104931507
 31
0.0
  0
LINE
  5
3EE
330
1F
100
AcDbEntity
  8
0
  6
Continuous
 62
     7
370
    25
100
AcDbLine
 10
129.4067808219
 20
389.8104931507
 30
0.0
 11
129.4067808219
 21
353.8104931507
 31
0.0
  0
LINE
  5
3EF
330
1F
100
AcDbEntity
  8
0
  6
Continuous
 62
     7
370
    25
100
AcDbLine
 10
69.4067808219
 20
353.8104931507
 30
0.0
 11
129.4067808219
 21
353.8104931507
 31
0.0
  0
LINE
  5
3F0
330
1F
100
AcDbEntity
  8
0
  6
Continuous
 62
     7
370
    25
100
AcDbLine
 10
69.4067808219
 20
399.8104931507
 30
0.0
 11
69.4067808219
 21
353.8104931507
 31
0.0
  0
LINE
  5
3F1
330
1F
100
AcDbEntity
  8
0
  6
PHANTOM
 62
     1
370
    18
100
AcDbLine
 10
115.3869899265
 20
389.9955286381
 30
0.0
 11
113.3869899265
 21
389.9955286381
 31
0.0
  0
LINE
  5
3F2
330
1F
100
AcDbEntity
  8
0
  6
PHANTOM
 62
     1
370
    18
100
AcDbLine
 10
115.3869899265
 20
390.6463570109
 30
0.0
 11
113.3869899265
 21
390.6463570109
 31
0.0
  0
LINE
  5
3F3
330
1F
100
AcDbEntity
  8
0
  6
PHANTOM
 62
     1
370
    18
100
AcDbLine
 10
115.3869899265
 20
390.7584684087
 30
0.0
 11
113.3869899265
 21
390.7584684087
 31
0.0
  0
LINE
  5
3F4
330
1F
100
AcDbEntity
  8
0
  6
PHANTOM
 62
     1
370
    18
100
AcDbLine
 10
74.0067808219
 20
400.1604931507
 30
0.0
 11
94.4567808219
 21
400.1604931507
 31
0.0
  0
LINE
  5
3F5
330
1F
100
AcDbEntity
  8
0
  6
PHANTOM
 62
     1
370
    18
100
AcDbLine
 10
69.4067808219
 20
400.0104931507
 30
0.0
 11
69.4067808219
 21
399.8104931507
 31
0.0
  0
LINE
  5
3F6
330
1F
100
AcDbEntity
  8
0
  6
PHANTOM
 62
     1
370
    18
100
AcDbLine
 10
69.2567808219
 20
400.1604931507
 30
0.0
 11
69.0567808219
 21
400.1604931507
 31
0.0
  0
LINE
  5
3F7
330
1F
100
AcDbEntity
  8
0
  6
Continuous
 62
     7
370
    25
100
AcDbLine
 10
349.7157263923
 20
313.8931154417
 30
0.0
 11
351.1299399547
 21
313.0767073299
 31
0.0
  0
LINE
  5
3F8
330
1F
100
AcDbEntity
  8
0
  6
Continuous
 62
     7
370
    25
100
AcDbLine
 10
351.7627542236
 20
313.009650122
 30
0.0
 11
351.1988597157
 21
313.3351794923
 31
0.0
  0
LINE
  5
3F9
330
1F
100
AcDbEntity
  8
0
  6
Continuous
 62
     7
370
    25
100
AcDbLine
 10
258.8664992862
 20
301.2744320553
 30
0.0
 11
273.257873551
 21
292.9664685322
 31
0.0
  0
ARC
  5
3FA
330
1F
100
AcDbEntity
  8
0
  6
Continuous
 62
     7
370
    25
100
AcDbCircle
 10
310.1488191254
 20
324.9272657005
 30
0.0
 40
0.1528153608919544
100
AcDbArc
 50
110.7834207994
 51
249.2165792006
  0
LINE
  5
3FB
330
1F
100
AcDbEntity
  8
0
  6
Continuous
 62
     7
370
    25
100
AcDbLine
 10
310.0945946661
 20
324.7843942809
 30
0.0
 11
310.6956354301
 21
324.4374208334
 31
0.0
  0
ARC
  5
3FC
330
1F
100
AcDbEntity
  8
0
  6
Continuous
 62
     7
370
    25
100
AcDbCircle
 10
310.9431228035
 20
324.9150697131
 30
0.0
 40
0.5379576677688451
100
AcDbArc
 50
242.6096722366
 51
297.3903277634
  0
LINE
  5
3FD
330
1F
100
AcDbEntity
  8
0
  6
Continuous
 62
     7
370
    25
100
AcDbLine
 10
311.1906101769
 20
324.4374208334
 30
0.0
 11
311.261320855
 21
324.478241239
 31
0.0
  0
ARC
  5
3FE
330
1F
100
AcDbEntity
  8
0
  6
Continuous
 62
     7
370
    25
100
AcDbCircle
 10
311.2070963956
 20
324.6211126585
 30
0.0
 40
0.152815360892068
100
AcDbArc
 50
290.7834207995
 51
69.2165792005
  0
LINE
  5
3FF
330
1F
100
AcDbEntity
  8
0
  6
Continuous
 62
     7
370
    25
100
AcDbLine
 10
311.261320855
 20
324.7639840781
 30
0.0
 11
310.660280091
 21
325.1109575256
 31
0.0
  0
ARC
  5
400
330
1F
100
AcDbEntity
  8
0
  6
Continuous
 62
     7
370
    25
100
AcDbCircle
 10
310.4127927176
 20
324.6333086459
 30
0.0
 40
0.537957667769148
100
AcDbArc
 50
62.6096722366
 51
117.3903277634
  0
LINE
  5
401
330
1F
100
AcDbEntity
  8
0
  6
Continuous
 62
     7
370
    25
100
AcDbLine
 10
310.1653053442
 20
325.1109575256
 30
0.0
 11
310.0945946661
 21
325.07013712
 31
0.0
  0
LINE
  5
402
330
1F
100
AcDbEntity
  8
0
  6
Continuous
 62
     7
370
    25
100
AcDbLine
 10
310.0238839879
 20
324.7435738753
 30
0.0
 11
310.6249247519
 21
324.3966004278
 31
0.0
  0
LWPOLYLINE
  5
403
330
1F
100
AcDbEntity
  8
0
  6
Continuous
 62
     7
370
    25
100
AcDbPolyline
 90
        9
 70
   128
 43
0.0
 10
310.0238839879
 20
325.1109575256
 10
309.9679207139
 20
325.0715914414
 10
309.9263362498
 20
325.0266789999
 10
309.9007286633
 20
324.977946161
 10
309.8920820395
 20
324.9272657005
 10
309.9007286633
 20
324.8765852399
 10
309.9263362498
 20
324.8278524011
 10
309.9679207139
 20
324.7829399596
 10
310.0238839879
 20
324.7435738753
  0
LINE
  5
404
330
1F
100
AcDbEntity
  8
0
  6
Continuous
 62
     7
370
    25
100
AcDbLine
 10
310.0945946661
 20
325.1517779312
 30
0.0
 11
310.0238839879
 21
325.1109575256
 31
0.0
  0
ARC
  5
405
330
1F
100
AcDbEntity
  8
0
  6
Continuous
 62
     7
370
    25
100
AcDbCircle
 10
310.4127927176
 20
324.537657943
 30
0.0
 40
0.6916598585604653
100
AcDbArc
 50
62.6096722366
 51
117.3903277634
  0
LINE
  5
406
330
1F
100
AcDbEntity
  8
0
  6
Continuous
 62
     7
370
    25
100
AcDbLine
 10
311.3320315331
 20
324.8048044837
 30
0.0
 11
310.7309907691
 21
325.1517779312
 31
0.0
  0
LWPOLYLINE
  5
407
330
1F
100
AcDbEntity
  8
0
  6
Continuous
 62
     7
370
    25
100
AcDbPolyline
 90
        9
 70
   128
 43
0.0
 10
311.3320315331
 20
324.4374208334
 10
311.3879948071
 20
324.4767869176
 10
311.4295792712
 20
324.5216993591
 10
311.4551868578
 20
324.570432198
 10
311.4638334816
 20
324.6211126585
 10
311.4551868578
 20
324.6717931191
 10
311.4295792712
 20
324.720525958
 10
311.3879948071
 20
324.7654383995
 10
311.3320315331
 20
324.8048044837
  0
LINE
  5
408
330
1F
100
AcDbEntity
  8
0
  6
Continuous
 62
     7
370
    25
100
AcDbLine
 10
311.261320855
 20
324.3966004278
 30
0.0
 11
311.3320315331
 21
324.4374208334
 31
0.0
  0
ARC
  5
409
330
1F
100
AcDbEntity
  8
0
  6
Continuous
 62
     7
370
    25
100
AcDbCircle
 10
310.9431228035
 20
325.010720416
 30
0.0
 40
0.6916598585603158
100
AcDbArc
 50
242.6096722366
 51
297.3903277634
  0
ARC
  5
40A
330
1F
100
AcDbEntity
  8
0
  6
Continuous
 62
     7
370
    25
100
AcDbCircle
 10
290.7363550803
 20
312.8036052399
 30
0.0
 40
0.1528153608920479
100
AcDbArc
 50
290.7834207995
 51
69.2165792005
  0
LINE
  5
40B
330
1F
100
AcDbEntity
  8
0
  6
Continuous
 62
     7
370
    25
100
AcDbLine
 10
290.7905795397
 20
312.9464766595
 30
0.0
 11
290.1895387756
 21
313.293450107
 31
0.0
  0
ARC
  5
40C
330
1F
100
AcDbEntity
  8
0
  6
Continuous
 62
     7
370
    25
100
AcDbCircle
 10
289.9420514022
 20
312.8158012273
 30
0.0
 40
0.5379576677693237
100
AcDbArc
 50
62.6096722366
 51
117.3903277634
  0
LINE
  5
40D
330
1F
100
AcDbEntity
  8
0
  6
Continuous
 62
     7
370
    25
100
AcDbLine
 10
289.6945640288
 20
313.293450107
 30
0.0
 11
289.6238533507
 21
313.2526297014
 31
0.0
  0
ARC
  5
40E
330
1F
100
AcDbEntity
  8
0
  6
Continuous
 62
     7
370
    25
100
AcDbCircle
 10
289.6780778101
 20
313.1097582818
 30
0.0
 40
0.1528153608920277
100
AcDbArc
 50
110.7834207995
 51
249.2165792005
  0
LINE
  5
40F
330
1F
100
AcDbEntity
  8
0
  6
Continuous
 62
     7
370
    25
100
AcDbLine
 10
289.6238533507
 20
312.9668868623
 30
0.0
 11
290.2248941147
 21
312.6199134148
 31
0.0
  0
ARC
  5
410
330
1F
100
AcDbEntity
  8
0
  6
Continuous
 62
     7
370
    25
100
AcDbCircle
 10
290.4723814881
 20
313.0975622945
 30
0.0
 40
0.5379576677685424
100
AcDbArc
 50
242.6096722366
 51
297.3903277634
  0
LINE
  5
411
330
1F
100
AcDbEntity
  8
0
  6
Continuous
 62
     7
370
    25
100
AcDbLine
 10
290.7198688615
 20
312.6199134148
 30
0.0
 11
290.7905795397
 21
312.6607338203
 31
0.0
  0
LINE
  5
412
330
1F
100
AcDbEntity
  8
0
  6
Continuous
 62
     7
370
    25
100
AcDbLine
 10
290.8612902178
 20
312.9872970651
 30
0.0
 11
290.2602494538
 21
313.3342705126
 31
0.0
  0
LWPOLYLINE
  5
413
330
1F
100
AcDbEntity
  8
0
  6
Continuous
 62
     7
370
    25
100
AcDbPolyline
 90
        9
 70
   128
 43
0.0
 10
290.8612902178
 20
312.6199134148
 10
290.9172534918
 20
312.659279499
 10
290.9588379559
 20
312.7041919405
 10
290.9844455424
 20
312.7529247794
 10
290.9930921662
 20
312.8036052399
 10
290.9844455424
 20
312.8542857005
 10
290.9588379559
 20
312.9030185393
 10
290.9172534918
 20
312.9479309808
 10
290.8612902178
 20
312.9872970651
  0
LINE
  5
414
330
1F
100
AcDbEntity
  8
0
  6
Continuous
 62
     7
370
    25
100
AcDbLine
 10
290.7905795397
 20
312.5790930092
 30
0.0
 11
290.8612902178
 21
312.6199134148
 31
0.0
  0
ARC
  5
415
330
1F
100
AcDbEntity
  8
0
  6
Continuous
 62
     7
370
    25
100
AcDbCircle
 10
290.4723814881
 20
313.1932129974
 30
0.0
 40
0.6916598585605924
100
AcDbArc
 50
242.6096722366
 51
297.3903277634
  0
LINE
  5
416
330
1F
100
AcDbEntity
  8
0
  6
Continuous
 62
     7
370
    25
100
AcDbLine
 10
289.5531426726
 20
312.9260664567
 30
0.0
 11
290.1541834366
 21
312.5790930092
 31
0.0
  0
LWPOLYLINE
  5
417
330
1F
100
AcDbEntity
  8
0
  6
Continuous
 62
     7
370
    25
100
AcDbPolyline
 90
        9
 70
   128
 43
0.0
 10
289.5531426726
 20
313.293450107
 10
289.4971793986
 20
313.2540840228
 10
289.4555949345
 20
313.2091715813
 10
289.4299873479
 20
313.1604387424
 10
289.4213407241
 20
313.1097582818
 10
289.4299873479
 20
313.0590778213
 10
289.4555949345
 20
313.0103449824
 10
289.4971793986
 20
312.9654325409
 10
289.5531426726
 20
312.9260664567
  0
LINE
  5
418
330
1F
100
AcDbEntity
  8
0
  6
Continuous
 62
     7
370
    25
100
AcDbLine
 10
289.6238533507
 20
313.3342705126
 30
0.0
 11
289.5531426726
 21
313.293450107
 31
0.0
  0
ARC
  5
419
330
1F
100
AcDbEntity
  8
0
  6
Continuous
 62
     7
370
    25
100
AcDbCircle
 10
289.9420514022
 20
312.7201505244
 30
0.0
 40
0.6916598585598354
100
AcDbArc
 50
62.6096722366
 51
117.3903277634
  0
ARC
  5
41A
330
1F
100
AcDbEntity
  8
0
  6
Continuous
 62
     7
370
    25
100
AcDbCircle
 10
304.9138460431
 20
320.9880965609
 30
0.0
 40
0.1528153608919746
100
AcDbArc
 50
290.7834207995
 51
69.2165792005
  0
LINE
  5
41B
330
1F
100
AcDbEntity
  8
0
  6
Continuous
 62
     7
370
    25
100
AcDbLine
 10
304.9680705024
 20
321.1309679805
 30
0.0
 11
304.3670297384
 21
321.477941428
 31
0.0
  0
ARC
  5
41C
330
1F
100
AcDbEntity
  8
0
  6
Continuous
 62
     7
370
    25
100
AcDbCircle
 10
304.119542365
 20
321.0002925483
 30
0.0
 40
0.5379576677686433
100
AcDbArc
 50
62.6096722366
 51
117.3903277634
  0
LINE
  5
41D
330
1F
100
AcDbEntity
  8
0
  6
Continuous
 62
     7
370
    25
100
AcDbLine
 10
303.8720549916
 20
321.477941428
 30
0.0
 11
303.8013443135
 21
321.4371210224
 31
0.0
  0
ARC
  5
41E
330
1F
100
AcDbEntity
  8
0
  6
Continuous
 62
     7
370
    25
100
AcDbCircle
 10
303.8555687729
 20
321.2942496029
 30
0.0
 40
0.1528153608920075
100
AcDbArc
 50
110.7834207994
 51
249.2165792005
  0
LINE
  5
41F
330
1F
100
AcDbEntity
  8
0
  6
Continuous
 62
     7
370
    25
100
AcDbLine
 10
303.8013443135
 20
321.1513781833
 30
0.0
 11
304.4023850775
 21
320.8044047358
 31
0.0
  0
ARC
  5
420
330
1F
100
AcDbEntity
  8
0
  6
Continuous
 62
     7
370
    25
100
AcDbCircle
 10
304.6498724509
 20
321.2820536155
 30
0.0
 40
0.5379576677694266
100
AcDbArc
 50
242.6096722366
 51
297.3903277634
  0
LINE
  5
421
330
1F
100
AcDbEntity
  8
0
  6
Continuous
 62
     7
370
    25
100
AcDbLine
 10
304.8973598243
 20
320.8044047358
 30
0.0
 11
304.9680705024
 21
320.8452251414
 31
0.0
  0
LINE
  5
422
330
1F
100
AcDbEntity
  8
0
  6
Continuous
 62
     7
370
    25
100
AcDbLine
 10
305.0387811806
 20
321.1717883861
 30
0.0
 11
304.4377404166
 21
321.5187618336
 31
0.0
  0
LWPOLYLINE
  5
423
330
1F
100
AcDbEntity
  8
0
  6
Continuous
 62
     7
370
    25
100
AcDbPolyline
 90
        9
 70
   128
 43
0.0
 10
305.0387811806
 20
320.8044047358
 10
305.0947444546
 20
320.84377082
 10
305.1363289187
 20
320.8886832615
 10
305.1619365052
 20
320.9374161004
 10
305.170583129
 20
320.9880965609
 10
305.1619365052
 20
321.0387770215
 10
305.1363289187
 20
321.0875098603
 10
305.0947444546
 20
321.1324223019
 10
305.0387811806
 20
321.1717883861
  0
LINE
  5
424
330
1F
100
AcDbEntity
  8
0
  6
Continuous
 62
     7
370
    25
100
AcDbLine
 10
304.9680705024
 20
320.7635843302
 30
0.0
 11
305.0387811806
 21
320.8044047358
 31
0.0
  0
ARC
  5
425
330
1F
100
AcDbEntity
  8
0
  6
Continuous
 62
     7
370
    25
100
AcDbCircle
 10
304.6498724509
 20
321.3777043184
 30
0.0
 40
0.6916598585603158
100
AcDbArc
 50
242.6096722366
 51
297.3903277634
  0
LINE
  5
426
330
1F
100
AcDbEntity
  8
0
  6
Continuous
 62
     7
370
    25
100
AcDbLine
 10
303.7306336354
 20
321.1105577777
 30
0.0
 11
304.3316743994
 21
320.7635843302
 31
0.0
  0
LWPOLYLINE
  5
427
330
1F
100
AcDbEntity
  8
0
  6
Continuous
 62
     7
370
    25
100
AcDbPolyline
 90
        9
 70
   128
 43
0.0
 10
303.7306336354
 20
321.477941428
 10
303.6746703614
 20
321.4385753438
 10
303.6330858973
 20
321.3936629023
 10
303.6074783107
 20
321.3449300634
 10
303.5988316869
 20
321.2942496029
 10
303.6074783107
 20
321.2435691423
 10
303.6330858973
 20
321.1948363035
 10
303.6746703614
 20
321.1499238619
 10
303.7306336354
 20
321.1105577777
  0
LINE
  5
428
330
1F
100
AcDbEntity
  8
0
  6
Continuous
 62
     7
370
    25
100
AcDbLine
 10
303.8013443135
 20
321.5187618336
 30
0.0
 11
303.7306336354
 21
321.477941428
 31
0.0
  0
ARC
  5
429
330
1F
100
AcDbEntity
  8
0
  6
Continuous
 62
     7
370
    25
100
AcDbCircle
 10
304.119542365
 20
320.9046418454
 30
0.0
 40
0.6916598585608953
100
AcDbArc
 50
62.6096722366
 51
117.3903277634
  0
ARC
  5
42A
330
1F
100
AcDbEntity
  8
0
  6
Continuous
 62
     7
370
    25
100
AcDbCircle
 10
295.9713281626
 20
316.7427743795
 30
0.0
 40
0.1528153608920479
100
AcDbArc
 50
110.7834207995
 51
249.2165792005
  0
LINE
  5
42B
330
1F
100
AcDbEntity
  8
0
  6
Continuous
 62
     7
370
    25
100
AcDbLine
 10
295.9171037033
 20
316.5999029599
 30
0.0
 11
296.5181444673
 21
316.2529295124
 31
0.0
  0
ARC
  5
42C
330
1F
100
AcDbEntity
  8
0
  6
Continuous
 62
     7
370
    25
100
AcDbCircle
 10
296.7656318407
 20
316.7305783921
 30
0.0
 40
0.53795766776892
100
AcDbArc
 50
242.6096722366
 51
297.3903277634
  0
LINE
  5
42D
330
1F
100
AcDbEntity
  8
0
  6
Continuous
 62
     7
370
    25
100
AcDbLine
 10
297.0131192141
 20
316.2529295124
 30
0.0
 11
297.0838298922
 21
316.293749918
 31
0.0
  0
ARC
  5
42E
330
1F
100
AcDbEntity
  8
0
  6
Continuous
 62
     7
370
    25
100
AcDbCircle
 10
297.0296054328
 20
316.4366213375
 30
0.0
 40
0.1528153608919874
100
AcDbArc
 50
290.7834207994
 51
69.2165792006
  0
LINE
  5
42F
330
1F
100
AcDbEntity
  8
0
  6
Continuous
 62
     7
370
    25
100
AcDbLine
 10
297.0838298922
 20
316.5794927571
 30
0.0
 11
296.4827891282
 21
316.9264662046
 31
0.0
  0
ARC
  5
430
330
1F
100
AcDbEntity
  8
0
  6
Continuous
 62
     7
370
    25
100
AcDbCircle
 10
296.2353017548
 20
316.4488173249
 30
0.0
 40
0.5379576677691742
100
AcDbArc
 50
62.6096722366
 51
117.3903277634
  0
LINE
  5
431
330
1F
100
AcDbEntity
  8
0
  6
Continuous
 62
     7
370
    25
100
AcDbLine
 10
295.9878143814
 20
316.9264662046
 30
0.0
 11
295.9171037033
 21
316.885645799
 31
0.0
  0
LINE
  5
432
330
1F
100
AcDbEntity
  8
0
  6
Continuous
 62
     7
370
    25
100
AcDbLine
 10
295.8463930251
 20
316.5590825543
 30
0.0
 11
296.4474337891
 21
316.2121091068
 31
0.0
  0
LWPOLYLINE
  5
433
330
1F
100
AcDbEntity
  8
0
  6
Continuous
 62
     7
370
    25
100
AcDbPolyline
 90
        9
 70
   128
 43
0.0
 10
295.8463930251
 20
316.9264662046
 10
295.7904297511
 20
316.8871001204
 10
295.748845287
 20
316.8421876789
 10
295.7232377005
 20
316.79345484
 10
295.7145910767
 20
316.7427743795
 10
295.7232377005
 20
316.6920939189
 10
295.748845287
 20
316.6433610801
 10
295.7904297511
 20
316.5984486385
 10
295.8463930251
 20
316.5590825543
  0
LINE
  5
434
330
1F
100
AcDbEntity
  8
0
  6
Continuous
 62
     7
370
    25
100
AcDbLine
 10
295.9171037033
 20
316.9672866102
 30
0.0
 11
295.8463930251
 21
316.9264662046
 31
0.0
  0
ARC
  5
435
330
1F
100
AcDbEntity
  8
0
  6
Continuous
 62
     7
370
    25
100
AcDbCircle
 10
296.2353017548
 20
316.353166622
 30
0.0
 40
0.6916598585602391
100
AcDbArc
 50
62.6096722366
 51
117.3903277634
  0
LINE
  5
436
330
1F
100
AcDbEntity
  8
0
  6
Continuous
 62
     7
370
    25
100
AcDbLine
 10
297.1545405703
 20
316.6203131627
 30
0.0
 11
296.5534998063
 21
316.9672866102
 31
0.0
  0
LWPOLYLINE
  5
437
330
1F
100
AcDbEntity
  8
0
  6
Continuous
 62
     7
370
    25
100
AcDbPolyline
 90
        9
 70
   128
 43
0.0
 10
297.1545405703
 20
316.2529295124
 10
297.2105038443
 20
316.2922955966
 10
297.2520883084
 20
316.3372080381
 10
297.277695895
 20
316.385940877
 10
297.2863425188
 20
316.4366213375
 10
297.277695895
 20
316.4873017981
 10
297.2520883084
 20
316.5360346369
 10
297.2105038443
 20
316.5809470784
 10
297.1545405703
 20
316.6203131627
  0
LINE
  5
438
330
1F
100
AcDbEntity
  8
0
  6
Continuous
 62
     7
370
    25
100
AcDbLine
 10
297.0838298922
 20
316.2121091068
 30
0.0
 11
297.1545405703
 21
316.2529295124
 31
0.0
  0
ARC
  5
439
330
1F
100
AcDbEntity
  8
0
  6
Continuous
 62
     7
370
    25
100
AcDbCircle
 10
296.7656318407
 20
316.826229095
 30
0.0
 40
0.6916598585602391
100
AcDbArc
 50
242.6096722366
 51
297.3903277634
  0
LWPOLYLINE
  5
43A
330
1F
100
AcDbEntity
  8
0
  6
Continuous
 62
     7
370
    25
100
AcDbPolyline
 90
        9
 70
   128
 43
0.0
 10
305.0387811806
 20
321.1717883861
 10
305.0947444546
 20
321.1324223019
 10
305.1363289187
 20
321.0875098603
 10
305.1619365052
 20
321.0387770215
 10
305.170583129
 20
320.9880965609
 10
305.1619365052
 20
320.9374161004
 10
305.1363289187
 20
320.8886832615
 10
305.0947444546
 20
320.84377082
 10
305.0387811806
 20
320.8044047358
  0
LWPOLYLINE
  5
43B
330
1F
100
AcDbEntity
  8
0
  6
Continuous
 62
     7
370
    25
100
AcDbPolyline
 90
        9
 70
   128
 43
0.0
 10
303.7306336354
 20
321.1105577777
 10
303.6746703614
 20
321.1499238619
 10
303.6330858973
 20
321.1948363035
 10
303.6074783107
 20
321.2435691423
 10
303.5988316869
 20
321.2942496029
 10
303.6074783107
 20
321.3449300634
 10
303.6330858973
 20
321.3936629023
 10
303.6746703614
 20
321.4385753438
 10
303.7306336354
 20
321.477941428
  0
LWPOLYLINE
  5
43C
330
1F
100
AcDbEntity
  8
0
  6
Continuous
 62
     7
370
    25
100
AcDbPolyline
 90
        9
 70
   128
 43
0.0
 10
311.3320315331
 20
324.4374208334
 10
311.3879948071
 20
324.4767869176
 10
311.4295792712
 20
324.5216993591
 10
311.4551868578
 20
324.570432198
 10
311.4638334816
 20
324.6211126585
 10
311.4551868578
 20
324.6717931191
 10
311.4295792712
 20
324.720525958
 10
311.3879948071
 20
324.7654383995
 10
311.3320315331
 20
324.8048044837
  0
LWPOLYLINE
  5
43D
330
1F
100
AcDbEntity
  8
0
  6
Continuous
 62
     7
370
    25
100
AcDbPolyline
 90
        9
 70
   128
 43
0.0
 10
310.0238839879
 20
324.7435738753
 10
309.9679207139
 20
324.7829399596
 10
309.9263362498
 20
324.8278524011
 10
309.9007286633
 20
324.8765852399
 10
309.8920820395
 20
324.9272657005
 10
309.9007286633
 20
324.977946161
 10
309.9263362498
 20
325.0266789999
 10
309.9679207139
 20
325.0715914414
 10
310.0238839879
 20
325.1109575256
  0
LINE
  5
43E
330
1F
100
AcDbEntity
  8
0
  6
Continuous
 62
     7
370
    25
100
AcDbLine
 10
289.2526222906
 20
325.4681360746
 30
0.0
 11
303.18262588
 21
333.509755976
 31
0.0
  0
LINE
  5
43F
330
1F
100
AcDbEntity
  8
0
  6
Continuous
 62
     7
370
    25
100
AcDbLine
 10
303.18262588
 20
333.509755976
 30
0.0
 11
325.8100428779
 21
320.4472261869
 31
0.0
  0
LINE
  5
440
330
1F
100
AcDbEntity
  8
0
  6
Continuous
 62
     7
370
    25
100
AcDbLine
 10
325.8100428779
 20
320.4472261869
 30
0.0
 11
311.8800392885
 21
312.4056062854
 31
0.0
  0
LINE
  5
441
330
1F
100
AcDbEntity
  8
0
  6
Continuous
 62
     7
370
    25
100
AcDbLine
 10
311.8800392885
 20
312.4056062854
 30
0.0
 11
289.2526222906
 21
325.4681360746
 31
0.0
  0
LWPOLYLINE
  5
442
330
1F
100
AcDbEntity
  8
0
  6
Continuous
 62
     7
370
    25
100
AcDbPolyline
 90
        9
 70
   128
 43
0.0
 10
290.8612902178
 20
312.9872970651
 10
290.9172534918
 20
312.9479309808
 10
290.9588379559
 20
312.9030185393
 10
290.9844455424
 20
312.8542857005
 10
290.9930921662
 20
312.8036052399
 10
290.9844455424
 20
312.7529247794
 10
290.9588379559
 20
312.7041919405
 10
290.9172534918
 20
312.659279499
 10
290.8612902178
 20
312.6199134148
  0
LWPOLYLINE
  5
443
330
1F
100
AcDbEntity
  8
0
  6
Continuous
 62
     7
370
    25
100
AcDbPolyline
 90
        9
 70
   128
 43
0.0
 10
289.5531426726
 20
312.9260664567
 10
289.4971793986
 20
312.9654325409
 10
289.4555949345
 20
313.0103449824
 10
289.4299873479
 20
313.0590778213
 10
289.4213407241
 20
313.1097582818
 10
289.4299873479
 20
313.1604387424
 10
289.4555949345
 20
313.2091715813
 10
289.4971793986
 20
313.2540840228
 10
289.5531426726
 20
313.293450107
  0
LWPOLYLINE
  5
444
330
1F
100
AcDbEntity
  8
0
  6
Continuous
 62
     7
370
    25
100
AcDbPolyline
 90
        9
 70
   128
 43
0.0
 10
297.1545405703
 20
316.2529295124
 10
297.2105038443
 20
316.2922955966
 10
297.2520883084
 20
316.3372080381
 10
297.277695895
 20
316.385940877
 10
297.2863425188
 20
316.4366213375
 10
297.277695895
 20
316.4873017981
 10
297.2520883084
 20
316.5360346369
 10
297.2105038443
 20
316.5809470784
 10
297.1545405703
 20
316.6203131627
  0
LWPOLYLINE
  5
445
330
1F
100
AcDbEntity
  8
0
  6
Continuous
 62
     7
370
    25
100
AcDbPolyline
 90
        9
 70
   128
 43
0.0
 10
295.8463930251
 20
316.5590825543
 10
295.7904297511
 20
316.5984486385
 10
295.748845287
 20
316.6433610801
 10
295.7232377005
 20
316.6920939189
 10
295.7145910767
 20
316.7427743795
 10
295.7232377005
 20
316.79345484
 10
295.748845287
 20
316.8421876789
 10
295.7904297511
 20
316.8871001204
 10
295.8463930251
 20
316.9264662046
  0
LINE
  5
446
330
1F
100
AcDbEntity
  8
0
  6
Continuous
 62
     7
370
    25
100
AcDbLine
 10
275.0751313278
 20
317.2836447535
 30
0.0
 11
289.0051349172
 21
325.325264655
 31
0.0
  0
LINE
  5
447
330
1F
100
AcDbEntity
  8
0
  6
Continuous
 62
     7
370
    25
100
AcDbLine
 10
289.0051349172
 20
325.325264655
 30
0.0
 11
311.6325519151
 21
312.2627348658
 31
0.0
  0
LINE
  5
448
330
1F
100
AcDbEntity
  8
0
  6
Continuous
 62
     7
370
    25
100
AcDbLine
 10
311.6325519151
 20
312.2627348658
 30
0.0
 11
297.7025483258
 21
304.2211149644
 31
0.0
  0
LINE
  5
449
330
1F
100
AcDbEntity
  8
0
  6
Continuous
 62
     7
370
    25
100
AcDbLine
 10
297.7025483258
 20
304.2211149644
 30
0.0
 11
275.0751313278
 21
317.2836447535
 31
0.0
  0
LINE
  5
44A
330
1F
100
AcDbEntity
  8
0
  6
Continuous
 62
     7
370
    25
100
AcDbLine
 10
311.8800392885
 20
312.4074954471
 30
0.0
 11
289.2558947691
 21
325.4681360746
 31
0.0
  0
LINE
  5
44B
330
1F
100
AcDbEntity
  8
0
  6
Continuous
 62
     7
370
    25
100
AcDbLine
 10
325.8067703994
 20
320.4472261869
 30
0.0
 11
311.8800392885
 21
312.4074954471
 31
0.0
  0
LINE
  5
44C
330
1F
100
AcDbEntity
  8
0
  6
Continuous
 62
     7
370
    25
100
AcDbLine
 10
303.18262588
 20
333.5078668144
 30
0.0
 11
325.8067703994
 21
320.4472261869
 31
0.0
  0
LINE
  5
44D
330
1F
100
AcDbEntity
  8
0
  6
Continuous
 62
     7
370
    25
100
AcDbLine
 10
289.2558947691
 20
325.4681360746
 30
0.0
 11
303.18262588
 21
333.5078668144
 31
0.0
  0
LINE
  5
44E
330
1F
100
AcDbEntity
  8
0
  6
Continuous
 62
     7
370
    25
100
AcDbLine
 10
326.0221749123
 20
320.4472261869
 30
0.0
 11
311.8800392885
 21
312.2831450686
 31
0.0
  0
LINE
  5
44F
330
1F
100
AcDbEntity
  8
0
  6
Continuous
 62
     7
370
    25
100
AcDbLine
 10
311.8800392885
 20
312.2831450686
 30
0.0
 11
289.0404902562
 21
325.4681360746
 31
0.0
  0
LINE
  5
450
330
1F
100
AcDbEntity
  8
0
  6
Continuous
 62
     7
370
    25
100
AcDbLine
 10
289.0404902562
 20
325.4681360746
 30
0.0
 11
303.18262588
 21
333.6322171928
 31
0.0
  0
LINE
  5
451
330
1F
100
AcDbEntity
  8
0
  6
Continuous
 62
     7
370
    25
100
AcDbLine
 10
303.18262588
 20
333.6322171928
 30
0.0
 11
326.0221749123
 21
320.4472261869
 31
0.0
  0
LINE
  5
452
330
1F
100
AcDbEntity
  8
0
  6
Continuous
 62
     7
370
    25
100
AcDbLine
 10
326.0070405809
 20
320.3976689177
 30
0.0
 11
326.0221749123
 21
320.4472261869
 31
0.0
  0
LINE
  5
453
330
1F
100
AcDbEntity
  8
0
  6
Continuous
 62
     7
370
    25
100
AcDbLine
 10
311.8800392885
 20
312.242324663
 30
0.0
 11
311.8800392885
 21
312.2831450686
 31
0.0
  0
LINE
  5
454
330
1F
100
AcDbEntity
  8
0
  6
Continuous
 62
     7
370
    25
100
AcDbLine
 10
289.0556245876
 20
325.4185788054
 30
0.0
 11
289.0404902562
 21
325.4681360746
 31
0.0
  0
LINE
  5
455
330
1F
100
AcDbEntity
  8
0
  6
Continuous
 62
     7
370
    25
100
AcDbLine
 10
297.7025483258
 20
304.223004126
 30
0.0
 11
275.0784038063
 21
317.2836447535
 31
0.0
  0
LINE
  5
456
330
1F
100
AcDbEntity
  8
0
  6
Continuous
 62
     7
370
    25
100
AcDbLine
 10
311.6292794366
 20
312.2627348658
 30
0.0
 11
297.7025483258
 21
304.223004126
 31
0.0
  0
LINE
  5
457
330
1F
100
AcDbEntity
  8
0
  6
Continuous
 62
     7
370
    25
100
AcDbLine
 10
289.0051349172
 20
325.3233754933
 30
0.0
 11
311.6292794366
 21
312.2627348658
 31
0.0
  0
LINE
  5
458
330
1F
100
AcDbEntity
  8
0
  6
Continuous
 62
     7
370
    25
100
AcDbLine
 10
275.0784038063
 20
317.2836447535
 30
0.0
 11
289.0051349172
 21
325.3233754933
 31
0.0
  0
LINE
  5
459
330
1F
100
AcDbEntity
  8
0
  6
Continuous
 62
     7
370
    25
100
AcDbLine
 10
311.8446839495
 20
312.2627348658
 30
0.0
 11
297.7025483258
 21
304.0986537476
 31
0.0
  0
LINE
  5
45A
330
1F
100
AcDbEntity
  8
0
  6
Continuous
 62
     7
370
    25
100
AcDbLine
 10
297.7025483258
 20
304.0986537476
 30
0.0
 11
274.8629992934
 21
317.2836447535
 31
0.0
  0
LINE
  5
45B
330
1F
100
AcDbEntity
  8
0
  6
Continuous
 62
     7
370
    25
100
AcDbLine
 10
274.8629992934
 20
317.2836447535
 30
0.0
 11
289.0051349172
 21
325.4477258718
 31
0.0
  0
LINE
  5
45C
330
1F
100
AcDbEntity
  8
0
  6
Continuous
 62
     7
370
    25
100
AcDbLine
 10
289.0051349172
 20
325.4477258718
 30
0.0
 11
311.8446839495
 21
312.2627348658
 31
0.0
  0
LINE
  5
45D
330
1F
100
AcDbEntity
  8
0
  6
Continuous
 62
     7
370
    25
100
AcDbLine
 10
311.8295496181
 20
312.2131775967
 30
0.0
 11
311.8446839495
 21
312.2627348658
 31
0.0
  0
LINE
  5
45E
330
1F
100
AcDbEntity
  8
0
  6
Continuous
 62
     7
370
    25
100
AcDbLine
 10
297.7025483258
 20
304.057833342
 30
0.0
 11
297.7025483258
 21
304.0986537476
 31
0.0
  0
LINE
  5
45F
330
1F
100
AcDbEntity
  8
0
  6
Continuous
 62
     7
370
    25
100
AcDbLine
 10
274.8705664591
 20
317.258866119
 30
0.0
 11
274.8629992934
 21
317.2836447535
 31
0.0
  0
LINE
  5
460
330
1F
100
AcDbEntity
  8
0
  6
Continuous
 62
     7
370
    25
100
AcDbLine
 10
349.6432247971
 20
314.053361124
 30
0.0
 11
349.6432247971
 21
315.3539692757
 31
0.0
  0
LINE
  5
461
330
1F
100
AcDbEntity
  8
0
  6
Continuous
 62
     7
370
    25
100
AcDbLine
 10
349.6432247971
 20
315.3539692757
 30
0.0
 11
351.0574383595
 21
314.5375611639
 31
0.0
  0
LINE
  5
462
330
1F
100
AcDbEntity
  8
0
  6
Continuous
 62
     7
370
    25
100
AcDbLine
 10
351.0574383595
 20
313.2369530122
 30
0.0
 11
351.0574383595
 21
314.5375611639
 31
0.0
  0
LWPOLYLINE
  5
463
330
1F
100
AcDbEntity
  8
0
  6
Continuous
 62
     7
370
    25
100
AcDbPolyline
 90
       12
 70
   128
 43
0.0
 10
350.0851665353
 20
314.2823009289
 10
350.035362785
 20
314.319320932
 10
349.9895938383
 20
314.3698796148
 10
349.9515676231
 20
314.4298810134
 10
349.9243647973
 20
314.4944641713
 10
349.9101891719
 20
314.5583969453
 10
349.9101891719
 20
314.6164998821
 10
349.9243647973
 20
314.6640658273
 10
349.9515676231
 20
314.6972412711
 10
349.9895938383
 20
314.7133385362
 10
350.035362785
 20
314.7110535179
 10
350.0851665353
 20
314.6905713348
  0
LINE
  5
464
330
1F
100
AcDbEntity
  8
0
  6
Continuous
 62
     7
370
    25
100
AcDbLine
 10
350.6154966212
 20
313.976147887
 30
0.0
 11
350.0851665353
 21
314.2823009289
 31
0.0
  0
LWPOLYLINE
  5
465
330
1F
100
AcDbEntity
  8
0
  6
Continuous
 62
     7
370
    25
100
AcDbPolyline
 90
       12
 70
   128
 43
0.0
 10
350.6154966212
 20
314.3844182929
 10
350.6653003716
 20
314.3473982897
 10
350.7110693183
 20
314.296839607
 10
350.7490955334
 20
314.2368382084
 10
350.7762983593
 20
314.1722550505
 10
350.7904739846
 20
314.1083222765
 10
350.7904739846
 20
314.0502193397
 10
350.7762983593
 20
314.0026533945
 10
350.7490955334
 20
313.9694779507
 10
350.7110693183
 20
313.9533806856
 10
350.6653003716
 20
313.9556657039
 10
350.6154966212
 20
313.976147887
  0
LINE
  5
466
330
1F
100
AcDbEntity
  8
0
  6
Continuous
 62
     7
370
    25
100
AcDbLine
 10
350.0851665353
 20
314.6905713348
 30
0.0
 11
350.6154966212
 21
314.3844182929
 31
0.0
  0
LINE
  5
467
330
1F
100
AcDbEntity
  8
0
  6
Continuous
 62
     7
370
    25
100
AcDbLine
 10
349.7846461533
 20
315.4356100869
 30
0.0
 11
349.6432247971
 21
315.3539692757
 31
0.0
  0
LINE
  5
468
330
1F
100
AcDbEntity
  8
0
  6
Continuous
 62
     7
370
    25
100
AcDbLine
 10
349.7846461533
 20
315.4356100869
 30
0.0
 11
351.1988597157
 21
314.6192019751
 31
0.0
  0
LINE
  5
469
330
1F
100
AcDbEntity
  8
0
  6
Continuous
 62
     7
370
    25
100
AcDbLine
 10
351.1988597157
 20
314.6192019751
 30
0.0
 11
351.0574383595
 21
314.5375611639
 31
0.0
  0
LINE
  5
46A
330
1F
100
AcDbEntity
  8
0
  6
Continuous
 62
     7
370
    25
100
AcDbLine
 10
351.1988597157
 20
313.3185938233
 30
0.0
 11
351.1988597157
 21
314.6192019751
 31
0.0
  0
LINE
  5
46B
330
1F
100
AcDbEntity
  8
0
  6
Continuous
 62
     7
370
    25
100
AcDbLine
 10
350.7892804967
 20
314.0425561248
 30
0.0
 11
350.7569179775
 21
314.0577886981
 31
0.0
  0
ARC
  5
46C
330
1F
100
AcDbEntity
  8
0
  6
Continuous
 62
     7
370
    25
100
AcDbCircle
 10
349.8161812677
 20
314.0350894306
 30
0.0
 40
0.173918933707781
100
AcDbArc
 50
173.9694526887
 51
234.7183669179
  0
ARC
  5
46D
330
1F
100
AcDbEntity
  8
0
  6
Continuous
 62
     7
370
    25
100
AcDbCircle
 10
351.2260028131
 20
313.2178295026
 30
0.0
 40
0.1696457592885001
100
AcDbArc
 50
173.5275110927
 51
239.7360713913
  0
ARC
  5
46E
330
1F
100
AcDbEntity
  8
0
  6
Continuous
 62
     7
370
    25
100
AcDbCircle
 10
351.2711016244
 20
313.3103980335
 30
0.0
 40
0.072705325409546
100
AcDbArc
 50
173.5275110928
 51
239.7360713912
  0
LINE
  5
46F
330
1F
100
AcDbEntity
  8
0
  6
Continuous
 62
     7
370
    25
100
AcDbLine
 10
350.7569179775
 20
314.0577886981
 30
0.0
 11
350.2265878916
 21
314.3639417401
 31
0.0
  0
LINE
  5
470
330
1F
100
AcDbEntity
  8
0
  6
Continuous
 62
     7
370
    25
100
AcDbLine
 10
351.7521901068
 20
313.0150531991
 30
0.0
 11
351.2344593065
 21
313.2476014979
 31
0.0
  0
LINE
  5
471
330
1F
100
AcDbEntity
  8
0
  6
Continuous
 62
     7
370
    25
100
AcDbLine
 10
351.6582348717
 20
312.838755954
 30
0.0
 11
351.1405040714
 21
313.0713042528
 31
0.0
  0
ARC
  5
472
330
1F
100
AcDbEntity
  8
0
  6
Continuous
 62
     7
370
    25
100
AcDbCircle
 10
350.4070215486
 20
314.6707664249
 30
0.0
 40
0.3559461922653074
100
AcDbArc
 50
174.35095721
 51
239.5415936684
  0
ARC
  5
473
330
1F
100
AcDbEntity
  8
0
  6
Continuous
 62
     7
370
    25
100
AcDbCircle
 10
351.6666913651
 20
312.8685279494
 30
0.0
 40
0.1696457592885938
100
AcDbArc
 50
353.5275110927
 51
59.7360713913
  0
ARC
  5
474
330
1F
100
AcDbEntity
  8
0
  6
Continuous
 62
     7
370
    25
100
AcDbCircle
 10
351.6215925538
 20
312.7759594184
 30
0.0
 40
0.0727053254094923
100
AcDbArc
 50
353.5275110928
 51
59.7360713913
  0
LINE
  5
475
330
1F
100
AcDbEntity
  8
0
  6
Continuous
 62
     7
370
    25
100
AcDbLine
 10
350.2796209002
 20
310.5771458112
 30
0.0
 11
351.6938344625
 21
309.7607376993
 31
0.0
  0
LINE
  5
476
330
1F
100
AcDbEntity
  8
0
  6
Continuous
 62
     7
370
    25
100
AcDbLine
 10
350.2796209002
 20
310.5771458112
 30
0.0
 11
350.2796209002
 21
313.5675860714
 31
0.0
  0
LINE
  5
477
330
1F
100
AcDbEntity
  8
0
  6
Continuous
 62
     7
370
    25
100
AcDbLine
 10
351.6938344625
 20
309.7607376993
 30
0.0
 11
351.6938344625
 21
312.7677636286
 31
0.0
  0
LWPOLYLINE
  5
478
330
1F
100
AcDbEntity
  8
0
  6
Continuous
 62
     7
370
    25
100
AcDbPolyline
 90
       12
 70
   128
 43
0.0
 10
350.809950986
 20
311.4141499059
 10
350.8171116843
 20
311.4675276554
 10
350.8380136619
 20
311.5083134909
 10
350.8709635649
 20
311.5332031866
 10
350.9132919882
 20
311.5401803272
 10
350.9615697345
 20
311.5286796664
 10
351.0118856281
 20
311.4996329193
 10
351.0601633745
 20
311.4553932806
 10
351.1024917978
 20
311.3995447827
 10
351.1354417008
 20
311.3366119389
 10
351.1563436784
 20
311.2716931937
 10
351.1635043766
 20
311.2100478779
  0
LINE
  5
479
330
1F
100
AcDbEntity
  8
0
  6
Continuous
 62
     7
370
    25
100
AcDbLine
 10
350.809950986
 20
310.801744297
 30
0.0
 11
350.809950986
 21
311.4141499059
 31
0.0
  0
LWPOLYLINE
  5
47A
330
1F
100
AcDbEntity
  8
0
  6
Continuous
 62
     7
370
    25
100
AcDbPolyline
 90
       12
 70
   128
 43
0.0
 10
351.1635043766
 20
310.597642269
 10
351.1563436784
 20
310.5442645194
 10
351.1354417008
 20
310.5034786839
 10
351.1024917978
 20
310.4785889883
 10
351.0601633745
 20
310.4716118477
 10
351.0118856281
 20
310.4831125085
 10
350.9615697345
 20
310.5121592556
 10
350.9132919882
 20
310.5563988943
 10
350.8709635649
 20
310.6122473921
 10
350.8380136619
 20
310.675180236
 10
350.8171116843
 20
310.7400989812
 10
350.809950986
 20
310.801744297
  0
LINE
  5
47B
330
1F
100
AcDbEntity
  8
0
  6
Continuous
 62
     7
370
    25
100
AcDbLine
 10
351.1635043766
 20
311.2100478779
 30
0.0
 11
351.1635043766
 21
310.597642269
 31
0.0
  0
LINE
  5
47C
330
1F
100
AcDbEntity
  8
0
  6
Continuous
 62
     7
370
    25
100
AcDbLine
 10
351.6938344625
 20
309.7607376993
 30
0.0
 11
351.8352558188
 21
309.8423785105
 31
0.0
  0
LINE
  5
47D
330
1F
100
AcDbEntity
  8
0
  6
Continuous
 62
     7
370
    25
100
AcDbLine
 10
351.8352558188
 20
309.8423785105
 30
0.0
 11
351.8352558188
 21
312.8494044398
 31
0.0
  0
LINE
  5
47E
330
1F
100
AcDbEntity
  8
0
  6
Continuous
 62
     7
370
    25
100
AcDbLine
 10
350.9513723423
 20
311.495790717
 30
0.0
 11
350.9543651548
 21
311.5314666708
 31
0.0
  0
LINE
  5
47F
330
1F
100
AcDbEntity
  8
0
  6
Continuous
 62
     7
370
    25
100
AcDbLine
 10
350.9513723423
 20
310.8833851081
 30
0.0
 11
350.9513723423
 21
311.495790717
 31
0.0
  0
ARC
  5
480
330
1F
100
AcDbEntity
  8
0
  6
Continuous
 62
     7
370
    25
100
AcDbCircle
 10
351.3165626595
 20
310.8922551293
 30
0.0
 40
0.3652980222398408
100
AcDbArc
 50
181.3913700569
 51
244.710736105
  0
LINE
  5
481
330
1F
100
AcDbEntity
  8
0
  6
Continuous
 62
     7
370
    25
100
AcDbLine
 10
292.0140221304
 20
279.1519143436
 30
0.0
 11
292.0140221304
 21
280.4525224953
 31
0.0
  0
LINE
  5
482
330
1F
100
AcDbEntity
  8
0
  6
Continuous
 62
     7
370
    25
100
AcDbLine
 10
292.0140221304
 20
280.4525224953
 30
0.0
 11
292.1554434866
 21
280.5341633065
 31
0.0
  0
LINE
  5
483
330
1F
100
AcDbEntity
  8
0
  6
Continuous
 62
     7
370
    25
100
AcDbLine
 10
292.1554434866
 20
279.2335551547
 30
0.0
 11
292.1554434866
 21
280.5341633065
 31
0.0
  0
LINE
  5
484
330
1F
100
AcDbEntity
  8
0
  6
Continuous
 62
     7
370
    25
100
AcDbLine
 10
292.0140221304
 20
280.4525224953
 30
0.0
 11
290.599808568
 21
281.2689306071
 31
0.0
  0
LINE
  5
485
330
1F
100
AcDbEntity
  8
0
  6
Continuous
 62
     7
370
    25
100
AcDbLine
 10
290.599808568
 20
279.9683224554
 30
0.0
 11
290.599808568
 21
281.2689306071
 31
0.0
  0
LINE
  5
486
330
1F
100
AcDbEntity
  8
0
  6
Continuous
 62
     7
370
    25
100
AcDbLine
 10
291.0417503063
 20
280.1972622603
 30
0.0
 11
291.5720803921
 21
279.8911092184
 31
0.0
  0
LWPOLYLINE
  5
487
330
1F
100
AcDbEntity
  8
0
  6
Continuous
 62
     7
370
    25
100
AcDbPolyline
 90
       12
 70
   128
 43
0.0
 10
291.5720803921
 20
279.8911092184
 10
291.6218841425
 20
279.8706270353
 10
291.6676530892
 20
279.868342017
 10
291.7056793044
 20
279.8844392821
 10
291.7328821302
 20
279.9176147259
 10
291.7470577556
 20
279.9651806711
 10
291.7470577556
 20
280.0232836079
 10
291.7328821302
 20
280.0872163819
 10
291.7056793044
 20
280.1517995398
 10
291.6676530892
 20
280.2118009384
 10
291.6218841425
 20
280.2623596212
 10
291.5720803921
 20
280.2993796243
  0
LINE
  5
488
330
1F
100
AcDbEntity
  8
0
  6
Continuous
 62
     7
370
    25
100
AcDbLine
 10
291.5720803921
 20
280.2993796243
 30
0.0
 11
291.0417503063
 21
280.6055326662
 31
0.0
  0
LWPOLYLINE
  5
489
330
1F
100
AcDbEntity
  8
0
  6
Continuous
 62
     7
370
    25
100
AcDbPolyline
 90
       12
 70
   128
 43
0.0
 10
291.0417503063
 20
280.6055326662
 10
290.9919465559
 20
280.6260148493
 10
290.9461776092
 20
280.6282998676
 10
290.908151394
 20
280.6122026025
 10
290.8809485682
 20
280.5790271587
 10
290.8667729428
 20
280.5314612135
 10
290.8667729428
 20
280.4733582767
 10
290.8809485682
 20
280.4094255027
 10
290.908151394
 20
280.3448423448
 10
290.9461776092
 20
280.2848409462
 10
290.9919465559
 20
280.2342822634
 10
291.0417503063
 20
280.1972622603
  0
LINE
  5
48A
330
1F
100
AcDbEntity
  8
0
  6
Continuous
 62
     7
370
    25
100
AcDbLine
 10
292.1554434866
 20
280.5341633065
 30
0.0
 11
290.7412299242
 21
281.3505714183
 31
0.0
  0
LINE
  5
48B
330
1F
100
AcDbEntity
  8
0
  6
Continuous
 62
     7
370
    25
100
AcDbLine
 10
290.599808568
 20
281.2689306071
 30
0.0
 11
290.7412299242
 21
281.3505714183
 31
0.0
  0
LINE
  5
48C
330
1F
100
AcDbEntity
  8
0
  6
Continuous
 62
     7
370
    25
100
AcDbLine
 10
291.7135017484
 20
279.9727500295
 30
0.0
 11
291.7458642754
 21
279.9575174534
 31
0.0
  0
LINE
  5
48D
330
1F
100
AcDbEntity
  8
0
  6
Continuous
 62
     7
370
    25
100
AcDbLine
 10
291.4606917393
 20
278.2095120483
 30
0.0
 11
291.9784225395
 21
279.0398196054
 31
0.0
  0
LINE
  5
48E
330
1F
100
AcDbEntity
  8
0
  6
Continuous
 62
     7
370
    25
100
AcDbLine
 10
290.0464781769
 20
279.0259201601
 30
0.0
 11
290.5642089772
 21
279.8562277173
 31
0.0
  0
LINE
  5
48F
330
1F
100
AcDbEntity
  8
0
  6
Continuous
 62
     7
370
    25
100
AcDbLine
 10
291.5546469744
 20
278.1416932087
 30
0.0
 11
292.0723777747
 21
278.9720007658
 31
0.0
  0
ARC
  5
490
330
1F
100
AcDbEntity
  8
0
  6
Continuous
 62
     7
370
    25
100
AcDbCircle
 10
291.9283456409
 20
277.9124807139
 30
0.0
 40
0.5540106364811888
100
AcDbArc
 50
147.5782446634
 51
170.1117866451
  0
ARC
  5
491
330
1F
100
AcDbEntity
  8
0
  6
Continuous
 62
     7
370
    25
100
AcDbCircle
 10
291.7391271595
 20
278.0214047819
 30
0.0
 40
0.2202322508201957
100
AcDbArc
 50
146.8940486537
 51
177.8678320356
  0
ARC
  5
492
330
1F
100
AcDbEntity
  8
0
  6
Continuous
 62
     7
370
    25
100
AcDbCircle
 10
290.5141320785
 20
278.7288888258
 30
0.0
 40
0.5540106364828334
100
AcDbArc
 50
147.5782446635
 51
170.1117866451
  0
ARC
  5
493
330
1F
100
AcDbEntity
  8
0
  6
Continuous
 62
     7
370
    25
100
AcDbCircle
 10
291.7939423545
 20
279.1601080322
 30
0.0
 40
0.2202322508208858
100
AcDbArc
 50
326.8940486538
 51
357.8678320355
  0
ARC
  5
494
330
1F
100
AcDbEntity
  8
0
  6
Continuous
 62
     7
370
    25
100
AcDbCircle
 10
291.6419240095
 20
279.2526737616
 30
0.0
 40
0.5138752519121832
100
AcDbArc
 50
326.8940486537
 51
357.8678320356
  0
ARC
  5
495
330
1F
100
AcDbEntity
  8
0
  6
Continuous
 62
     7
370
    25
100
AcDbCircle
 10
290.3797287921
 20
279.976516144
 30
0.0
 40
0.2202322508197946
100
AcDbArc
 50
326.8940486537
 51
357.8678320356
  0
LINE
  5
496
330
1F
100
AcDbEntity
  8
0
  6
Continuous
 62
     7
370
    25
100
AcDbLine
 10
291.1831716625
 20
280.2789030715
 30
0.0
 11
291.7135017484
 21
279.9727500295
 31
0.0
  0
LINE
  5
497
330
1F
100
AcDbEntity
  8
0
  6
Continuous
 62
     7
370
    25
100
AcDbLine
 10
291.5190473836
 20
277.9288293952
 30
0.0
 11
291.5190473836
 21
278.0295984705
 31
0.0
  0
ARC
  5
498
330
1F
100
AcDbEntity
  8
0
  6
Continuous
 62
     7
370
    25
100
AcDbCircle
 10
291.373446628
 20
280.5907305338
 30
0.0
 40
0.365295673019756
100
AcDbArc
 50
175.2838017443
 51
238.6087462707
  0
ARC
  5
499
330
1F
100
AcDbEntity
  8
0
  6
Continuous
 62
     7
370
    25
100
AcDbCircle
 10
318.7920080746
 20
329.5417854366
 30
0.0
 40
0.6916598585603401
100
AcDbArc
 50
242.6096722366
 51
297.3903277634
  0
ARC
  5
49A
330
1F
100
AcDbEntity
  8
0
  6
Continuous
 62
     7
370
    25
100
AcDbCircle
 10
319.0559816668
 20
329.1521776792
 30
0.0
 40
0.152815360892068
100
AcDbArc
 50
290.7834207995
 51
69.2165792005
  0
LINE
  5
49B
330
1F
100
AcDbEntity
  8
0
  6
Continuous
 62
     7
370
    25
100
AcDbLine
 10
319.1102061262
 20
329.2950490987
 30
0.0
 11
318.5091653622
 21
329.6420225463
 31
0.0
  0
ARC
  5
49C
330
1F
100
AcDbEntity
  8
0
  6
Continuous
 62
     7
370
    25
100
AcDbCircle
 10
318.2616779888
 20
329.1643736665
 30
0.0
 40
0.5379576677688451
100
AcDbArc
 50
62.6096722366
 51
117.3903277634
  0
LINE
  5
49D
330
1F
100
AcDbEntity
  8
0
  6
Continuous
 62
     7
370
    25
100
AcDbLine
 10
318.0141906153
 20
329.6420225463
 30
0.0
 11
317.9434799372
 21
329.6012021407
 31
0.0
  0
ARC
  5
49E
330
1F
100
AcDbEntity
  8
0
  6
Continuous
 62
     7
370
    25
100
AcDbCircle
 10
317.9977043966
 20
329.4583307211
 30
0.0
 40
0.1528153608919544
100
AcDbArc
 50
110.7834207994
 51
249.2165792006
  0
LINE
  5
49F
330
1F
100
AcDbEntity
  8
0
  6
Continuous
 62
     7
370
    25
100
AcDbLine
 10
317.9434799372
 20
329.3154593015
 30
0.0
 11
318.5445207012
 21
328.968485854
 31
0.0
  0
ARC
  5
4A0
330
1F
100
AcDbEntity
  8
0
  6
Continuous
 62
     7
370
    25
100
AcDbCircle
 10
318.7920080746
 20
329.4461347337
 30
0.0
 40
0.5379576677690975
100
AcDbArc
 50
242.6096722366
 51
297.3903277634
  0
LINE
  5
4A1
330
1F
100
AcDbEntity
  8
0
  6
Continuous
 62
     7
370
    25
100
AcDbLine
 10
319.0394954481
 20
328.968485854
 30
0.0
 11
319.1102061262
 21
329.0093062596
 31
0.0
  0
LINE
  5
4A2
330
1F
100
AcDbEntity
  8
0
  6
Continuous
 62
     7
370
    25
100
AcDbLine
 10
319.1809168043
 20
329.3358695043
 30
0.0
 11
318.5798760403
 21
329.6828429518
 31
0.0
  0
LWPOLYLINE
  5
4A3
330
1F
100
AcDbEntity
  8
0
  6
Continuous
 62
     7
370
    25
100
AcDbPolyline
 90
        9
 70
   128
 43
0.0
 10
319.1809168043
 20
328.968485854
 10
319.2368800783
 20
329.0078519382
 10
319.2784645424
 20
329.0527643798
 10
319.3040721289
 20
329.1014972186
 10
319.3127187528
 20
329.1521776792
 10
319.3040721289
 20
329.2028581397
 10
319.2784645424
 20
329.2515909786
 10
319.2368800783
 20
329.2965034201
 10
319.1809168043
 20
329.3358695043
  0
LINE
  5
4A4
330
1F
100
AcDbEntity
  8
0
  6
Continuous
 62
     7
370
    25
100
AcDbLine
 10
319.1102061262
 20
328.9276654484
 30
0.0
 11
319.1809168043
 21
328.968485854
 31
0.0
  0
LINE
  5
4A5
330
1F
100
AcDbEntity
  8
0
  6
Continuous
 62
     7
370
    25
100
AcDbLine
 10
317.8727692591
 20
329.2746388959
 30
0.0
 11
318.4738100231
 21
328.9276654484
 31
0.0
  0
LWPOLYLINE
  5
4A6
330
1F
100
AcDbEntity
  8
0
  6
Continuous
 62
     7
370
    25
100
AcDbPolyline
 90
        9
 70
   128
 43
0.0
 10
317.8727692591
 20
329.6420225463
 10
317.8168059851
 20
329.602656462
 10
317.775221521
 20
329.5577440205
 10
317.7496139345
 20
329.5090111816
 10
317.7409673106
 20
329.4583307211
 10
317.7496139345
 20
329.4076502606
 10
317.775221521
 20
329.3589174217
 10
317.8168059851
 20
329.3140049802
 10
317.8727692591
 20
329.2746388959
  0
LINE
  5
4A7
330
1F
100
AcDbEntity
  8
0
  6
Continuous
 62
     7
370
    25
100
AcDbLine
 10
317.9434799372
 20
329.6828429518
 30
0.0
 11
317.8727692591
 21
329.6420225463
 31
0.0
  0
ARC
  5
4A8
330
1F
100
AcDbEntity
  8
0
  6
Continuous
 62
     7
370
    25
100
AcDbCircle
 10
318.2616779888
 20
329.0687229636
 30
0.0
 40
0.6916598585603906
100
AcDbArc
 50
62.6096722366
 51
117.3903277634
  0
ARC
  5
4A9
330
1F
100
AcDbEntity
  8
0
  6
Continuous
 62
     7
370
    25
100
AcDbCircle
 10
282.623496217
 20
308.6621479768
 30
0.0
 40
0.691659858559912
100
AcDbArc
 50
242.6096722366
 51
297.3903277634
  0
ARC
  5
4AA
330
1F
100
AcDbEntity
  8
0
  6
Continuous
 62
     7
370
    25
100
AcDbCircle
 10
281.8291925389
 20
308.5786932612
 30
0.0
 40
0.152815360892068
100
AcDbArc
 50
110.7834207995
 51
249.2165792005
  0
LINE
  5
4AB
330
1F
100
AcDbEntity
  8
0
  6
Continuous
 62
     7
370
    25
100
AcDbLine
 10
281.7749680795
 20
308.4358218417
 30
0.0
 11
282.3760088435
 21
308.0888483941
 31
0.0
  0
ARC
  5
4AC
330
1F
100
AcDbEntity
  8
0
  6
Continuous
 62
     7
370
    25
100
AcDbCircle
 10
282.623496217
 20
308.5664972739
 30
0.0
 40
0.5379576677690732
100
AcDbArc
 50
242.6096722366
 51
297.3903277634
  0
LINE
  5
4AD
330
1F
100
AcDbEntity
  8
0
  6
Continuous
 62
     7
370
    25
100
AcDbLine
 10
282.8709835904
 20
308.0888483941
 30
0.0
 11
282.9416942685
 21
308.1296687997
 31
0.0
  0
ARC
  5
4AE
330
1F
100
AcDbEntity
  8
0
  6
Continuous
 62
     7
370
    25
100
AcDbCircle
 10
282.8874698091
 20
308.2725402193
 30
0.0
 40
0.152815360892068
100
AcDbArc
 50
290.7834207995
 51
69.2165792005
  0
LINE
  5
4AF
330
1F
100
AcDbEntity
  8
0
  6
Continuous
 62
     7
370
    25
100
AcDbLine
 10
282.9416942685
 20
308.4154116389
 30
0.0
 11
282.3406535045
 21
308.7623850864
 31
0.0
  0
ARC
  5
4B0
330
1F
100
AcDbEntity
  8
0
  6
Continuous
 62
     7
370
    25
100
AcDbCircle
 10
282.0931661311
 20
308.2847362067
 30
0.0
 40
0.5379576677688451
100
AcDbArc
 50
62.6096722366
 51
117.3903277634
  0
LINE
  5
4B1
330
1F
100
AcDbEntity
  8
0
  6
Continuous
 62
     7
370
    25
100
AcDbLine
 10
281.8456787576
 20
308.7623850864
 30
0.0
 11
281.7749680795
 21
308.7215646808
 31
0.0
  0
LINE
  5
4B2
330
1F
100
AcDbEntity
  8
0
  6
Continuous
 62
     7
370
    25
100
AcDbLine
 10
281.7042574014
 20
308.3950014361
 30
0.0
 11
282.3052981654
 21
308.0480279885
 31
0.0
  0
LWPOLYLINE
  5
4B3
330
1F
100
AcDbEntity
  8
0
  6
Continuous
 62
     7
370
    25
100
AcDbPolyline
 90
        9
 70
   128
 43
0.0
 10
281.7042574014
 20
308.7623850864
 10
281.6482941274
 20
308.7230190022
 10
281.6067096633
 20
308.6781065606
 10
281.5811020768
 20
308.6293737218
 10
281.5724554529
 20
308.5786932612
 10
281.5811020768
 20
308.5280128007
 10
281.6067096633
 20
308.4792799618
 10
281.6482941274
 20
308.4343675203
 10
281.7042574014
 20
308.3950014361
  0
LINE
  5
4B4
330
1F
100
AcDbEntity
  8
0
  6
Continuous
 62
     7
370
    25
100
AcDbLine
 10
281.7749680795
 20
308.803205492
 30
0.0
 11
281.7042574014
 21
308.7623850864
 31
0.0
  0
ARC
  5
4B5
330
1F
100
AcDbEntity
  8
0
  6
Continuous
 62
     7
370
    25
100
AcDbCircle
 10
282.0931661311
 20
308.1890855038
 30
0.0
 40
0.6916598585609214
100
AcDbArc
 50
62.6096722366
 51
117.3903277634
  0
LINE
  5
4B6
330
1F
100
AcDbEntity
  8
0
  6
Continuous
 62
     7
370
    25
100
AcDbLine
 10
283.0124049466
 20
308.4562320445
 30
0.0
 11
282.4113641826
 21
308.803205492
 31
0.0
  0
LWPOLYLINE
  5
4B7
330
1F
100
AcDbEntity
  8
0
  6
Continuous
 62
     7
370
    25
100
AcDbPolyline
 90
        9
 70
   128
 43
0.0
 10
283.0124049466
 20
308.0888483941
 10
283.0683682206
 20
308.1282144784
 10
283.1099526847
 20
308.1731269199
 10
283.1355602713
 20
308.2218597588
 10
283.1442068951
 20
308.2725402193
 10
283.1355602713
 20
308.3232206798
 10
283.1099526847
 20
308.3719535187
 10
283.0683682206
 20
308.4168659602
 10
283.0124049466
 20
308.4562320445
  0
LINE
  5
4B8
330
1F
100
AcDbEntity
  8
0
  6
Continuous
 62
     7
370
    25
100
AcDbLine
 10
282.9416942685
 20
308.0480279885
 30
0.0
 11
283.0124049466
 21
308.0888483941
 31
0.0
  0
ARC
  5
4B9
330
1F
100
AcDbEntity
  8
0
  6
Continuous
 62
     7
370
    25
100
AcDbCircle
 10
330.1764272517
 20
336.1138707368
 30
0.0
 40
0.6916598585599363
100
AcDbArc
 50
242.6096722366
 51
297.3903277634
  0
ARC
  5
4BA
330
1F
100
AcDbEntity
  8
0
  6
Continuous
 62
     7
370
    25
100
AcDbCircle
 10
329.3821235737
 20
336.0304160213
 30
0.0
 40
0.1528153608921212
100
AcDbArc
 50
110.7834207995
 51
249.2165792005
  0
LINE
  5
4BB
330
1F
100
AcDbEntity
  8
0
  6
Continuous
 62
     7
370
    25
100
AcDbLine
 10
329.3278991143
 20
335.8875446017
 30
0.0
 11
329.9289398783
 21
335.5405711542
 31
0.0
  0
ARC
  5
4BC
330
1F
100
AcDbEntity
  8
0
  6
Continuous
 62
     7
370
    25
100
AcDbCircle
 10
330.1764272517
 20
336.0182200339
 30
0.0
 40
0.5379576677689966
100
AcDbArc
 50
242.6096722366
 51
297.3903277634
  0
LINE
  5
4BD
330
1F
100
AcDbEntity
  8
0
  6
Continuous
 62
     7
370
    25
100
AcDbLine
 10
330.4239146252
 20
335.5405711542
 30
0.0
 11
330.4946253033
 21
335.5813915598
 31
0.0
  0
ARC
  5
4BE
330
1F
100
AcDbEntity
  8
0
  6
Continuous
 62
     7
370
    25
100
AcDbCircle
 10
330.4404008439
 20
335.7242629793
 30
0.0
 40
0.1528153608919342
100
AcDbArc
 50
290.7834207994
 51
69.2165792006
  0
LINE
  5
4BF
330
1F
100
AcDbEntity
  8
0
  6
Continuous
 62
     7
370
    25
100
AcDbLine
 10
330.4946253033
 20
335.8671343989
 30
0.0
 11
329.8935845393
 21
336.2141078464
 31
0.0
  0
ARC
  5
4C0
330
1F
100
AcDbEntity
  8
0
  6
Continuous
 62
     7
370
    25
100
AcDbCircle
 10
329.6460971659
 20
335.7364589667
 30
0.0
 40
0.5379576677690228
100
AcDbArc
 50
62.6096722366
 51
117.3903277634
  0
LINE
  5
4C1
330
1F
100
AcDbEntity
  8
0
  6
Continuous
 62
     7
370
    25
100
AcDbLine
 10
329.3986097924
 20
336.2141078464
 30
0.0
 11
329.3278991143
 21
336.1732874408
 31
0.0
  0
LINE
  5
4C2
330
1F
100
AcDbEntity
  8
0
  6
Continuous
 62
     7
370
    25
100
AcDbLine
 10
329.2571884362
 20
335.8467241961
 30
0.0
 11
329.8582292002
 21
335.4997507486
 31
0.0
  0
LWPOLYLINE
  5
4C3
330
1F
100
AcDbEntity
  8
0
  6
Continuous
 62
     7
370
    25
100
AcDbPolyline
 90
        9
 70
   128
 43
0.0
 10
329.2571884362
 20
336.2141078464
 10
329.2012251622
 20
336.1747417622
 10
329.1596406981
 20
336.1298293207
 10
329.1340331116
 20
336.0810964818
 10
329.1253864877
 20
336.0304160213
 10
329.1340331116
 20
335.9797355607
 10
329.1596406981
 20
335.9310027219
 10
329.2012251622
 20
335.8860902803
 10
329.2571884362
 20
335.8467241961
  0
LINE
  5
4C4
330
1F
100
AcDbEntity
  8
0
  6
Continuous
 62
     7
370
    25
100
AcDbLine
 10
329.3278991143
 20
336.254928252
 30
0.0
 11
329.2571884362
 21
336.2141078464
 31
0.0
  0
ARC
  5
4C5
330
1F
100
AcDbEntity
  8
0
  6
Continuous
 62
     7
370
    25
100
AcDbCircle
 10
329.6460971659
 20
335.6408082638
 30
0.0
 40
0.6916598585608205
100
AcDbArc
 50
62.6096722366
 51
117.3903277634
  0
LINE
  5
4C6
330
1F
100
AcDbEntity
  8
0
  6
Continuous
 62
     7
370
    25
100
AcDbLine
 10
330.5653359814
 20
335.9079548045
 30
0.0
 11
329.9642952174
 21
336.254928252
 31
0.0
  0
LWPOLYLINE
  5
4C7
330
1F
100
AcDbEntity
  8
0
  6
Continuous
 62
     7
370
    25
100
AcDbPolyline
 90
        9
 70
   128
 43
0.0
 10
330.5653359814
 20
335.5405711542
 10
330.6212992554
 20
335.5799372384
 10
330.6628837195
 20
335.6248496799
 10
330.688491306
 20
335.6735825188
 10
330.6971379299
 20
335.7242629793
 10
330.688491306
 20
335.7749434399
 10
330.6628837195
 20
335.8236762787
 10
330.6212992554
 20
335.8685887203
 10
330.5653359814
 20
335.9079548045
  0
LINE
  5
4C8
330
1F
100
AcDbEntity
  8
0
  6
Continuous
 62
     7
370
    25
100
AcDbLine
 10
330.4946253033
 20
335.4997507486
 30
0.0
 11
330.5653359814
 21
335.5405711542
 31
0.0
  0
ARC
  5
4C9
330
1F
100
AcDbEntity
  8
0
  6
Continuous
 62
     7
370
    25
100
AcDbCircle
 10
271.2390770398
 20
302.0900626766
 30
0.0
 40
0.6916598585610971
100
AcDbArc
 50
242.6096722366
 51
297.3903277634
  0
ARC
  5
4CA
330
1F
100
AcDbEntity
  8
0
  6
Continuous
 62
     7
370
    25
100
AcDbCircle
 10
271.503050632
 20
301.7004549191
 30
0.0
 40
0.1528153608920277
100
AcDbArc
 50
290.7834207995
 51
69.2165792005
  0
LINE
  5
4CB
330
1F
100
AcDbEntity
  8
0
  6
Continuous
 62
     7
370
    25
100
AcDbLine
 10
271.5572750914
 20
301.8433263387
 30
0.0
 11
270.9562343274
 21
302.1902997862
 31
0.0
  0
ARC
  5
4CC
330
1F
100
AcDbEntity
  8
0
  6
Continuous
 62
     7
370
    25
100
AcDbCircle
 10
270.708746954
 20
301.7126509065
 30
0.0
 40
0.5379576677690732
100
AcDbArc
 50
62.6096722366
 51
117.3903277634
  0
LINE
  5
4CD
330
1F
100
AcDbEntity
  8
0
  6
Continuous
 62
     7
370
    25
100
AcDbLine
 10
270.4612595805
 20
302.1902997862
 30
0.0
 11
270.3905489024
 21
302.1494793806
 31
0.0
  0
ARC
  5
4CE
330
1F
100
AcDbEntity
  8
0
  6
Continuous
 62
     7
370
    25
100
AcDbCircle
 10
270.4447733618
 20
302.0066079611
 30
0.0
 40
0.152815360892068
100
AcDbArc
 50
110.7834207995
 51
249.2165792005
  0
LINE
  5
4CF
330
1F
100
AcDbEntity
  8
0
  6
Continuous
 62
     7
370
    25
100
AcDbLine
 10
270.3905489024
 20
301.8637365415
 30
0.0
 11
270.9915896664
 21
301.516763094
 31
0.0
  0
ARC
  5
4D0
330
1F
100
AcDbEntity
  8
0
  6
Continuous
 62
     7
370
    25
100
AcDbCircle
 10
271.2390770398
 20
301.9944119737
 30
0.0
 40
0.5379576677689462
100
AcDbArc
 50
242.6096722366
 51
297.3903277634
  0
LINE
  5
4D1
330
1F
100
AcDbEntity
  8
0
  6
Continuous
 62
     7
370
    25
100
AcDbLine
 10
271.4865644133
 20
301.516763094
 30
0.0
 11
271.5572750914
 21
301.5575834996
 31
0.0
  0
LINE
  5
4D2
330
1F
100
AcDbEntity
  8
0
  6
Continuous
 62
     7
370
    25
100
AcDbLine
 10
271.6279857695
 20
301.8841467443
 30
0.0
 11
271.0269450055
 21
302.2311201918
 31
0.0
  0
LWPOLYLINE
  5
4D3
330
1F
100
AcDbEntity
  8
0
  6
Continuous
 62
     7
370
    25
100
AcDbPolyline
 90
        9
 70
   128
 43
0.0
 10
271.6279857695
 20
301.516763094
 10
271.6839490435
 20
301.5561291782
 10
271.7255335076
 20
301.6010416197
 10
271.7511410941
 20
301.6497744586
 10
271.759787718
 20
301.7004549191
 10
271.7511410941
 20
301.7511353797
 10
271.7255335076
 20
301.7998682185
 10
271.6839490435
 20
301.84478066
 10
271.6279857695
 20
301.8841467443
  0
LINE
  5
4D4
330
1F
100
AcDbEntity
  8
0
  6
Continuous
 62
     7
370
    25
100
AcDbLine
 10
271.5572750914
 20
301.4759426884
 30
0.0
 11
271.6279857695
 21
301.516763094
 31
0.0
  0
LINE
  5
4D5
330
1F
100
AcDbEntity
  8
0
  6
Continuous
 62
     7
370
    25
100
AcDbLine
 10
270.3198382243
 20
301.8229161359
 30
0.0
 11
270.9208789883
 21
301.4759426884
 31
0.0
  0
LWPOLYLINE
  5
4D6
330
1F
100
AcDbEntity
  8
0
  6
Continuous
 62
     7
370
    25
100
AcDbPolyline
 90
        9
 70
   128
 43
0.0
 10
270.3198382243
 20
302.1902997862
 10
270.2638749503
 20
302.150933702
 10
270.2222904862
 20
302.1060212605
 10
270.1966828997
 20
302.0572884216
 10
270.1880362758
 20
302.0066079611
 10
270.1966828997
 20
301.9559275005
 10
270.2222904862
 20
301.9071946617
 10
270.2638749503
 20
301.8622822201
 10
270.3198382243
 20
301.8229161359
  0
LINE
  5
4D7
330
1F
100
AcDbEntity
  8
0
  6
Continuous
 62
     7
370
    25
100
AcDbLine
 10
270.3905489024
 20
302.2311201918
 30
0.0
 11
270.3198382243
 21
302.1902997862
 31
0.0
  0
ARC
  5
4D8
330
1F
100
AcDbEntity
  8
0
  6
Continuous
 62
     7
370
    25
100
AcDbCircle
 10
270.708746954
 20
301.6170002036
 30
0.0
 40
0.6916598585600634
100
AcDbArc
 50
62.6096722366
 51
117.3903277634
  0
LINE
  5
4D9
330
1F
100
AcDbEntity
  8
0
  6
Continuous
 62
     7
370
    25
100
AcDbLine
 10
278.486921547
 20
293.128169745
 30
0.0
 11
255.859504549
 21
306.1906995341
 31
0.0
  0
LWPOLYLINE
  5
4DA
330
1F
100
AcDbEntity
  8
0
  6
Continuous
 62
     7
370
    25
100
AcDbPolyline
 90
        9
 70
   128
 43
0.0
 10
271.6279857695
 20
301.8841467443
 10
271.6839490435
 20
301.84478066
 10
271.7255335076
 20
301.7998682185
 10
271.7511410941
 20
301.7511353797
 10
271.759787718
 20
301.7004549191
 10
271.7511410941
 20
301.6497744586
 10
271.7255335076
 20
301.6010416197
 10
271.6839490435
 20
301.5561291782
 10
271.6279857695
 20
301.516763094
  0
LWPOLYLINE
  5
4DB
330
1F
100
AcDbEntity
  8
0
  6
Continuous
 62
     7
370
    25
100
AcDbPolyline
 90
        9
 70
   128
 43
0.0
 10
270.3198382243
 20
301.8229161359
 10
270.2638749503
 20
301.8622822201
 10
270.2222904862
 20
301.9071946617
 10
270.1966828997
 20
301.9559275005
 10
270.1880362758
 20
302.0066079611
 10
270.1966828997
 20
302.0572884216
 10
270.2222904862
 20
302.1060212605
 10
270.2638749503
 20
302.150933702
 10
270.3198382243
 20
302.1902997862
  0
LWPOLYLINE
  5
4DC
330
1F
100
AcDbEntity
  8
0
  6
Continuous
 62
     7
370
    25
100
AcDbPolyline
 90
        9
 70
   128
 43
0.0
 10
283.0124049466
 20
308.0888483941
 10
283.0683682206
 20
308.1282144784
 10
283.1099526847
 20
308.1731269199
 10
283.1355602713
 20
308.2218597588
 10
283.1442068951
 20
308.2725402193
 10
283.1355602713
 20
308.3232206798
 10
283.1099526847
 20
308.3719535187
 10
283.0683682206
 20
308.4168659602
 10
283.0124049466
 20
308.4562320445
  0
LWPOLYLINE
  5
4DD
330
1F
100
AcDbEntity
  8
0
  6
Continuous
 62
     7
370
    25
100
AcDbPolyline
 90
        9
 70
   128
 43
0.0
 10
281.7042574014
 20
308.3950014361
 10
281.6482941274
 20
308.4343675203
 10
281.6067096633
 20
308.4792799618
 10
281.5811020768
 20
308.5280128007
 10
281.5724554529
 20
308.5786932612
 10
281.5811020768
 20
308.6293737218
 10
281.6067096633
 20
308.6781065606
 10
281.6482941274
 20
308.7230190022
 10
281.7042574014
 20
308.7623850864
  0
LINE
  5
4DE
330
1F
100
AcDbEntity
  8
0
  6
Continuous
 62
     7
370
    25
100
AcDbLine
 10
255.859504549
 20
306.1906995341
 30
0.0
 11
274.8453216239
 21
317.1509784354
 31
0.0
  0
LINE
  5
4DF
330
1F
100
AcDbEntity
  8
0
  6
Continuous
 62
     7
370
    25
100
AcDbLine
 10
274.8453216239
 20
317.1509784354
 30
0.0
 11
297.4727386219
 21
304.0884486462
 31
0.0
  0
LINE
  5
4E0
330
1F
100
AcDbEntity
  8
0
  6
Continuous
 62
     7
370
    25
100
AcDbLine
 10
297.4727386219
 20
304.0884486462
 30
0.0
 11
278.486921547
 21
293.128169745
 31
0.0
  0
LWPOLYLINE
  5
4E1
330
1F
100
AcDbEntity
  8
0
  6
Continuous
 62
     7
370
    25
100
AcDbPolyline
 90
        9
 70
   128
 43
0.0
 10
319.1809168043
 20
329.3358695043
 10
319.2368800783
 20
329.2965034201
 10
319.2784645424
 20
329.2515909786
 10
319.3040721289
 20
329.2028581397
 10
319.3127187528
 20
329.1521776792
 10
319.3040721289
 20
329.1014972186
 10
319.2784645424
 20
329.0527643798
 10
319.2368800783
 20
329.0078519382
 10
319.1809168043
 20
328.968485854
  0
LWPOLYLINE
  5
4E2
330
1F
100
AcDbEntity
  8
0
  6
Continuous
 62
     7
370
    25
100
AcDbPolyline
 90
        9
 70
   128
 43
0.0
 10
317.8727692591
 20
329.2746388959
 10
317.8168059851
 20
329.3140049802
 10
317.775221521
 20
329.3589174217
 10
317.7496139345
 20
329.4076502606
 10
317.7409673106
 20
329.4583307211
 10
317.7496139345
 20
329.5090111816
 10
317.775221521
 20
329.5577440205
 10
317.8168059851
 20
329.602656462
 10
317.8727692591
 20
329.6420225463
  0
LWPOLYLINE
  5
4E3
330
1F
100
AcDbEntity
  8
0
  6
Continuous
 62
     7
370
    25
100
AcDbPolyline
 90
        9
 70
   128
 43
0.0
 10
330.5653359814
 20
335.5405711542
 10
330.6212992554
 20
335.5799372384
 10
330.6628837195
 20
335.6248496799
 10
330.688491306
 20
335.6735825188
 10
330.6971379299
 20
335.7242629793
 10
330.688491306
 20
335.7749434399
 10
330.6628837195
 20
335.8236762787
 10
330.6212992554
 20
335.8685887203
 10
330.5653359814
 20
335.9079548045
  0
LWPOLYLINE
  5
4E4
330
1F
100
AcDbEntity
  8
0
  6
Continuous
 62
     7
370
    25
100
AcDbPolyline
 90
        9
 70
   128
 43
0.0
 10
329.2571884362
 20
335.8467241961
 10
329.2012251622
 20
335.8860902803
 10
329.1596406981
 20
335.9310027219
 10
329.1340331116
 20
335.9797355607
 10
329.1253864877
 20
336.0304160213
 10
329.1340331116
 20
336.0810964818
 10
329.1596406981
 20
336.1298293207
 10
329.2012251622
 20
336.1747417622
 10
329.2571884362
 20
336.2141078464
  0
LINE
  5
4E5
330
1F
100
AcDbEntity
  8
0
  6
Continuous
 62
     7
370
    25
100
AcDbLine
 10
303.4124355838
 20
333.6424222942
 30
0.0
 11
322.3982526587
 21
344.6027011954
 31
0.0
  0
LINE
  5
4E6
330
1F
100
AcDbEntity
  8
0
  6
Continuous
 62
     7
370
    25
100
AcDbLine
 10
322.3982526587
 20
344.6027011954
 30
0.0
 11
345.0256696567
 21
331.5401714062
 31
0.0
  0
LINE
  5
4E7
330
1F
100
AcDbEntity
  8
0
  6
Continuous
 62
     7
370
    25
100
AcDbLine
 10
345.0256696567
 20
331.5401714062
 30
0.0
 11
326.0398525818
 21
320.579892505
 31
0.0
  0
LINE
  5
4E8
330
1F
100
AcDbEntity
  8
0
  6
Continuous
 62
     7
370
    25
100
AcDbLine
 10
326.0398525818
 20
320.579892505
 30
0.0
 11
303.4124355838
 21
333.6424222942
 31
0.0
  0
LINE
  5
4E9
330
1F
100
AcDbEntity
  8
0
  6
Continuous
 62
     7
370
    25
100
AcDbLine
 10
326.0398525818
 20
320.5817816667
 30
0.0
 11
303.4157080624
 21
333.6424222942
 31
0.0
  0
LINE
  5
4EA
330
1F
100
AcDbEntity
  8
0
  6
Continuous
 62
     7
370
    25
100
AcDbLine
 10
345.0223971781
 20
331.5401714062
 30
0.0
 11
326.0398525818
 21
320.5817816667
 31
0.0
  0
LINE
  5
4EB
330
1F
100
AcDbEntity
  8
0
  6
Continuous
 62
     7
370
    25
100
AcDbLine
 10
322.3982526587
 20
344.6008120337
 30
0.0
 11
345.0223971781
 21
331.5401714062
 31
0.0
  0
LINE
  5
4EC
330
1F
100
AcDbEntity
  8
0
  6
Continuous
 62
     7
370
    25
100
AcDbLine
 10
303.4157080624
 20
333.6424222942
 30
0.0
 11
322.3982526587
 21
344.6008120337
 31
0.0
  0
LINE
  5
4ED
330
1F
100
AcDbEntity
  8
0
  6
Continuous
 62
     7
370
    25
100
AcDbLine
 10
345.237801691
 20
331.5401714062
 30
0.0
 11
326.0398525818
 21
320.4574312883
 31
0.0
  0
LINE
  5
4EE
330
1F
100
AcDbEntity
  8
0
  6
Continuous
 62
     7
370
    25
100
AcDbLine
 10
326.0398525818
 20
320.4574312883
 30
0.0
 11
303.2003035495
 21
333.6424222942
 31
0.0
  0
LINE
  5
4EF
330
1F
100
AcDbEntity
  8
0
  6
Continuous
 62
     7
370
    25
100
AcDbLine
 10
303.2003035495
 20
333.6424222942
 30
0.0
 11
322.3982526587
 21
344.7251624122
 31
0.0
  0
LINE
  5
4F0
330
1F
100
AcDbEntity
  8
0
  6
Continuous
 62
     7
370
    25
100
AcDbLine
 10
322.3982526587
 20
344.7251624122
 30
0.0
 11
345.237801691
 21
331.5401714062
 31
0.0
  0
LINE
  5
4F1
330
1F
100
AcDbEntity
  8
0
  6
Continuous
 62
     7
370
    25
100
AcDbLine
 10
326.0398525818
 20
320.4166108827
 30
0.0
 11
326.0398525818
 21
320.4574312883
 31
0.0
  0
LINE
  5
4F2
330
1F
100
AcDbEntity
  8
0
  6
Continuous
 62
     7
370
    25
100
AcDbLine
 10
303.2078707152
 20
333.6176436596
 30
0.0
 11
303.2003035495
 21
333.6424222942
 31
0.0
  0
LINE
  5
4F3
330
1F
100
AcDbEntity
  8
0
  6
Continuous
 62
     7
370
    25
100
AcDbLine
 10
345.195410492
 20
331.4013617022
 30
0.0
 11
345.237801691
 21
331.5401714062
 31
0.0
  0
LINE
  5
4F4
330
1F
100
AcDbEntity
  8
0
  6
Continuous
 62
     7
370
    25
100
AcDbLine
 10
278.486921547
 20
293.1300589066
 30
0.0
 11
255.8627770276
 21
306.1906995341
 31
0.0
  0
LINE
  5
4F5
330
1F
100
AcDbEntity
  8
0
  6
Continuous
 62
     7
370
    25
100
AcDbLine
 10
297.4694661433
 20
304.0884486462
 30
0.0
 11
278.486921547
 21
293.1300589066
 31
0.0
  0
LINE
  5
4F6
330
1F
100
AcDbEntity
  8
0
  6
Continuous
 62
     7
370
    25
100
AcDbLine
 10
274.8453216239
 20
317.1490892737
 30
0.0
 11
297.4694661433
 21
304.0884486462
 31
0.0
  0
LINE
  5
4F7
330
1F
100
AcDbEntity
  8
0
  6
Continuous
 62
     7
370
    25
100
AcDbLine
 10
255.8627770276
 20
306.1906995341
 30
0.0
 11
274.8453216239
 21
317.1490892737
 31
0.0
  0
LINE
  5
4F8
330
1F
100
AcDbEntity
  8
0
  6
Continuous
 62
     7
370
    25
100
AcDbLine
 10
297.6848706562
 20
304.0884486462
 30
0.0
 11
278.486921547
 21
293.0057085282
 31
0.0
  0
LINE
  5
4F9
330
1F
100
AcDbEntity
  8
0
  6
Continuous
 62
     7
370
    25
100
AcDbLine
 10
278.486921547
 20
293.0057085282
 30
0.0
 11
255.6473725147
 21
306.1906995341
 31
0.0
  0
LINE
  5
4FA
330
1F
100
AcDbEntity
  8
0
  6
Continuous
 62
     7
370
    25
100
AcDbLine
 10
255.6473725147
 20
306.1906995341
 30
0.0
 11
274.8453216239
 21
317.2734396521
 31
0.0
  0
LINE
  5
4FB
330
1F
100
AcDbEntity
  8
0
  6
Continuous
 62
     7
370
    25
100
AcDbLine
 10
274.8453216239
 20
317.2734396521
 30
0.0
 11
297.6848706562
 21
304.0884486462
 31
0.0
  0
LINE
  5
4FC
330
1F
100
AcDbEntity
  8
0
  6
Continuous
 62
     7
370
    25
100
AcDbLine
 10
297.6697363248
 20
304.0388913771
 30
0.0
 11
297.6848706562
 21
304.0884486462
 31
0.0
  0
LINE
  5
4FD
330
1F
100
AcDbEntity
  8
0
  6
Continuous
 62
     7
370
    25
100
AcDbLine
 10
278.486921547
 20
292.9648881226
 30
0.0
 11
278.486921547
 21
293.0057085282
 31
0.0
  0
LINE
  5
4FE
330
1F
100
AcDbEntity
  8
0
  6
Continuous
 62
     7
370
    25
100
AcDbLine
 10
255.6625068461
 20
306.141142265
 30
0.0
 11
255.6473725147
 21
306.1906995341
 31
0.0
  0
LINE
  5
4FF
330
1F
100
AcDbEntity
  8
0
  6
Continuous
 62
     7
370
    25
100
AcDbLine
 10
278.8051195985
 20
292.9852983254
 30
0.0
 11
278.6636982423
 21
293.0669391366
 31
0.0
  0
LINE
  5
500
330
1F
100
AcDbEntity
  8
0
  6
Continuous
 62
     7
370
    25
100
AcDbLine
 10
278.8051195985
 20
292.7811962975
 30
0.0
 11
278.8051195985
 21
292.9852983254
 31
0.0
  0
LINE
  5
501
330
1F
100
AcDbEntity
  8
0
  6
Continuous
 62
     7
370
    25
100
AcDbLine
 10
278.6636982423
 20
292.8628371086
 30
0.0
 11
278.6636982423
 21
293.0669391366
 31
0.0
  0
LINE
  5
502
330
1F
100
AcDbEntity
  8
0
  6
Continuous
 62
     7
370
    25
100
AcDbLine
 10
345.2731570301
 20
331.3564795811
 30
0.0
 11
278.8051195985
 21
292.9852983254
 31
0.0
  0
LINE
  5
503
330
1F
100
AcDbEntity
  8
0
  6
Continuous
 62
     7
370
    25
100
AcDbLine
 10
345.2731570301
 20
328.3352785771
 30
0.0
 11
345.2731570301
 21
331.3564795811
 31
0.0
  0
LINE
  5
504
330
1F
100
AcDbEntity
  8
0
  6
Continuous
 62
     7
370
    25
100
AcDbLine
 10
345.2731570301
 20
328.3352785771
 30
0.0
 11
281.2450632497
 21
291.3726468095
 31
0.0
  0
LINE
  5
505
330
1F
100
AcDbEntity
  8
0
  6
Continuous
 62
     7
370
    25
100
AcDbLine
 10
345.1317356738
 20
331.4381203923
 30
0.0
 11
278.6636982423
 21
293.0669391366
 31
0.0
  0
LINE
  5
506
330
1F
100
AcDbEntity
  8
0
  6
Continuous
 62
     7
370
    25
100
AcDbLine
 10
345.2731570301
 20
331.3564795811
 30
0.0
 11
345.1317356738
 21
331.4381203923
 31
0.0
  0
LINE
  5
507
330
1F
100
AcDbEntity
  8
0
  6
Continuous
 62
     7
370
    25
100
AcDbLine
 10
342.7275726178
 20
326.8657439758
 30
0.0
 11
342.7275726178
 21
326.7019249182
 31
0.0
  0
LINE
  5
508
330
1F
100
AcDbEntity
  8
0
  6
Continuous
 62
     7
370
    25
100
AcDbLine
 10
342.7275726178
 20
326.7019249182
 30
0.0
 11
341.666912446
 21
326.0896188343
 31
0.0
  0
LINE
  5
509
330
1F
100
AcDbEntity
  8
0
  6
Continuous
 62
     7
370
    25
100
AcDbLine
 10
341.666912446
 20
326.253437892
 30
0.0
 11
341.666912446
 21
326.0896188343
 31
0.0
  0
LINE
  5
50A
330
1F
100
AcDbEntity
  8
0
  6
Continuous
 62
     7
370
    25
100
AcDbLine
 10
341.666912446
 20
326.0896188343
 30
0.0
 11
341.5250256068
 21
326.1715283631
 31
0.0
  0
LINE
  5
50B
330
1F
100
AcDbEntity
  8
0
  6
Continuous
 62
     7
370
    25
100
AcDbLine
 10
322.3982526587
 20
344.7659828178
 30
0.0
 11
322.3982526587
 21
344.7251624122
 31
0.0
  0
LINE
  5
50C
330
1F
100
AcDbEntity
  8
0
  6
Continuous
 62
     7
370
    25
100
AcDbLine
 10
349.0561783094
 20
329.3766899099
 30
0.0
 11
322.3982526587
 21
344.7659828178
 31
0.0
  0
LINE
  5
50D
330
1F
100
AcDbEntity
  8
0
  6
Continuous
 62
     7
370
    25
100
AcDbLine
 10
349.0561783094
 20
318.0676195703
 30
0.0
 11
349.0561783094
 21
329.3766899099
 31
0.0
  0
LINE
  5
50E
330
1F
100
AcDbEntity
  8
0
  6
Continuous
 62
     7
370
    25
100
AcDbLine
 10
349.0561783094
 20
329.3766899099
 30
0.0
 11
349.1975996657
 21
329.4583307211
 31
0.0
  0
LINE
  5
50F
330
1F
100
AcDbEntity
  8
0
  6
Continuous
 62
     7
370
    25
100
AcDbLine
 10
322.3982526587
 20
344.7659828178
 30
0.0
 11
322.5396740149
 21
344.847623629
 31
0.0
  0
LINE
  5
510
330
1F
100
AcDbEntity
  8
0
  6
Continuous
 62
     7
370
    25
100
AcDbLine
 10
349.1975996657
 20
329.4583307211
 30
0.0
 11
322.5396740149
 21
344.847623629
 31
0.0
  0
LINE
  5
511
330
1F
100
AcDbEntity
  8
0
  6
Continuous
 62
     7
370
    25
100
AcDbLine
 10
349.1975996657
 20
317.9859787591
 30
0.0
 11
349.1975996657
 21
329.4583307211
 31
0.0
  0
LINE
  5
512
330
1F
100
AcDbEntity
  8
0
  6
Continuous
 62
     7
370
    25
100
AcDbLine
 10
255.4352404803
 20
306.109058723
 30
0.0
 11
255.4352404803
 21
303.3736470032
 31
0.0
  0
LINE
  5
513
330
1F
100
AcDbEntity
  8
0
  6
Continuous
 62
     7
370
    25
100
AcDbLine
 10
282.0931661311
 20
290.7197658151
 30
0.0
 11
255.4352404803
 21
306.109058723
 31
0.0
  0
LINE
  5
514
330
1F
100
AcDbEntity
  8
0
  6
Continuous
 62
     7
370
    25
100
AcDbLine
 10
282.0931661311
 20
277.246842419
 30
0.0
 11
282.0931661311
 21
290.7197658151
 31
0.0
  0
LINE
  5
515
330
1F
100
AcDbEntity
  8
0
  6
Continuous
 62
     7
370
    25
100
AcDbLine
 10
273.2543313662
 20
282.3493931179
 30
0.0
 11
282.0931661311
 21
277.246842419
 31
0.0
  0
LINE
  5
516
330
1F
100
AcDbEntity
  8
0
  6
Continuous
 62
     7
370
    25
100
AcDbLine
 10
273.2543313662
 20
292.9644236724
 30
0.0
 11
273.2543313662
 21
282.3493931179
 31
0.0
  0
LINE
  5
517
330
1F
100
AcDbEntity
  8
0
  6
Continuous
 62
     7
370
    25
100
AcDbLine
 10
273.2543313662
 20
292.9644236724
 30
0.0
 11
273.2967577731
 21
292.939931429
 31
0.0
  0
LINE
  5
518
330
1F
100
AcDbEntity
  8
0
  6
Continuous
 62
     7
370
    25
100
AcDbLine
 10
273.2967577731
 20
292.939931429
 30
0.0
 11
273.2967577731
 21
293.1114049995
 31
0.0
  0
LWPOLYLINE
  5
519
330
1F
100
AcDbEntity
  8
0
  6
Continuous
 62
     7
370
    25
100
AcDbPolyline
 90
        9
 70
   128
 43
0.0
 10
273.2967577731
 20
293.1114049995
 10
273.2951430141
 20
293.1217114793
 10
273.2905445697
 20
293.1323132519
 10
273.2836625112
 20
293.1415962937
 10
273.2755445697
 20
293.1481473456
 10
273.2674266282
 20
293.1509690694
 10
273.2605445697
 20
293.1496318833
 10
273.2559461252
 20
293.1443393616
 10
273.2543313662
 20
293.1358972429
  0
LINE
  5
51A
330
1F
100
AcDbEntity
  8
0
  6
Continuous
 62
     7
370
    25
100
AcDbLine
 10
273.2543313662
 20
293.1358972429
 30
0.0
 11
273.2543313662
 21
293.0869047942
 31
0.0
  0
LINE
  5
51B
330
1F
100
AcDbEntity
  8
0
  6
Continuous
 62
     7
370
    25
100
AcDbLine
 10
255.4352404803
 20
303.3736470032
 30
0.0
 11
258.793997691
 21
301.4346777376
 31
0.0
  0
LINE
  5
51C
330
1F
100
AcDbEntity
  8
0
  6
Continuous
 62
     7
370
    25
100
AcDbLine
 10
255.5766618366
 20
306.1906995341
 30
0.0
 11
255.4352404803
 21
306.109058723
 31
0.0
  0
LINE
  5
51D
330
1F
100
AcDbEntity
  8
0
  6
Continuous
 62
     7
370
    25
100
AcDbLine
 10
282.2345874873
 20
290.8014066263
 30
0.0
 11
255.5766618366
 21
306.1906995341
 31
0.0
  0
LINE
  5
51E
330
1F
100
AcDbEntity
  8
0
  6
Continuous
 62
     7
370
    25
100
AcDbLine
 10
282.2345874873
 20
290.8014066263
 30
0.0
 11
282.0931661311
 21
290.7197658151
 31
0.0
  0
LINE
  5
51F
330
1F
100
AcDbEntity
  8
0
  6
Continuous
 62
     7
370
    25
100
AcDbLine
 10
282.2345874873
 20
277.3284832302
 30
0.0
 11
282.2345874873
 21
290.8014066263
 31
0.0
  0
LINE
  5
520
330
1F
100
AcDbEntity
  8
0
  6
Continuous
 62
     7
370
    25
100
AcDbLine
 10
282.2345874873
 20
277.3284832302
 30
0.0
 11
282.0931661311
 21
277.246842419
 31
0.0
  0
ARC
  5
521
330
1F
100
AcDbEntity
  8
0
  6
Continuous
 62
     7
370
    25
100
AcDbCircle
 10
273.474877719
 20
293.0783884456
 30
0.0
 40
0.2207107199744622
100
AcDbArc
 50
177.7886348382
 51
206.9936604194
  0
ARC
  5
522
330
1F
100
AcDbEntity
  8
0
  6
Continuous
 62
     7
370
    25
100
AcDbCircle
 10
258.9654983567
 20
301.4157473795
 30
0.0
 40
0.1725422754489778
100
AcDbArc
 50
173.7011524714
 51
234.9866671352
  0
LINE
  5
523
330
1F
100
AcDbEntity
  8
0
  6
Continuous
 62
     7
370
    25
100
AcDbLine
 10
273.2967577731
 20
292.9889159158
 30
0.0
 11
273.2543313662
 21
292.9644236724
 31
0.0
  0
LINE
  5
524
330
1F
100
AcDbEntity
  8
0
  6
Continuous
 62
     7
370
    25
100
AcDbLine
 10
258.793997691
 20
301.1488884534
 30
0.0
 11
258.793997691
 21
301.3121966158
 31
0.0
  0
LINE
  5
525
330
1F
100
AcDbEntity
  8
0
  6
Continuous
 62
     7
370
    25
100
AcDbLine
 10
255.5413064975
 20
303.0266271106
 30
0.0
 11
258.793997691
 21
301.1488884534
 31
0.0
  0
LINE
  5
526
330
1F
100
AcDbEntity
  8
0
  6
Continuous
 62
     7
370
    25
100
AcDbLine
 10
255.5413064975
 20
303.189935273
 30
0.0
 11
258.793997691
 21
301.3121966158
 31
0.0
  0
LINE
  5
527
330
1F
100
AcDbEntity
  8
0
  6
Continuous
 62
     7
370
    25
100
AcDbLine
 10
258.793997691
 20
301.3121966158
 30
0.0
 11
258.8178782666
 21
301.3259825787
 31
0.0
  0
LINE
  5
528
330
1F
100
AcDbEntity
  8
0
  6
Continuous
 62
     7
370
    25
100
AcDbLine
 10
258.793997691
 20
301.1488884534
 30
0.0
 11
258.9389842188
 21
301.2325873944
 31
0.0
  0
LINE
  5
529
330
1F
100
AcDbEntity
  8
0
  6
Continuous
 62
     7
370
    25
100
AcDbLine
 10
255.2938191241
 20
303.4552878143
 30
0.0
 11
255.2938191241
 21
306.1906995341
 31
0.0
  0
LINE
  5
52A
330
1F
100
AcDbEntity
  8
0
  6
Continuous
 62
     7
370
    25
100
AcDbLine
 10
255.2938191241
 20
306.1906995341
 30
0.0
 11
255.4352404803
 21
306.109058723
 31
0.0
  0
LINE
  5
52B
330
1F
100
AcDbEntity
  8
0
  6
Continuous
 62
     7
370
    25
100
AcDbLine
 10
255.4352404803
 20
306.109058723
 30
0.0
 11
322.5396740149
 21
344.847623629
 31
0.0
  0
LINE
  5
52C
330
1F
100
AcDbEntity
  8
0
  6
Continuous
 62
     7
370
    25
100
AcDbLine
 10
255.2938191241
 20
306.1906995341
 30
0.0
 11
322.3982526587
 21
344.9292644401
 31
0.0
  0
LINE
  5
52D
330
1F
100
AcDbEntity
  8
0
  6
Continuous
 62
     7
370
    25
100
AcDbLine
 10
322.3982526587
 20
344.9292644401
 30
0.0
 11
322.5396740149
 21
344.847623629
 31
0.0
  0
ARC
  5
52E
330
1F
100
AcDbEntity
  8
0
  6
Continuous
 62
     7
370
    25
100
AcDbCircle
 10
255.8311447596
 20
303.4797391126
 30
0.0
 40
0.5378816826500759
100
AcDbArc
 50
182.6054784856
 51
237.39452166
  0
ARC
  5
52F
330
1F
100
AcDbEntity
  8
0
  6
Continuous
 62
     7
370
    25
100
AcDbCircle
 10
255.6655228955
 20
303.384126131
 30
0.0
 40
0.2305207211355862
100
AcDbArc
 50
182.6054784856
 51
237.39452166
  0
LINE
  5
530
330
1F
100
AcDbEntity
  8
0
  6
Continuous
 62
     7
370
    25
100
AcDbLine
 10
255.7887938709
 20
265.6086211834
 30
0.0
 11
298.2152007421
 21
241.1163778287
 31
0.0
  0
LINE
  5
531
330
1F
100
AcDbEntity
  8
0
  6
Continuous
 62
     7
370
    25
100
AcDbLine
 10
255.7887938709
 20
302.883755691
 30
0.0
 11
255.7887938709
 21
265.6086211834
 31
0.0
  0
LINE
  5
532
330
1F
100
AcDbEntity
  8
0
  6
Continuous
 62
     7
370
    25
100
AcDbLine
 10
282.2345874873
 20
279.7372587202
 30
0.0
 11
298.2152007421
 21
270.5118470566
 31
0.0
  0
LINE
  5
533
330
1F
100
AcDbEntity
  8
0
  6
Continuous
 62
     7
370
    25
100
AcDbLine
 10
298.2152007421
 20
270.5118470566
 30
0.0
 11
298.2152007421
 21
241.1163778287
 31
0.0
  0
LINE
  5
534
330
1F
100
AcDbEntity
  8
0
  6
Continuous
 62
     7
370
    25
100
AcDbLine
 10
337.3535610808
 20
321.2720214092
 30
0.0
 11
349.6432247971
 21
314.1773495601
 31
0.0
  0
LINE
  5
535
330
1F
100
AcDbEntity
  8
0
  6
Continuous
 62
     7
370
    25
100
AcDbLine
 10
351.8273551654
 20
312.9164779369
 30
0.0
 11
358.5667645164
 21
309.0258997319
 31
0.0
  0
LINE
  5
536
330
1F
100
AcDbEntity
  8
0
  6
Continuous
 62
     7
370
    25
100
AcDbLine
 10
340.429475579
 20
323.0477090524
 30
0.0
 11
337.3535610808
 21
321.2720214092
 31
0.0
  0
LINE
  5
537
330
1F
100
AcDbEntity
  8
0
  6
Continuous
 62
     7
370
    25
100
AcDbLine
 10
340.429475579
 20
323.0477090524
 30
0.0
 11
364.8246595299
 21
308.9646691235
 31
0.0
  0
LINE
  5
538
330
1F
100
AcDbEntity
  8
0
  6
Continuous
 62
     7
370
    25
100
AcDbLine
 10
364.8246595299
 20
308.9646691235
 30
0.0
 11
298.2152007421
 21
270.5118470566
 31
0.0
  0
LINE
  5
539
330
1F
100
AcDbEntity
  8
0
  6
Continuous
 62
     7
370
    25
100
AcDbLine
 10
358.5667645164
 20
309.0258997319
 30
0.0
 11
298.1091347249
 21
274.1244529514
 31
0.0
  0
LWPOLYLINE
  5
53A
330
1F
100
AcDbEntity
  8
0
  6
Continuous
 62
     7
370
    25
100
AcDbPolyline
 90
       26
 70
   128
 43
0.0
 10
303.9074103307
 20
275.3898855248
 10
303.847990721
 20
275.3632780029
 10
303.7789756281
 20
275.3460370181
 10
303.704701524
 20
275.3392458849
 10
303.6298353239
 20
275.3433313151
 10
303.5590811464
 20
275.3580366062
 10
303.4968847367
 20
275.3824377706
 10
303.447154124
 20
275.4150015934
 10
303.4130140656
 20
275.4536819699
 10
303.3966097069
 20
275.4960484697
 10
303.3989717941
 20
275.5394390499
 10
303.4199519086
 20
275.5811273207
 10
303.4582317926
 20
275.6184938548
 10
303.5114061802
 20
275.6491907753
 10
303.5761339291
 20
275.671289282
 10
303.6483479568
 20
275.6834008443
 10
303.7235107903
 20
275.6847644482
 10
303.7968996724
 20
275.6752944135
 10
303.8639033097
 20
275.6555857773
 10
303.9203116172
 20
275.6268769057
 10
303.9625802536
 20
275.5909716826
 10
303.9880533249
 20
275.5501261654
 10
303.9951302644
 20
275.506906828
 10
303.983366402
 20
275.4640293004
 10
303.9535009044
 20
275.4241877353
 10
303.9074103307
 20
275.3898855248
  0
LWPOLYLINE
  5
53B
330
1F
100
AcDbEntity
  8
0
  6
Continuous
 62
     7
370
    25
100
AcDbPolyline
 90
       26
 70
   128
 43
0.0
 10
356.3747334947
 20
305.6786264734
 10
356.3153138851
 20
305.6520189515
 10
356.2462987922
 20
305.6347779667
 10
356.1720246881
 20
305.6279868335
 10
356.0971584879
 20
305.6320722638
 10
356.0264043104
 20
305.6467775548
 10
355.9642079008
 20
305.6711787192
 10
355.9144772881
 20
305.703742542
 10
355.8803372297
 20
305.7424229185
 10
355.863932871
 20
305.7847894183
 10
355.8662949582
 20
305.8281799985
 10
355.8872750726
 20
305.8698682693
 10
355.9255549566
 20
305.9072348034
 10
355.9787293443
 20
305.937931724
 10
356.0434570932
 20
305.9600302306
 10
356.1156711208
 20
305.9721417929
 10
356.1908339543
 20
305.9735053968
 10
356.2642228364
 20
305.9640353621
 10
356.3312264737
 20
305.9443267259
 10
356.3876347812
 20
305.9156178543
 10
356.4299034176
 20
305.8797126312
 10
356.4553764889
 20
305.838867114
 10
356.4624534285
 20
305.7956477766
 10
356.4506895661
 20
305.752770249
 10
356.4208240685
 20
305.7129286839
 10
356.3747334947
 20
305.6786264734
  0
LINE
  5
53C
330
1F
100
AcDbEntity
  8
0
  6
Continuous
 62
     7
370
    25
100
AcDbLine
 10
298.1091347249
 20
274.1244529514
 30
0.0
 11
282.2345874873
 21
283.2886340067
 31
0.0
  0
LINE
  5
53D
330
1F
100
AcDbEntity
  8
0
  6
Continuous
 62
     7
370
    25
100
AcDbLine
 10
298.2152007421
 20
241.1163778287
 30
0.0
 11
364.8246595299
 21
279.5691998956
 31
0.0
  0
LINE
  5
53E
330
1F
100
AcDbEntity
  8
0
  6
Continuous
 62
     7
370
    25
100
AcDbLine
 10
364.8246595299
 20
308.9646691235
 30
0.0
 11
364.8246595299
 21
279.5691998956
 31
0.0
  0
LINE
  5
53F
330
1F
100
AcDbEntity
  8
0
  6
Continuous
 62
     7
370
    25
100
AcDbLine
 10
311.5222067623
 20
308.398463303
 30
0.0
 11
281.6372476006
 21
291.1462436028
 31
0.0
  0
LINE
  5
540
330
1F
100
AcDbEntity
  8
0
  6
Continuous
 62
     7
370
    25
100
AcDbLine
 10
322.5043186759
 20
300.4488373555
 30
0.0
 11
322.5043186759
 21
315.1911079768
 31
0.0
  0
LINE
  5
541
330
1F
100
AcDbEntity
  8
0
  6
Continuous
 62
     7
370
    25
100
AcDbLine
 10
312.6048237393
 20
294.7339805727
 30
0.0
 11
311.5222067623
 21
308.398463303
 31
0.0
  0
LINE
  5
542
330
1F
100
AcDbEntity
  8
0
  6
Continuous
 62
     7
370
    25
100
AcDbLine
 10
322.5043186759
 20
300.4488373555
 30
0.0
 11
312.6048237393
 21
294.7339805727
 31
0.0
  0
LINE
  5
543
330
1F
100
AcDbEntity
  8
0
  6
Continuous
 62
     7
370
    25
100
AcDbLine
 10
337.3535610808
 20
323.7633931509
 30
0.0
 11
337.3535610808
 21
321.2720214092
 31
0.0
  0
LINE
  5
544
330
1F
100
AcDbEntity
  8
0
  6
Continuous
 62
     7
370
    25
100
AcDbLine
 10
329.2437899023
 20
310.8476876385
 30
0.0
 11
345.483162784
 21
301.4728972219
 31
0.0
  0
LINE
  5
545
330
1F
100
AcDbEntity
  8
0
  6
Continuous
 62
     7
370
    25
100
AcDbLine
 10
328.1611729254
 20
297.1832049082
 30
0.0
 11
329.2437899023
 21
310.8476876385
 31
0.0
  0
ARC
  5
546
330
1F
100
AcDbEntity
  8
0
  6
Continuous
 62
     7
370
    25
100
AcDbCircle
 10
351.0872641541
 20
311.3672814132
 30
0.0
 40
0.0878240492040668
100
AcDbArc
 50
105.7809203976
 51
189.8012085164
  0
ARC
  5
547
330
1F
100
AcDbEntity
  8
0
  6
Continuous
 62
     7
370
    25
100
AcDbCircle
 10
351.2931520358
 20
311.359132424
 30
0.0
 40
0.2925091598575338
100
AcDbArc
 50
181.3323420612
 51
243.6901067379
  0
LINE
  5
548
330
1F
100
AcDbEntity
  8
0
  6
Continuous
 62
     7
370
    25
100
AcDbLine
 10
328.1611729254
 20
297.1832049082
 30
0.0
 11
322.5043186759
 21
300.4488373555
 31
0.0
  0
LINE
  5
549
330
1F
100
AcDbEntity
  8
0
  6
Continuous
 62
     7
370
    25
100
AcDbLine
 10
309.5864477391
 20
307.2809734054
 30
0.0
 11
310.4835033957
 21
295.9585927404
 31
0.0
  0
LINE
  5
54A
330
1F
100
AcDbEntity
  8
0
  6
Continuous
 62
     7
370
    25
100
AcDbLine
 10
310.4835033957
 20
295.9585927404
 30
0.0
 11
285.3853502904
 21
281.4697373567
 31
0.0
  0
LINE
  5
54B
330
1F
100
AcDbEntity
  8
0
  6
Continuous
 62
     7
370
    25
100
AcDbLine
 10
340.429475579
 20
325.5390807941
 30
0.0
 11
340.429475579
 21
323.0477090524
 31
0.0
  0
LINE
  5
54C
330
1F
100
AcDbEntity
  8
0
  6
Continuous
 62
     7
370
    25
100
AcDbLine
 10
330.1764272517
 20
298.3465864675
 30
0.0
 11
331.0827609744
 21
309.7860722357
 31
0.0
  0
LINE
  5
54D
330
1F
100
AcDbEntity
  8
0
  6
Continuous
 62
     7
370
    25
100
AcDbLine
 10
335.1220370932
 20
295.4915466773
 30
0.0
 11
330.1764272517
 21
298.3465864675
 31
0.0
  0
LINE
  5
54E
330
1F
100
AcDbEntity
  8
0
  6
Continuous
 62
     7
370
    25
100
AcDbLine
 10
312.6048237393
 20
294.7339805727
 30
0.0
 11
310.4835033957
 21
295.9585927404
 31
0.0
  0
LINE
  5
54F
330
1F
100
AcDbEntity
  8
0
  6
Continuous
 62
     7
370
    25
100
AcDbLine
 10
330.1764272517
 20
298.3465864675
 30
0.0
 11
328.1611729254
 21
297.1832049082
 31
0.0
  0
LINE
  5
550
330
1F
100
AcDbEntity
  8
0
  6
PHANTOM
 62
     1
370
    18
100
AcDbLine
 10
311.261320855
 20
324.7639840781
 30
0.0
 11
311.261320855
 21
324.478241239
 31
0.0
  0
LINE
  5
551
330
1F
100
AcDbEntity
  8
0
  6
PHANTOM
 62
     1
370
    18
100
AcDbLine
 10
310.660280091
 20
325.1109575256
 30
0.0
 11
310.660280091
 21
324.4578310362
 31
0.0
  0
LINE
  5
552
330
1F
100
AcDbEntity
  8
0
  6
PHANTOM
 62
     1
370
    18
100
AcDbLine
 10
310.0945946661
 20
325.07013712
 30
0.0
 11
310.0945946661
 21
324.7843942809
 31
0.0
  0
LINE
  5
553
330
1F
100
AcDbEntity
  8
0
  6
PHANTOM
 62
     1
370
    18
100
AcDbLine
 10
310.1653053442
 20
325.1109575256
 30
0.0
 11
310.1653053442
 21
324.7435738753
 31
0.0
  0
LINE
  5
554
330
1F
100
AcDbEntity
  8
0
  6
PHANTOM
 62
     1
370
    18
100
AcDbLine
 10
290.7905795397
 20
312.9464766595
 30
0.0
 11
290.7905795397
 21
312.6607338203
 31
0.0
  0
LINE
  5
555
330
1F
100
AcDbEntity
  8
0
  6
PHANTOM
 62
     1
370
    18
100
AcDbLine
 10
290.1895387756
 20
313.293450107
 30
0.0
 11
290.1895387756
 21
312.6403236175
 31
0.0
  0
LINE
  5
556
330
1F
100
AcDbEntity
  8
0
  6
PHANTOM
 62
     1
370
    18
100
AcDbLine
 10
289.6238533507
 20
313.2526297014
 30
0.0
 11
289.6238533507
 21
312.9668868623
 31
0.0
  0
LINE
  5
557
330
1F
100
AcDbEntity
  8
0
  6
PHANTOM
 62
     1
370
    18
100
AcDbLine
 10
289.6945640288
 20
313.293450107
 30
0.0
 11
289.6945640288
 21
312.9260664567
 31
0.0
  0
LINE
  5
558
330
1F
100
AcDbEntity
  8
0
  6
PHANTOM
 62
     1
370
    18
100
AcDbLine
 10
304.9680705024
 20
321.1309679805
 30
0.0
 11
304.9680705024
 21
320.8452251414
 31
0.0
  0
LINE
  5
559
330
1F
100
AcDbEntity
  8
0
  6
PHANTOM
 62
     1
370
    18
100
AcDbLine
 10
304.3670297384
 20
321.477941428
 30
0.0
 11
304.3670297384
 21
320.8248149386
 31
0.0
  0
LINE
  5
55A
330
1F
100
AcDbEntity
  8
0
  6
PHANTOM
 62
     1
370
    18
100
AcDbLine
 10
303.8013443135
 20
321.4371210224
 30
0.0
 11
303.8013443135
 21
321.1513781833
 31
0.0
  0
LINE
  5
55B
330
1F
100
AcDbEntity
  8
0
  6
PHANTOM
 62
     1
370
    18
100
AcDbLine
 10
303.8720549916
 20
321.477941428
 30
0.0
 11
303.8720549916
 21
321.1105577777
 31
0.0
  0
LINE
  5
55C
330
1F
100
AcDbEntity
  8
0
  6
PHANTOM
 62
     1
370
    18
100
AcDbLine
 10
297.0838298922
 20
316.5794927571
 30
0.0
 11
297.0838298922
 21
316.293749918
 31
0.0
  0
LINE
  5
55D
330
1F
100
AcDbEntity
  8
0
  6
PHANTOM
 62
     1
370
    18
100
AcDbLine
 10
296.4827891282
 20
316.9264662046
 30
0.0
 11
296.4827891282
 21
316.2733397152
 31
0.0
  0
LINE
  5
55E
330
1F
100
AcDbEntity
  8
0
  6
PHANTOM
 62
     1
370
    18
100
AcDbLine
 10
295.9171037033
 20
316.885645799
 30
0.0
 11
295.9171037033
 21
316.5999029599
 31
0.0
  0
LINE
  5
55F
330
1F
100
AcDbEntity
  8
0
  6
PHANTOM
 62
     1
370
    18
100
AcDbLine
 10
295.9878143814
 20
316.9264662046
 30
0.0
 11
295.9878143814
 21
316.5590825543
 31
0.0
  0
LINE
  5
560
330
1F
100
AcDbEntity
  8
0
  6
PHANTOM
 62
     1
370
    18
100
AcDbLine
 10
349.6432247971
 20
314.053361124
 30
0.0
 11
351.0574383595
 21
313.2369530122
 31
0.0
  0
LINE
  5
561
330
1F
100
AcDbEntity
  8
0
  6
PHANTOM
 62
     1
370
    18
100
AcDbLine
 10
351.0574383595
 20
313.2369530122
 30
0.0
 11
351.1988597157
 21
313.3185938233
 31
0.0
  0
LINE
  5
562
330
1F
100
AcDbEntity
  8
0
  6
PHANTOM
 62
     1
370
    18
100
AcDbLine
 10
350.6154966212
 20
313.976147887
 30
0.0
 11
350.7569179775
 21
314.0577886981
 31
0.0
  0
LINE
  5
563
330
1F
100
AcDbEntity
  8
0
  6
PHANTOM
 62
     1
370
    18
100
AcDbLine
 10
351.2344593065
 20
313.2476014979
 30
0.0
 11
351.1405040714
 21
313.0713042528
 31
0.0
  0
LINE
  5
564
330
1F
100
AcDbEntity
  8
0
  6
PHANTOM
 62
     1
370
    18
100
AcDbLine
 10
350.0851665353
 20
314.2823009289
 30
0.0
 11
350.2265878916
 21
314.3639417401
 31
0.0
  0
LINE
  5
565
330
1F
100
AcDbEntity
  8
0
  6
PHANTOM
 62
     1
370
    18
100
AcDbLine
 10
351.2256624571
 20
313.252679811
 30
0.0
 11
351.2344593065
 21
313.2476014979
 31
0.0
  0
LINE
  5
566
330
1F
100
AcDbEntity
  8
0
  6
PHANTOM
 62
     1
370
    18
100
AcDbLine
 10
351.6582348717
 20
312.838755954
 30
0.0
 11
351.7521901068
 21
313.0150531991
 31
0.0
  0
LINE
  5
567
330
1F
100
AcDbEntity
  8
0
  6
PHANTOM
 62
     1
370
    18
100
AcDbLine
 10
351.1988597157
 20
313.3344840347
 30
0.0
 11
351.7521901068
 21
313.0150531991
 31
0.0
  0
LINE
  5
568
330
1F
100
AcDbEntity
  8
0
  6
PHANTOM
 62
     1
370
    18
100
AcDbLine
 10
351.8352558188
 20
312.8494044398
 30
0.0
 11
351.6938344625
 21
312.7677636286
 31
0.0
  0
LINE
  5
569
330
1F
100
AcDbEntity
  8
0
  6
PHANTOM
 62
     1
370
    18
100
AcDbLine
 10
351.2645307081
 20
313.0155954108
 30
0.0
 11
351.6938344625
 21
312.7677636286
 31
0.0
  0
LINE
  5
56A
330
1F
100
AcDbEntity
  8
0
  6
PHANTOM
 62
     1
370
    18
100
AcDbLine
 10
350.809950986
 20
311.4141499059
 30
0.0
 11
350.9513723423
 21
311.495790717
 31
0.0
  0
LINE
  5
56B
330
1F
100
AcDbEntity
  8
0
  6
PHANTOM
 62
     1
370
    18
100
AcDbLine
 10
350.809950986
 20
310.801744297
 30
0.0
 11
350.9513723423
 21
310.8833851081
 31
0.0
  0
LINE
  5
56C
330
1F
100
AcDbEntity
  8
0
  6
PHANTOM
 62
     1
370
    18
100
AcDbLine
 10
292.0140221304
 20
279.1519143436
 30
0.0
 11
292.1554434866
 21
279.2335551547
 31
0.0
  0
LINE
  5
56D
330
1F
100
AcDbEntity
  8
0
  6
PHANTOM
 62
     1
370
    18
100
AcDbLine
 10
292.0140221304
 20
279.1519143436
 30
0.0
 11
290.599808568
 21
279.9683224554
 31
0.0
  0
LINE
  5
56E
330
1F
100
AcDbEntity
  8
0
  6
PHANTOM
 62
     1
370
    18
100
AcDbLine
 10
291.7135017484
 20
279.9727500295
 30
0.0
 11
291.5720803921
 21
279.8911092184
 31
0.0
  0
LINE
  5
56F
330
1F
100
AcDbEntity
  8
0
  6
PHANTOM
 62
     1
370
    18
100
AcDbLine
 10
291.9784225395
 20
279.0398196054
 30
0.0
 11
290.5642089772
 21
279.8562277173
 31
0.0
  0
LINE
  5
570
330
1F
100
AcDbEntity
  8
0
  6
PHANTOM
 62
     1
370
    18
100
AcDbLine
 10
291.4606917393
 20
278.2095120483
 30
0.0
 11
290.0464781769
 21
279.0259201601
 31
0.0
  0
LINE
  5
571
330
1F
100
AcDbEntity
  8
0
  6
PHANTOM
 62
     1
370
    18
100
AcDbLine
 10
291.4606917393
 20
278.2095120483
 30
0.0
 11
291.5546469744
 21
278.1416932087
 31
0.0
  0
LINE
  5
572
330
1F
100
AcDbEntity
  8
0
  6
PHANTOM
 62
     1
370
    18
100
AcDbLine
 10
292.0723777747
 20
278.9720007658
 30
0.0
 11
291.9784225395
 21
279.0398196054
 31
0.0
  0
LINE
  5
573
330
1F
100
AcDbEntity
  8
0
  6
PHANTOM
 62
     1
370
    18
100
AcDbLine
 10
291.5190473836
 20
278.0295984705
 30
0.0
 11
291.4317693476
 21
277.9792139329
 31
0.0
  0
LINE
  5
574
330
1F
100
AcDbEntity
  8
0
  6
PHANTOM
 62
     1
370
    18
100
AcDbLine
 10
291.1831716625
 20
280.2789030715
 30
0.0
 11
291.0417503063
 21
280.1972622603
 31
0.0
  0
LINE
  5
575
330
1F
100
AcDbEntity
  8
0
  6
PHANTOM
 62
     1
370
    18
100
AcDbLine
 10
319.1102061262
 20
329.2950490987
 30
0.0
 11
319.1102061262
 21
329.0093062596
 31
0.0
  0
LINE
  5
576
330
1F
100
AcDbEntity
  8
0
  6
PHANTOM
 62
     1
370
    18
100
AcDbLine
 10
318.5091653622
 20
329.6420225463
 30
0.0
 11
318.5091653622
 21
328.9888960568
 31
0.0
  0
LINE
  5
577
330
1F
100
AcDbEntity
  8
0
  6
PHANTOM
 62
     1
370
    18
100
AcDbLine
 10
317.9434799372
 20
329.6012021407
 30
0.0
 11
317.9434799372
 21
329.3154593015
 31
0.0
  0
LINE
  5
578
330
1F
100
AcDbEntity
  8
0
  6
PHANTOM
 62
     1
370
    18
100
AcDbLine
 10
318.0141906153
 20
329.6420225463
 30
0.0
 11
318.0141906153
 21
329.2746388959
 31
0.0
  0
LINE
  5
579
330
1F
100
AcDbEntity
  8
0
  6
PHANTOM
 62
     1
370
    18
100
AcDbLine
 10
282.9416942685
 20
308.4154116389
 30
0.0
 11
282.9416942685
 21
308.1296687997
 31
0.0
  0
LINE
  5
57A
330
1F
100
AcDbEntity
  8
0
  6
PHANTOM
 62
     1
370
    18
100
AcDbLine
 10
282.3406535045
 20
308.7623850864
 30
0.0
 11
282.3406535045
 21
308.1092585969
 31
0.0
  0
LINE
  5
57B
330
1F
100
AcDbEntity
  8
0
  6
PHANTOM
 62
     1
370
    18
100
AcDbLine
 10
281.7749680795
 20
308.7215646808
 30
0.0
 11
281.7749680795
 21
308.4358218417
 31
0.0
  0
LINE
  5
57C
330
1F
100
AcDbEntity
  8
0
  6
PHANTOM
 62
     1
370
    18
100
AcDbLine
 10
281.8456787576
 20
308.7623850864
 30
0.0
 11
281.8456787576
 21
308.3950014361
 31
0.0
  0
LINE
  5
57D
330
1F
100
AcDbEntity
  8
0
  6
PHANTOM
 62
     1
370
    18
100
AcDbLine
 10
330.4946253033
 20
335.8671343989
 30
0.0
 11
330.4946253033
 21
335.5813915598
 31
0.0
  0
LINE
  5
57E
330
1F
100
AcDbEntity
  8
0
  6
PHANTOM
 62
     1
370
    18
100
AcDbLine
 10
329.8935845393
 20
336.2141078464
 30
0.0
 11
329.8935845393
 21
335.560981357
 31
0.0
  0
LINE
  5
57F
330
1F
100
AcDbEntity
  8
0
  6
PHANTOM
 62
     1
370
    18
100
AcDbLine
 10
329.3278991143
 20
336.1732874408
 30
0.0
 11
329.3278991143
 21
335.8875446017
 31
0.0
  0
LINE
  5
580
330
1F
100
AcDbEntity
  8
0
  6
PHANTOM
 62
     1
370
    18
100
AcDbLine
 10
329.3986097924
 20
336.2141078464
 30
0.0
 11
329.3986097924
 21
335.8467241961
 31
0.0
  0
LINE
  5
581
330
1F
100
AcDbEntity
  8
0
  6
PHANTOM
 62
     1
370
    18
100
AcDbLine
 10
271.5572750914
 20
301.8433263387
 30
0.0
 11
271.5572750914
 21
301.5575834996
 31
0.0
  0
LINE
  5
582
330
1F
100
AcDbEntity
  8
0
  6
PHANTOM
 62
     1
370
    18
100
AcDbLine
 10
270.9562343274
 20
302.1902997862
 30
0.0
 11
270.9562343274
 21
301.5371732968
 31
0.0
  0
LINE
  5
583
330
1F
100
AcDbEntity
  8
0
  6
PHANTOM
 62
     1
370
    18
100
AcDbLine
 10
270.3905489024
 20
302.1494793806
 30
0.0
 11
270.3905489024
 21
301.8637365415
 31
0.0
  0
LINE
  5
584
330
1F
100
AcDbEntity
  8
0
  6
PHANTOM
 62
     1
370
    18
100
AcDbLine
 10
270.4612595805
 20
302.1902997862
 30
0.0
 11
270.4612595805
 21
301.8229161359
 31
0.0
  0
LINE
  5
585
330
1F
100
AcDbEntity
  8
0
  6
PHANTOM
 62
     1
370
    18
100
AcDbLine
 10
258.793997691
 20
301.4346777376
 30
0.0
 11
273.2543313662
 21
293.0869047942
 31
0.0
  0
LINE
  5
586
330
1F
100
AcDbEntity
  8
0
  6
PHANTOM
 62
     1
370
    18
100
AcDbLine
 10
273.2755480174
 20
293.1481453549
 30
0.0
 11
273.2543313662
 21
293.1358972429
 31
0.0
  0
LINE
  5
587
330
1F
100
AcDbEntity
  8
0
  6
PHANTOM
 62
     1
370
    18
100
AcDbLine
 10
273.2967577731
 20
293.1113970375
 30
0.0
 11
273.2543313662
 21
293.0869047942
 31
0.0
  0
LINE
  5
588
330
1F
100
AcDbEntity
  8
0
  6
PHANTOM
 62
     1
370
    18
100
AcDbLine
 10
255.5413064975
 20
303.189935273
 30
0.0
 11
255.5413064975
 21
303.0266271106
 31
0.0
  0
LINE
  5
589
330
1F
100
AcDbEntity
  8
0
  6
PHANTOM
 62
     1
370
    18
100
AcDbLine
 10
255.5413064975
 20
303.189935273
 30
0.0
 11
255.6473897548
 21
303.2511758339
 31
0.0
  0
LINE
  5
58A
330
1F
100
AcDbEntity
  8
0
  6
PHANTOM
 62
     1
370
    18
100
AcDbLine
 10
255.4352404803
 20
303.3736470032
 30
0.0
 11
255.2938191241
 21
303.4552878143
 31
0.0
  0
ENDSEC
  0
SECTION
  2
OBJECTS
  0
DICTIONARY
  5
C
330
0
100
AcDbDictionary
281
     1
  3
ACAD_DETAILVIEWSTYLE
350
592
  3
ACAD_GROUP
350
D
  3
ACAD_LAYOUT
350
1A
  3
ACAD_MATERIAL
350
43
  3
ACAD_MLEADERSTYLE
350
6B
  3
ACAD_MLINESTYLE
350
17
  3
ACAD_PLOTSETTINGS
350
19
  3
ACAD_PLOTSTYLENAME
350
E
  3
ACAD_SCALELIST
350
47
  3
ACAD_SECTIONVIEWSTYLE
350
593
  3
ACAD_TABLESTYLE
350
69
  3
ACAD_VISUALSTYLE
350
2A
  3
ACDB_RECOMPOSE_DATA
350
58F
  3
AcDbVariableDictionary
350
58B
  0
SUN
  5
6D
330
29
100
AcDbSun
 90
        1
290
     0
 63
     7
421
 16777215
 40
1.0
291
     1
 91
  2455826
 92
 54000000
292
     0
 70
     2
 71
   256
280
     1
  0
DICTIONARY
  5
592
102
{ACAD_REACTORS
330
C
102
}
330
C
100
AcDbDictionary
281
     1
  0
DICTIONARY
  5
D
102
{ACAD_REACTORS
330
C
102
}
330
C
100
AcDbDictionary
281
     1
  0
DICTIONARY
  5
1A
102
{ACAD_REACTORS
330
C
102
}
330
C
100
AcDbDictionary
281
     1
  3
Layout1
350
1E
  3
Layout2
350
26
  3
Model
350
22
  0
DICTIONARY
  5
43
102
{ACAD_REACTORS
330
C
102
}
330
C
100
AcDbDictionary
281
     1
  3
ByBlock
350
45
  3
ByLayer
350
44
  3
Global
350
46
  0
DICTIONARY
  5
6B
102
{ACAD_REACTORS
330
C
102
}
330
C
100
AcDbDictionary
281
     1
  3
Standard
350
6C
  0
DICTIONARY
  5
17
102
{ACAD_REACTORS
330
C
102
}
330
C
100
AcDbDictionary
281
     1
  3
Standard
350
18
  0
DICTIONARY
  5
19
102
{ACAD_REACTORS
330
C
102
}
330
C
100
AcDbDictionary
281
     1
  0
ACDBDICTIONARYWDFLT
  5
E
102
{ACAD_REACTORS
330
C
102
}
330
C
100
AcDbDictionary
281
     1
  3
Normal
350
F
100
AcDbDictionaryWithDefault
340
F
  0
DICTIONARY
  5
47
102
{ACAD_REACTORS
330
C
102
}
330
C
100
AcDbDictionary
281
     1
  3
A0
350
48
  3
A1
350
49
  3
A2
350
4A
  3
A3
350
4B
  3
A4
350
4C
  3
A5
350
4D
  3
A6
350
4E
  3
A7
350
4F
  3
A8
350
50
  3
A9
350
51
  3
B0
350
52
  3
B1
350
53
  3
B2
350
54
  3
B3
350
55
  3
B4
350
56
  3
B5
350
57
  3
B6
350
58
  3
B7
350
59
  3
B8
350
5A
  3
B9
350
5B
  3
C0
350
5C
  3
C1
350
5D
  3
C2
350
5E
  3
C3
350
5F
  3
C4
350
60
  3
C5
350
61
  3
C6
350
62
  3
C7
350
63
  3
C8
350
64
  3
C9
350
65
  3
D0
350
66
  3
D1
350
67
  3
D2
350
68
  0
DICTIONARY
  5
593
102
{ACAD_REACTORS
330
C
102
}
330
C
100
AcDbDictionary
281
     1
  0
DICTIONARY
  5
69
102
{ACAD_REACTORS
330
C
102
}
330
C
100
AcDbDictionary
281
     1
  3
Standard
350
6A
  0
DICTIONARY
  5
2A
102
{ACAD_REACTORS
330
C
102
}
330
C
100
AcDbDictionary
281
     1
  3
2dWireframe
350
2F
  3
Basic
350
32
  3
Brighten
350
36
  3
ColorChange
350
3A
  3
Conceptual
350
34
  3
Dim
350
35
  3
EdgeColorOff
350
3D
  3
Facepattern
350
39
  3
Flat
350
2B
  3
FlatWithEdges
350
2C
  3
Gouraud
350
2D
  3
GouraudWithEdges
350
2E
  3
Hidden
350
31
  3
JitterOff
350
3B
  3
Linepattern
350
38
  3
OverhangOff
350
3C
  3
Realistic
350
33
  3
Shaded
350
42
  3
Shaded with edges
350
41
  3
Shades of Gray
350
3E
  3
Sketchy
350
3F
  3
Thicken
350
37
  3
Wireframe
350
30
  3
X-Ray
350
40
  0
XRECORD
  5
58F
102
{ACAD_REACTORS
330
C
102
}
330
C
100
AcDbXrecord
280
     1
 90
        1
330
6A
  0
DICTIONARY
  5
58B
102
{ACAD_REACTORS
330
C
102
}
330
C
100
AcDbDictionary
281
     1
  3
CANNOSCALE
350
58C
  3
CMLEADERSTYLE
350
591
  3
CTABLESTYLE
350
590
  3
SECTIONTHICKNESSINC
350
594
  0
LAYOUT
  5
1E
102
{ACAD_REACTORS
330
1A
102
}
330
1A
100
AcDbPlotSettings
  1

  2
none_device
  4

  6

 40
0.0
 41
0.0
 42
0.0
 43
0.0
 44
0.0
 45
0.0
 46
0.0
 47
0.0
 48
0.0
 49
0.0
140
0.0
141
0.0
142
1.0
143
1.0
 70
   688
 72
     1
 73
     0
 74
     5
  7

 75
    16
 76
     0
 77
     2
 78
   300
147
1.0
148
0.0
149
0.0
100
AcDbLayout
  1
Layout1
 70
     1
 71
     1
 10
0.0
 20
0.0
 11
420.0
 21
297.0
 12
0.0
 22
0.0
 32
0.0
 14
1.0000000000E+20
 24
1.0000000000E+20
 34
1.0000000000E+20
 15
-1.0000000000E+20
 25
-1.0000000000E+20
 35
-1.0000000000E+20
146
0.0
 13
0.0
 23
0.0
 33
0.0
 16
1.0
 26
0.0
 36
0.0
 17
0.0
 27
1.0
 37
0.0
 76
     0
330
1B
  0
LAYOUT
  5
26
102
{ACAD_REACTORS
330
1A
102
}
330
1A
100
AcDbPlotSettings
  1

  2
none_device
  4

  6

 40
0.0
 41
0.0
 42
0.0
 43
0.0
 44
0.0
 45
0.0
 46
0.0
 47
0.0
 48
0.0
 49
0.0
140
0.0
141
0.0
142
1.0
143
1.0
 70
   688
 72
     1
 73
     0
 74
     5
  7

 75
    16
 76
     0
 77
     2
 78
   300
147
1.0
148
0.0
149
0.0
100
AcDbLayout
  1
Layout2
 70
     1
 71
     2
 10
0.0
 20
0.0
 11
0.0
 21
0.0
 12
0.0
 22
0.0
 32
0.0
 14
0.0
 24
0.0
 34
0.0
 15
0.0
 25
0.0
 35
0.0
146
0.0
 13
0.0
 23
0.0
 33
0.0
 16
1.0
 26
0.0
 36
0.0
 17
0.0
 27
1.0
 37
0.0
 76
     0
330
23
  0
LAYOUT
  5
22
102
{ACAD_REACTORS
330
1A
102
}
330
1A
100
AcDbPlotSettings
  1

  2
none_device
  4
Letter_(8.50_x_11.00_Inches)
  6

 40
6.35
 41
6.35
 42
6.35000508
 43
6.35000508
 44
215.9
 45
279.4
 46
0.0
 47
0.0
 48
0.0
 49
0.0
140
0.0
141
0.0
142
1.0
143
1.0
 70
  1712
 72
     1
 73
     0
 74
     0
  7

 75
     0
 76
     0
 77
     2
 78
   300
147
1.0
148
0.0
149
0.0
100
AcDbLayout
  1
Model
 70
     1
 71
     0
 10
0.0
 20
0.0
 11
594.0
 21
420.0
 12
0.0
 22
0.0
 32
0.0
 14
0.0
 24
0.0
 34
0.0
 15
594.0
 25
420.0
 35
0.0
146
0.0
 13
0.0
 23
0.0
 33
0.0
 16
1.0
 26
0.0
 36
0.0
 17
0.0
 27
1.0
 37
0.0
 76
     0
330
1F
331
29
  0
MATERIAL
  5
45
102
{ACAD_REACTORS
330
43
102
}
330
43
100
AcDbMaterial
  1
ByBlock
 72
     1
 94
      127
  0
MATERIAL
  5
44
102
{ACAD_REACTORS
330
43
102
}
330
43
100
AcDbMaterial
  1
ByLayer
 72
     1
 94
      127
  0
MATERIAL
  5
46
102
{ACAD_REACTORS
330
43
102
}
330
43
100
AcDbMaterial
  1
Global
 72
     1
 94
      127
  0
MLEADERSTYLE
  5
6C
102
{ACAD_REACTORS
330
6B
102
}
330
6B
100
AcDbMLeaderStyle
179
     2
170
     2
171
     1
172
     0
 90
        2
 40
0.0
 41
0.0
173
     1
 91
-1056964608
340
14
 92
       -2
290
     1
 42
2.0
291
     1
 43
8.0
  3
Standard
341
0
 44
4.0
300

342
11
174
     1
178
     6
175
     1
176
     0
 93
-1056964608
 45
4.0
292
     0
297
     0
 46
4.0
343
0
 94
-1056964608
 47
1.0
 49
1.0
140
1.0
293
     1
141
0.0
294
     1
177
     0
142
1.0
295
     0
296
     0
143
3.75
271
     0
272
     9
273
     9
298
     0
  0
MLINESTYLE
  5
18
102
{ACAD_REACTORS
330
17
102
}
330
17
100
AcDbMlineStyle
  2
Standard
 70
     0
  3

 62
   256
 51
90.0
 52
90.0
 71
     2
 49
0.5
 62
   256
  6
BYLAYER
 49
-0.5
 62
   256
  6
BYLAYER
  0
ACDBPLACEHOLDER
  5
F
102
{ACAD_REACTORS
330
E
102
}
330
E
  0
SCALE
  5
48
102
{ACAD_REACTORS
330
47
102
}
330
47
100
AcDbScale
 70
     0
300
1:1
140
1.0
141
1.0
290
     1
  0
SCALE
  5
49
102
{ACAD_REACTORS
330
47
102
}
330
47
100
AcDbScale
 70
     0
300
1:2
140
1.0
141
2.0
290
     0
  0
SCALE
  5
4A
102
{ACAD_REACTORS
330
47
102
}
330
47
100
AcDbScale
 70
     0
300
1:4
140
1.0
141
4.0
290
     0
  0
SCALE
  5
4B
102
{ACAD_REACTORS
330
47
102
}
330
47
100
AcDbScale
 70
     0
300
1:5
140
1.0
141
5.0
290
     0
  0
SCALE
  5
4C
102
{ACAD_REACTORS
330
47
102
}
330
47
100
AcDbScale
 70
     0
300
1:8
140
1.0
141
8.0
290
     0
  0
SCALE
  5
4D
102
{ACAD_REACTORS
330
47
102
}
330
47
100
AcDbScale
 70
     0
300
1:10
140
1.0
141
10.0
290
     0
  0
SCALE
  5
4E
102
{ACAD_REACTORS
330
47
102
}
330
47
100
AcDbScale
 70
     0
300
1:16
140
1.0
141
16.0
290
     0
  0
SCALE
  5
4F
102
{ACAD_REACTORS
330
47
102
}
330
47
100
AcDbScale
 70
     0
300
1:20
140
1.0
141
20.0
290
     0
  0
SCALE
  5
50
102
{ACAD_REACTORS
330
47
102
}
330
47
100
AcDbScale
 70
     0
300
1:30
140
1.0
141
30.0
290
     0
  0
SCALE
  5
51
102
{ACAD_REACTORS
330
47
102
}
330
47
100
AcDbScale
 70
     0
300
1:40
140
1.0
141
40.0
290
     0
  0
SCALE
  5
52
102
{ACAD_REACTORS
330
47
102
}
330
47
100
AcDbScale
 70
     0
300
1:50
140
1.0
141
50.0
290
     0
  0
SCALE
  5
53
102
{ACAD_REACTORS
330
47
102
}
330
47
100
AcDbScale
 70
     0
300
1:100
140
1.0
141
100.0
290
     0
  0
SCALE
  5
54
102
{ACAD_REACTORS
330
47
102
}
330
47
100
AcDbScale
 70
     0
300
2:1
140
2.0
141
1.0
290
     0
  0
SCALE
  5
55
102
{ACAD_REACTORS
330
47
102
}
330
47
100
AcDbScale
 70
     0
300
4:1
140
4.0
141
1.0
290
     0
  0
SCALE
  5
56
102
{ACAD_REACTORS
330
47
102
}
330
47
100
AcDbScale
 70
     0
300
8:1
140
8.0
141
1.0
290
     0
  0
SCALE
  5
57
102
{ACAD_REACTORS
330
47
102
}
330
47
100
AcDbScale
 70
     0
300
10:1
140
10.0
141
1.0
290
     0
  0
SCALE
  5
58
102
{ACAD_REACTORS
330
47
102
}
330
47
100
AcDbScale
 70
     0
300
100:1
140
100.0
141
1.0
290
     0
  0
SCALE
  5
59
102
{ACAD_REACTORS
330
47
102
}
330
47
100
AcDbScale
 70
     0
300
1/128" = 1'-0"
140
0.0078125
141
12.0
290
     0
  0
SCALE
  5
5A
102
{ACAD_REACTORS
330
47
102
}
330
47
100
AcDbScale
 70
     0
300
1/64" = 1'-0"
140
0.015625
141
12.0
290
     0
  0
SCALE
  5
5B
102
{ACAD_REACTORS
330
47
102
}
330
47
100
AcDbScale
 70
     0
300
1/32" = 1'-0"
140
0.03125
141
12.0
290
     0
  0
SCALE
  5
5C
102
{ACAD_REACTORS
330
47
102
}
330
47
100
AcDbScale
 70
     0
300
1/16" = 1'-0"
140
0.0625
141
12.0
290
     0
  0
SCALE
  5
5D
102
{ACAD_REACTORS
330
47
102
}
330
47
100
AcDbScale
 70
     0
300
3/32" = 1'-0"
140
0.09375
141
12.0
290
     0
  0
SCALE
  5
5E
102
{ACAD_REACTORS
330
47
102
}
330
47
100
AcDbScale
 70
     0
300
1/8" = 1'-0"
140
0.125
141
12.0
290
     0
  0
SCALE
  5
5F
102
{ACAD_REACTORS
330
47
102
}
330
47
100
AcDbScale
 70
     0
300
3/16" = 1'-0"
140
0.1875
141
12.0
290
     0
  0
SCALE
  5
60
102
{ACAD_REACTORS
330
47
102
}
330
47
100
AcDbScale
 70
     0
300
1/4" = 1'-0"
140
0.25
141
12.0
290
     0
  0
SCALE
  5
61
102
{ACAD_REACTORS
330
47
102
}
330
47
100
AcDbScale
 70
     0
300
3/8" = 1'-0"
140
0.375
141
12.0
290
     0
  0
SCALE
  5
62
102
{ACAD_REACTORS
330
47
102
}
330
47
100
AcDbScale
 70
     0
300
1/2" = 1'-0"
140
0.5
141
12.0
290
     0
  0
SCALE
  5
63
102
{ACAD_REACTORS
330
47
102
}
330
47
100
AcDbScale
 70
     0
300
3/4" = 1'-0"
140
0.75
141
12.0
290
     0
  0
SCALE
  5
64
102
{ACAD_REACTORS
330
47
102
}
330
47
100
AcDbScale
 70
     0
300
1" = 1'-0"
140
1.0
141
12.0
290
     0
  0
SCALE
  5
65
102
{ACAD_REACTORS
330
47
102
}
330
47
100
AcDbScale
 70
     0
300
1-1/2" = 1'-0"
140
1.5
141
12.0
290
     0
  0
SCALE
  5
66
102
{ACAD_REACTORS
330
47
102
}
330
47
100
AcDbScale
 70
     0
300
3" = 1'-0"
140
3.0
141
12.0
290
     0
  0
SCALE
  5
67
102
{ACAD_REACTORS
330
47
102
}
330
47
100
AcDbScale
 70
     0
300
6" = 1'-0"
140
6.0
141
12.0
290
     0
  0
SCALE
  5
68
102
{ACAD_REACTORS
330
47
102
}
330
47
100
AcDbScale
 70
     0
300
1'-0" = 1'-0"
140
12.0
141
12.0
290
     0
  0
TABLESTYLE
  5
6A
102
{ACAD_REACTORS
330
69
102
}
102
{ACAD_XDICTIONARY
360
58D
102
}
330
69
100
AcDbTableStyle
  3
Standard
 70
     0
 71
     0
 40
0.06
 41
0.06
280
     0
281
     0
  7
Standard
140
4.5
170
     2
 62
     0
 63
   257
283
     0
 90
        4
 91
        0
  1

274
    -2
284
     1
 64
     0
275
    -2
285
     1
 65
     0
276
    -2
286
     1
 66
     0
277
    -2
287
     1
 67
     0
278
    -2
288
     1
 68
     0
279
    -2
289
     1
 69
     0
  7
Standard
140
6.0
170
     5
 62
     0
 63
   257
283
     0
 90
        4
 91
        0
  1

274
    -2
284
     1
 64
     0
275
    -2
285
     1
 65
     0
276
    -2
286
     1
 66
     0
277
    -2
287
     1
 67
     0
278
    -2
288
     1
 68
     0
279
    -2
289
     1
 69
     0
  7
Standard
140
4.5
170
     5
 62
     0
 63
   257
283
     0
 90
        4
 91
        0
  1

274
    -2
284
     1
 64
     0
275
    -2
285
     1
 65
     0
276
    -2
286
     1
 66
     0
277
    -2
287
     1
 67
     0
278
    -2
288
     1
 68
     0
279
    -2
289
     1
 69
     0
  0
VISUALSTYLE
  5
2F
102
{ACAD_REACTORS
330
2A
102
}
330
2A
100
AcDbVisualStyle
  2
2dWireframe
 70
     4
177
     3
291
     0
 70
    58
 90
        0
176
     1
 90
        2
176
     1
 90
        0
176
     1
 90
        0
176
     1
 40
0.6
176
     1
 40
30.0
176
     1
 62
     7
420
 16777215
176
     1
 90
        1
176
     1
 90
        4
176
     1
 62
     7
176
     1
 62
   257
176
     1
 90
        1
176
     1
 90
        1
176
     1
 40
1.0
176
     1
 90
        0
176
     1
 62
   257
176
     1
 40
1.0
176
     1
 90
        1
176
     1
 90
        6
176
     1
 90
        2
176
     1
 62
     7
176
     1
 90
        5
176
     1
 90
        0
176
     1
 90
        0
176
     1
290
     0
176
     1
 90
        1
176
     1
 40
0.0
176
     1
 90
        0
176
     1
290
     1
176
     1
290
     1
176
     1
290
     0
176
     1
290
     0
176
     1
290
     0
176
     1
290
     0
176
     1
290
     0
176
     1
290
     0
176
     1
290
     0
176
     1
 90
       50
176
     1
 40
0.0
176
     1
 40
1.0
176
     1
 90
        0
176
     1
 62
    18
420
        0
176
     1
 90
       50
176
     1
 90
        3
176
     1
 62
     5
420
      255
176
     1
290
     0
176
     1
 90
       50
176
     1
 90
       50
176
     1
 90
       50
176
     1
290
     0
176
     1
 90
       50
176
     1
 62
   256
176
     0
 40
1.0
176
     0
 90
        2
176
     1
  1
strokes_ogs.tif
176
     1
290
     0
176
     1
 40
1.0
176
     1
 40
1.0
176
     1
  0
VISUALSTYLE
  5
32
102
{ACAD_REACTORS
330
2A
102
}
330
2A
100
AcDbVisualStyle
  2
Basic
 70
     7
177
     3
291
     1
 70
    58
 90
        1
176
     1
 90
        0
176
     1
 90
        1
176
     1
 90
        0
176
     1
 40
0.6
176
     1
 40
30.0
176
     1
 62
     7
420
 16777215
176
     1
 90
        0
176
     1
 90
        4
176
     1
 62
     7
176
     1
 62
   257
176
     1
 90
        1
176
     1
 90
        1
176
     1
 40
1.0
176
     1
 90
        8
176
     1
 62
     7
176
     1
 40
1.0
176
     1
 90
        1
176
     1
 90
        6
176
     1
 90
        2
176
     1
 62
     7
176
     1
 90
        5
176
     1
 90
        0
176
     1
 90
        0
176
     1
290
     0
176
     1
 90
        1
176
     1
 40
0.0
176
     1
 90
        0
176
     1
290
     0
176
     1
290
     1
176
     1
290
     1
176
     1
290
     0
176
     1
290
     0
176
     1
290
     0
176
     1
290
     0
176
     1
290
     0
176
     1
290
     0
176
     1
 90
       50
176
     1
 40
0.0
176
     1
 40
1.0
176
     1
 90
        0
176
     1
 62
    18
420
        0
176
     1
 90
       50
176
     1
 90
        3
176
     1
 62
     5
420
      255
176
     1
290
     0
176
     1
 90
       50
176
     1
 90
       50
176
     1
 90
       50
176
     1
290
     0
176
     1
 90
       50
176
     1
 62
   256
176
     0
 40
1.0
176
     0
 90
        2
176
     1
  1
strokes_ogs.tif
176
     1
290
     0
176
     1
 40
1.0
176
     1
 40
1.0
176
     1
  0
VISUALSTYLE
  5
36
102
{ACAD_REACTORS
330
2A
102
}
330
2A
100
AcDbVisualStyle
  2
Brighten
 70
    12
177
     3
291
     1
 70
    58
 90
        2
176
     1
 90
        2
176
     1
 90
        0
176
     1
 90
        0
176
     1
 40
0.6
176
     1
 40
30.0
176
     1
 62
     7
420
 16777215
176
     1
 90
        1
176
     1
 90
        4
176
     1
 62
     7
176
     1
 62
   257
176
     1
 90
        1
176
     1
 90
        1
176
     1
 40
1.0
176
     1
 90
        8
176
     1
 62
     7
176
     1
 40
1.0
176
     1
 90
        1
176
     1
 90
        6
176
     1
 90
        2
176
     1
 62
     7
176
     1
 90
        5
176
     1
 90
        0
176
     1
 90
        0
176
     1
290
     0
176
     1
 90
        1
176
     1
 40
50.0
176
     1
 90
        0
176
     1
290
     0
176
     1
290
     1
176
     1
290
     1
176
     1
290
     0
176
     1
290
     0
176
     1
290
     0
176
     1
290
     0
176
     1
290
     0
176
     1
290
     0
176
     1
 90
       50
176
     1
 40
0.0
176
     1
 40
1.0
176
     1
 90
        0
176
     1
 62
    18
420
        0
176
     1
 90
       50
176
     1
 90
        3
176
     1
 62
     5
420
      255
176
     1
290
     0
176
     1
 90
       50
176
     1
 90
       50
176
     1
 90
       50
176
     1
290
     0
176
     1
 90
       50
176
     1
 62
   256
176
     0
 40
1.0
176
     0
 90
        2
176
     1
  1
strokes_ogs.tif
176
     1
290
     0
176
     1
 40
1.0
176
     1
 40
1.0
176
     1
  0
VISUALSTYLE
  5
3A
102
{ACAD_REACTORS
330
2A
102
}
330
2A
100
AcDbVisualStyle
  2
ColorChange
 70
    16
177
     3
291
     1
 70
    58
 90
        2
176
     1
 90
        2
176
     1
 90
        3
176
     1
 90
        0
176
     1
 40
0.6
176
     1
 40
30.0
176
     1
 62
     8
420
  8421504
176
     1
 90
        1
176
     1
 90
        4
176
     1
 62
     7
176
     1
 62
   257
176
     1
 90
        1
176
     1
 90
        1
176
     1
 40
1.0
176
     1
 90
        8
176
     1
 62
     8
420
  8421504
176
     1
 40
1.0
176
     1
 90
        1
176
     1
 90
        6
176
     1
 90
        2
176
     1
 62
     7
176
     1
 90
        5
176
     1
 90
        0
176
     1
 90
        0
176
     1
290
     0
176
     1
 90
        1
176
     1
 40
0.0
176
     1
 90
        0
176
     1
290
     0
176
     1
290
     1
176
     1
290
     1
176
     1
290
     0
176
     1
290
     0
176
     1
290
     0
176
     1
290
     0
176
     1
290
     0
176
     1
290
     0
176
     1
 90
       50
176
     1
 40
0.0
176
     1
 40
1.0
176
     1
 90
        0
176
     1
 62
    18
420
        0
176
     1
 90
       50
176
     1
 90
        3
176
     1
 62
     5
420
      255
176
     1
290
     0
176
     1
 90
       50
176
     1
 90
       50
176
     1
 90
       50
176
     1
290
     0
176
     1
 90
       50
176
     1
 62
   256
176
     0
 40
1.0
176
     0
 90
        2
176
     1
  1
strokes_ogs.tif
176
     1
290
     0
176
     1
 40
1.0
176
     1
 40
1.0
176
     1
  0
VISUALSTYLE
  5
34
102
{ACAD_REACTORS
330
2A
102
}
330
2A
100
AcDbVisualStyle
  2
Conceptual
 70
     9
177
     3
291
     0
 70
    58
 90
        3
176
     1
 90
        2
176
     1
 90
        0
176
     1
 90
        0
176
     1
 40
0.6
176
     1
 40
30.0
176
     1
 62
     7
420
 16777215
176
     1
 90
        2
176
     1
 90
        2
176
     1
 62
     7
176
     1
 62
   257
176
     1
 90
        1
176
     1
 90
        1
176
     1
 40
179.0
176
     1
 90
        8
176
     1
 62
     7
176
     1
 40
1.0
176
     1
 90
        1
176
     1
 90
        6
176
     1
 90
        2
176
     1
 62
     7
176
     1
 90
        3
176
     1
 90
        0
176
     1
 90
        0
176
     1
290
     0
176
     1
 90
        1
176
     1
 40
0.0
176
     1
 90
        0
176
     1
290
     0
176
     1
290
     1
176
     1
290
     1
176
     1
290
     0
176
     1
290
     0
176
     1
290
     0
176
     1
290
     0
176
     1
290
     0
176
     1
290
     0
176
     1
 90
       50
176
     1
 40
0.0
176
     1
 40
1.0
176
     1
 90
        0
176
     1
 62
    18
420
        0
176
     1
 90
       50
176
     1
 90
        3
176
     1
 62
     5
420
      255
176
     1
290
     0
176
     1
 90
       50
176
     1
 90
       50
176
     1
 90
       50
176
     1
290
     0
176
     1
 90
       50
176
     1
 62
   256
176
     0
 40
1.0
176
     0
 90
        2
176
     1
  1
strokes_ogs.tif
176
     1
290
     0
176
     1
 40
1.0
176
     1
 40
1.0
176
     1
  0
VISUALSTYLE
  5
35
102
{ACAD_REACTORS
330
2A
102
}
330
2A
100
AcDbVisualStyle
  2
Dim
 70
    11
177
     3
291
     1
 70
    58
 90
        2
176
     1
 90
        2
176
     1
 90
        0
176
     1
 90
        0
176
     1
 40
0.6
176
     1
 40
30.0
176
     1
 62
     7
420
 16777215
176
     1
 90
        1
176
     1
 90
        4
176
     1
 62
     7
176
     1
 62
   257
176
     1
 90
        1
176
     1
 90
        1
176
     1
 40
1.0
176
     1
 90
        8
176
     1
 62
     7
176
     1
 40
1.0
176
     1
 90
        1
176
     1
 90
        6
176
     1
 90
        2
176
     1
 62
     7
176
     1
 90
        5
176
     1
 90
        0
176
     1
 90
        0
176
     1
290
     0
176
     1
 90
        1
176
     1
 40
-50.0
176
     1
 90
        0
176
     1
290
     0
176
     1
290
     1
176
     1
290
     1
176
     1
290
     0
176
     1
290
     0
176
     1
290
     0
176
     1
290
     0
176
     1
290
     0
176
     1
290
     0
176
     1
 90
       50
176
     1
 40
0.0
176
     1
 40
1.0
176
     1
 90
        0
176
     1
 62
    18
420
        0
176
     1
 90
       50
176
     1
 90
        3
176
     1
 62
     5
420
      255
176
     1
290
     0
176
     1
 90
       50
176
     1
 90
       50
176
     1
 90
       50
176
     1
290
     0
176
     1
 90
       50
176
     1
 62
   256
176
     0
 40
1.0
176
     0
 90
        2
176
     1
  1
strokes_ogs.tif
176
     1
290
     0
176
     1
 40
1.0
176
     1
 40
1.0
176
     1
  0
VISUALSTYLE
  5
3D
102
{ACAD_REACTORS
330
2A
102
}
330
2A
100
AcDbVisualStyle
  2
EdgeColorOff
 70
    22
177
     3
291
     1
 70
    58
 90
        2
176
     0
 90
        2
176
     0
 90
        0
176
     0
 90
        0
176
     0
 40
0.6
176
     0
 40
30.0
176
     0
 62
     7
420
 16777215
176
     0
 90
        1
176
     0
 90
        4
176
     0
 62
     7
176
     0
 62
   257
176
     0
 90
        1
176
     0
 90
        1
176
     0
 40
1.0
176
     0
 90
        8
176
     2
 62
     7
176
     0
 40
1.0
176
     0
 90
        1
176
     0
 90
        6
176
     0
 90
        2
176
     0
 62
     7
176
     0
 90
        5
176
     0
 90
        0
176
     0
 90
        0
176
     0
290
     0
176
     0
 90
        1
176
     0
 40
0.0
176
     0
 90
        0
176
     0
290
     0
176
     0
290
     1
176
     0
290
     1
176
     0
290
     0
176
     0
290
     0
176
     0
290
     0
176
     0
290
     0
176
     0
290
     0
176
     0
290
     0
176
     0
 90
       50
176
     0
 40
0.0
176
     0
 40
1.0
176
     0
 90
        0
176
     0
 62
    18
420
        0
176
     0
 90
       50
176
     0
 90
        3
176
     0
 62
     5
420
      255
176
     0
290
     0
176
     0
 90
       50
176
     0
 90
       50
176
     0
 90
       50
176
     0
290
     0
176
     0
 90
       50
176
     0
 62
   256
176
     0
 40
1.0
176
     0
 90
        2
176
     0
  1
strokes_ogs.tif
176
     0
290
     0
176
     0
 40
1.0
176
     0
 40
1.0
176
     0
  0
VISUALSTYLE
  5
39
102
{ACAD_REACTORS
330
2A
102
}
330
2A
100
AcDbVisualStyle
  2
Facepattern
 70
    15
177
     3
291
     1
 70
    58
 90
        2
176
     1
 90
        2
176
     1
 90
        0
176
     1
 90
        0
176
     1
 40
0.6
176
     1
 40
30.0
176
     1
 62
     7
420
 16777215
176
     1
 90
        1
176
     1
 90
        4
176
     1
 62
     7
176
     1
 62
   257
176
     1
 90
        1
176
     1
 90
        1
176
     1
 40
1.0
176
     1
 90
        8
176
     1
 62
     7
176
     1
 40
1.0
176
     1
 90
        1
176
     1
 90
        6
176
     1
 90
        2
176
     1
 62
     7
176
     1
 90
        5
176
     1
 90
        0
176
     1
 90
        0
176
     1
290
     0
176
     1
 90
        1
176
     1
 40
0.0
176
     1
 90
        0
176
     1
290
     0
176
     1
290
     1
176
     1
290
     1
176
     1
290
     0
176
     1
290
     0
176
     1
290
     0
176
     1
290
     0
176
     1
290
     0
176
     1
290
     0
176
     1
 90
       50
176
     1
 40
0.0
176
     1
 40
1.0
176
     1
 90
        0
176
     1
 62
    18
420
        0
176
     1
 90
       50
176
     1
 90
        3
176
     1
 62
     5
420
      255
176
     1
290
     0
176
     1
 90
       50
176
     1
 90
       50
176
     1
 90
       50
176
     1
290
     0
176
     1
 90
       50
176
     1
 62
   256
176
     0
 40
1.0
176
     0
 90
        2
176
     1
  1
strokes_ogs.tif
176
     1
290
     0
176
     1
 40
1.0
176
     1
 40
1.0
176
     1
  0
VISUALSTYLE
  5
2B
102
{ACAD_REACTORS
330
2A
102
}
330
2A
100
AcDbVisualStyle
  2
Flat
 70
     0
177
     3
291
     1
 70
    58
 90
        2
176
     1
 90
        1
176
     1
 90
        1
176
     1
 90
        2
176
     1
 40
0.6
176
     1
 40
30.0
176
     1
 62
     7
420
 16777215
176
     1
 90
        0
176
     1
 90
        0
176
     1
 62
     7
176
     1
 62
   257
176
     1
 90
        1
176
     1
 90
        1
176
     1
 40
1.0
176
     1
 90
        8
176
     1
 62
     7
176
     1
 40
1.0
176
     1
 90
        1
176
     1
 90
        6
176
     1
 90
        2
176
     1
 62
     7
176
     1
 90
        5
176
     1
 90
        0
176
     1
 90
        0
176
     1
290
     0
176
     1
 90
       13
176
     1
 40
0.0
176
     1
 90
        0
176
     1
290
     0
176
     1
290
     1
176
     1
290
     1
176
     1
290
     0
176
     1
290
     0
176
     1
290
     0
176
     1
290
     0
176
     1
290
     0
176
     1
290
     0
176
     1
 90
       50
176
     1
 40
0.0
176
     1
 40
1.0
176
     1
 90
        0
176
     1
 62
    18
420
        0
176
     1
 90
       50
176
     1
 90
        3
176
     1
 62
     5
420
      255
176
     1
290
     0
176
     1
 90
       50
176
     1
 90
       50
176
     1
 90
       50
176
     1
290
     0
176
     1
 90
       50
176
     1
 62
   256
176
     0
 40
1.0
176
     0
 90
        2
176
     1
  1
strokes_ogs.tif
176
     1
290
     0
176
     1
 40
1.0
176
     1
 40
1.0
176
     1
  0
VISUALSTYLE
  5
2C
102
{ACAD_REACTORS
330
2A
102
}
330
2A
100
AcDbVisualStyle
  2
FlatWithEdges
 70
     1
177
     3
291
     1
 70
    58
 90
        2
176
     1
 90
        1
176
     1
 90
        1
176
     1
 90
        2
176
     1
 40
0.6
176
     1
 40
30.0
176
     1
 62
     7
420
 16777215
176
     1
 90
        1
176
     1
 90
        0
176
     1
 62
     7
176
     1
 62
   257
176
     1
 90
        1
176
     1
 90
        1
176
     1
 40
1.0
176
     1
 90
        0
176
     1
 62
   257
176
     1
 40
1.0
176
     1
 90
        1
176
     1
 90
        6
176
     1
 90
        2
176
     1
 62
     7
176
     1
 90
        5
176
     1
 90
        0
176
     1
 90
        0
176
     1
290
     0
176
     1
 90
       13
176
     1
 40
0.0
176
     1
 90
        0
176
     1
290
     0
176
     1
290
     1
176
     1
290
     1
176
     1
290
     0
176
     1
290
     0
176
     1
290
     0
176
     1
290
     0
176
     1
290
     0
176
     1
290
     0
176
     1
 90
       50
176
     1
 40
0.0
176
     1
 40
1.0
176
     1
 90
        0
176
     1
 62
    18
420
        0
176
     1
 90
       50
176
     1
 90
        3
176
     1
 62
     5
420
      255
176
     1
290
     0
176
     1
 90
       50
176
     1
 90
       50
176
     1
 90
       50
176
     1
290
     0
176
     1
 90
       50
176
     1
 62
   256
176
     0
 40
1.0
176
     0
 90
        2
176
     1
  1
strokes_ogs.tif
176
     1
290
     0
176
     1
 40
1.0
176
     1
 40
1.0
176
     1
  0
VISUALSTYLE
  5
2D
102
{ACAD_REACTORS
330
2A
102
}
330
2A
100
AcDbVisualStyle
  2
Gouraud
 70
     2
177
     3
291
     1
 70
    58
 90
        2
176
     1
 90
        2
176
     1
 90
        1
176
     1
 90
        2
176
     1
 40
0.6
176
     1
 40
30.0
176
     1
 62
     7
420
 16777215
176
     1
 90
        0
176
     1
 90
        0
176
     1
 62
     7
176
     1
 62
   257
176
     1
 90
        1
176
     1
 90
        1
176
     1
 40
1.0
176
     1
 90
        0
176
     1
 62
     7
176
     1
 40
1.0
176
     1
 90
        1
176
     1
 90
        6
176
     1
 90
        2
176
     1
 62
     7
176
     1
 90
        5
176
     1
 90
        0
176
     1
 90
        0
176
     1
290
     0
176
     1
 90
       13
176
     1
 40
0.0
176
     1
 90
        0
176
     1
290
     0
176
     1
290
     1
176
     1
290
     1
176
     1
290
     0
176
     1
290
     0
176
     1
290
     0
176
     1
290
     0
176
     1
290
     0
176
     1
290
     0
176
     1
 90
       50
176
     1
 40
0.0
176
     1
 40
1.0
176
     1
 90
        0
176
     1
 62
    18
420
        0
176
     1
 90
       50
176
     1
 90
        3
176
     1
 62
     5
420
      255
176
     1
290
     0
176
     1
 90
       50
176
     1
 90
       50
176
     1
 90
       50
176
     1
290
     0
176
     1
 90
       50
176
     1
 62
   256
176
     0
 40
1.0
176
     0
 90
        2
176
     1
  1
strokes_ogs.tif
176
     1
290
     0
176
     1
 40
1.0
176
     1
 40
1.0
176
     1
  0
VISUALSTYLE
  5
2E
102
{ACAD_REACTORS
330
2A
102
}
330
2A
100
AcDbVisualStyle
  2
GouraudWithEdges
 70
     3
177
     3
291
     1
 70
    58
 90
        2
176
     1
 90
        2
176
     1
 90
        1
176
     1
 90
        2
176
     1
 40
0.6
176
     1
 40
30.0
176
     1
 62
     7
420
 16777215
176
     1
 90
        1
176
     1
 90
        0
176
     1
 62
     7
176
     1
 62
   257
176
     1
 90
        1
176
     1
 90
        1
176
     1
 40
1.0
176
     1
 90
        0
176
     1
 62
   257
176
     1
 40
1.0
176
     1
 90
        1
176
     1
 90
        6
176
     1
 90
        2
176
     1
 62
     7
176
     1
 90
        5
176
     1
 90
        0
176
     1
 90
        0
176
     1
290
     0
176
     1
 90
       13
176
     1
 40
0.0
176
     1
 90
        0
176
     1
290
     0
176
     1
290
     1
176
     1
290
     1
176
     1
290
     0
176
     1
290
     0
176
     1
290
     0
176
     1
290
     0
176
     1
290
     0
176
     1
290
     0
176
     1
 90
       50
176
     1
 40
0.0
176
     1
 40
1.0
176
     1
 90
        0
176
     1
 62
    18
420
        0
176
     1
 90
       50
176
     1
 90
        3
176
     1
 62
     5
420
      255
176
     1
290
     0
176
     1
 90
       50
176
     1
 90
       50
176
     1
 90
       50
176
     1
290
     0
176
     1
 90
       50
176
     1
 62
   256
176
     0
 40
1.0
176
     0
 90
        2
176
     1
  1
strokes_ogs.tif
176
     1
290
     0
176
     1
 40
1.0
176
     1
 40
1.0
176
     1
  0
VISUALSTYLE
  5
31
102
{ACAD_REACTORS
330
2A
102
}
330
2A
100
AcDbVisualStyle
  2
Hidden
 70
     6
177
     3
291
     0
 70
    58
 90
        1
176
     1
 90
        2
176
     1
 90
        2
176
     1
 90
        0
176
     1
 40
0.6
176
     1
 40
30.0
176
     1
 62
     7
420
 16777215
176
     1
 90
        2
176
     1
 90
        2
176
     1
 62
     7
176
     1
 62
   257
176
     1
 90
        2
176
     1
 90
        1
176
     1
 40
40.0
176
     1
 90
        0
176
     1
 62
   257
176
     1
 40
1.0
176
     1
 90
        1
176
     1
 90
        6
176
     1
 90
        2
176
     1
 62
     7
176
     1
 90
        3
176
     1
 90
        0
176
     1
 90
        0
176
     1
290
     0
176
     1
 90
        1
176
     1
 40
0.0
176
     1
 90
        0
176
     1
290
     0
176
     1
290
     1
176
     1
290
     1
176
     1
290
     0
176
     1
290
     0
176
     1
290
     0
176
     1
290
     0
176
     1
290
     0
176
     1
290
     0
176
     1
 90
       50
176
     1
 40
0.0
176
     1
 40
1.0
176
     1
 90
        0
176
     1
 62
    18
420
        0
176
     1
 90
       50
176
     1
 90
        3
176
     1
 62
     5
420
      255
176
     1
290
     0
176
     1
 90
       50
176
     1
 90
       50
176
     1
 90
       50
176
     1
290
     0
176
     1
 90
       50
176
     1
 62
   256
176
     0
 40
1.0
176
     0
 90
        2
176
     1
  1
strokes_ogs.tif
176
     1
290
     0
176
     1
 40
1.0
176
     1
 40
1.0
176
     1
  0
VISUALSTYLE
  5
3B
102
{ACAD_REACTORS
330
2A
102
}
330
2A
100
AcDbVisualStyle
  2
JitterOff
 70
    20
177
     3
291
     1
 70
    58
 90
        2
176
     0
 90
        2
176
     0
 90
        0
176
     0
 90
        0
176
     0
 40
0.6
176
     0
 40
30.0
176
     0
 62
     7
420
 16777215
176
     0
 90
        1
176
     0
 90
        4
176
     0
 62
     7
176
     0
 62
   257
176
     0
 90
        1
176
     0
 90
        1
176
     0
 40
1.0
176
     0
 90
       10
176
     2
 62
     7
176
     0
 40
1.0
176
     0
 90
        1
176
     0
 90
        6
176
     0
 90
        2
176
     0
 62
     7
176
     0
 90
        5
176
     0
 90
        0
176
     0
 90
        0
176
     0
290
     0
176
     0
 90
        1
176
     0
 40
0.0
176
     0
 90
        0
176
     0
290
     0
176
     0
290
     1
176
     0
290
     1
176
     0
290
     0
176
     0
290
     0
176
     0
290
     0
176
     0
290
     0
176
     0
290
     0
176
     0
290
     0
176
     0
 90
       50
176
     0
 40
0.0
176
     0
 40
1.0
176
     0
 90
        0
176
     0
 62
    18
420
        0
176
     0
 90
       50
176
     0
 90
        3
176
     0
 62
     5
420
      255
176
     0
290
     0
176
     0
 90
       50
176
     0
 90
       50
176
     0
 90
       50
176
     0
290
     0
176
     0
 90
       50
176
     0
 62
   256
176
     0
 40
1.0
176
     0
 90
        2
176
     0
  1
strokes_ogs.tif
176
     0
290
     0
176
     0
 40
1.0
176
     0
 40
1.0
176
     0
  0
VISUALSTYLE
  5
38
102
{ACAD_REACTORS
330
2A
102
}
330
2A
100
AcDbVisualStyle
  2
Linepattern
 70
    14
177
     3
291
     1
 70
    58
 90
        2
176
     1
 90
        2
176
     1
 90
        0
176
     1
 90
        0
176
     1
 40
0.6
176
     1
 40
30.0
176
     1
 62
     7
420
 16777215
176
     1
 90
        1
176
     1
 90
        4
176
     1
 62
     7
176
     1
 62
   257
176
     1
 90
        7
176
     1
 90
        7
176
     1
 40
1.0
176
     1
 90
        8
176
     1
 62
     7
176
     1
 40
1.0
176
     1
 90
        1
176
     1
 90
        6
176
     1
 90
        2
176
     1
 62
     7
176
     1
 90
        5
176
     1
 90
        0
176
     1
 90
        0
176
     1
290
     0
176
     1
 90
        1
176
     1
 40
0.0
176
     1
 90
        0
176
     1
290
     0
176
     1
290
     1
176
     1
290
     1
176
     1
290
     0
176
     1
290
     0
176
     1
290
     0
176
     1
290
     0
176
     1
290
     0
176
     1
290
     0
176
     1
 90
       50
176
     1
 40
0.0
176
     1
 40
1.0
176
     1
 90
        0
176
     1
 62
    18
420
        0
176
     1
 90
       50
176
     1
 90
        3
176
     1
 62
     5
420
      255
176
     1
290
     0
176
     1
 90
       50
176
     1
 90
       50
176
     1
 90
       50
176
     1
290
     0
176
     1
 90
       50
176
     1
 62
   256
176
     0
 40
1.0
176
     0
 90
        2
176
     1
  1
strokes_ogs.tif
176
     1
290
     0
176
     1
 40
1.0
176
     1
 40
1.0
176
     1
  0
VISUALSTYLE
  5
3C
102
{ACAD_REACTORS
330
2A
102
}
330
2A
100
AcDbVisualStyle
  2
OverhangOff
 70
    21
177
     3
291
     1
 70
    58
 90
        2
176
     0
 90
        2
176
     0
 90
        0
176
     0
 90
        0
176
     0
 40
0.6
176
     0
 40
30.0
176
     0
 62
     7
420
 16777215
176
     0
 90
        1
176
     0
 90
        4
176
     0
 62
     7
176
     0
 62
   257
176
     0
 90
        1
176
     0
 90
        1
176
     0
 40
1.0
176
     0
 90
        9
176
     2
 62
     7
176
     0
 40
1.0
176
     0
 90
        1
176
     0
 90
        6
176
     0
 90
        2
176
     0
 62
     7
176
     0
 90
        5
176
     0
 90
        0
176
     0
 90
        0
176
     0
290
     0
176
     0
 90
        1
176
     0
 40
0.0
176
     0
 90
        0
176
     0
290
     0
176
     0
290
     1
176
     0
290
     1
176
     0
290
     0
176
     0
290
     0
176
     0
290
     0
176
     0
290
     0
176
     0
290
     0
176
     0
290
     0
176
     0
 90
       50
176
     0
 40
0.0
176
     0
 40
1.0
176
     0
 90
        0
176
     0
 62
    18
420
        0
176
     0
 90
       50
176
     0
 90
        3
176
     0
 62
     5
420
      255
176
     0
290
     0
176
     0
 90
       50
176
     0
 90
       50
176
     0
 90
       50
176
     0
290
     0
176
     0
 90
       50
176
     0
 62
   256
176
     0
 40
1.0
176
     0
 90
        2
176
     0
  1
strokes_ogs.tif
176
     0
290
     0
176
     0
 40
1.0
176
     0
 40
1.0
176
     0
  0
VISUALSTYLE
  5
33
102
{ACAD_REACTORS
330
2A
102
}
330
2A
100
AcDbVisualStyle
  2
Realistic
 70
     8
177
     3
291
     0
 70
    58
 90
        2
176
     1
 90
        3
176
     1
 90
        0
176
     1
 90
        2
176
     1
 40
0.6
176
     1
 40
30.0
176
     1
 62
     7
420
 16777215
176
     1
 90
        0
176
     1
 90
        0
176
     1
 62
     7
176
     1
 62
   257
176
     1
 90
        1
176
     1
 90
        1
176
     1
 40
1.0
176
     1
 90
        8
176
     1
 62
   257
176
     1
 40
1.0
176
     1
 90
        1
176
     1
 90
        6
176
     1
 90
        2
176
     1
 62
     7
176
     1
 90
        3
176
     1
 90
        0
176
     1
 90
        0
176
     1
290
     0
176
     1
 90
       13
176
     1
 40
0.0
176
     1
 90
        0
176
     1
290
     0
176
     1
290
     1
176
     1
290
     1
176
     1
290
     0
176
     1
290
     0
176
     1
290
     0
176
     1
290
     0
176
     1
290
     0
176
     1
290
     0
176
     1
 90
       50
176
     1
 40
0.0
176
     1
 40
1.0
176
     1
 90
        0
176
     1
 62
    18
420
        0
176
     1
 90
       50
176
     1
 90
        3
176
     1
 62
     5
420
      255
176
     1
290
     0
176
     1
 90
       50
176
     1
 90
       50
176
     1
 90
       50
176
     1
290
     0
176
     1
 90
       50
176
     1
 62
   256
176
     0
 40
1.0
176
     0
 90
        2
176
     1
  1
strokes_ogs.tif
176
     1
290
     0
176
     1
 40
1.0
176
     1
 40
1.0
176
     1
  0
VISUALSTYLE
  5
42
102
{ACAD_REACTORS
330
2A
102
}
330
2A
100
AcDbVisualStyle
  2
Shaded
 70
    27
177
     3
291
     0
 70
    58
 90
        2
176
     1
 90
        2
176
     1
 90
        1
176
     1
 90
        2
176
     1
 40
0.6
176
     1
 40
30.0
176
     1
 62
     7
420
 16777215
176
     1
 90
        0
176
     1
 90
        4
176
     1
 62
     7
176
     1
 62
   257
176
     1
 90
        1
176
     1
 90
        1
176
     1
 40
1.0
176
     1
 90
        8
176
     1
 62
   257
176
     1
 40
1.0
176
     1
 90
        1
176
     1
 90
        6
176
     1
 90
        2
176
     1
 62
     8
420
  7895160
176
     1
 90
        3
176
     1
 90
        0
176
     1
 90
        0
176
     1
290
     0
176
     1
 90
        5
176
     1
 40
0.0
176
     1
 90
        0
176
     1
290
     0
176
     1
290
     1
176
     1
290
     1
176
     1
290
     0
176
     1
290
     0
176
     1
290
     0
176
     1
290
     0
176
     1
290
     0
176
     1
290
     0
176
     1
 90
       50
176
     1
 40
0.0
176
     1
 40
1.0
176
     1
 90
        0
176
     1
 62
    18
420
        0
176
     1
 90
       50
176
     1
 90
        3
176
     1
 62
     5
420
      255
176
     1
290
     0
176
     1
 90
       50
176
     1
 90
       50
176
     1
 90
       50
176
     1
290
     0
176
     1
 90
       50
176
     1
 62
   256
176
     0
 40
1.0
176
     0
 90
        2
176
     1
  1
strokes_ogs.tif
176
     1
290
     0
176
     1
 40
1.0
176
     1
 40
1.0
176
     1
  0
VISUALSTYLE
  5
41
102
{ACAD_REACTORS
330
2A
102
}
330
2A
100
AcDbVisualStyle
  2
Shaded with edges
 70
    26
177
     3
291
     0
 70
    58
 90
        2
176
     1
 90
        2
176
     1
 90
        1
176
     1
 90
        2
176
     1
 40
0.6
176
     1
 40
30.0
176
     1
 62
     7
420
 16777215
176
     1
 90
        1
176
     1
 90
       10
176
     1
 62
     7
176
     1
 62
   257
176
     1
 90
        2
176
     1
 90
        1
176
     1
 40
1.0
176
     1
 90
        8
176
     1
 62
   257
176
     1
 40
1.0
176
     1
 90
        1
176
     1
 90
        6
176
     1
 90
        2
176
     1
 62
     7
176
     1
 90
        3
176
     1
 90
        0
176
     1
 90
        0
176
     1
290
     0
176
     1
 90
        5
176
     1
 40
0.0
176
     1
 90
        0
176
     1
290
     0
176
     1
290
     1
176
     1
290
     1
176
     1
290
     0
176
     1
290
     0
176
     1
290
     0
176
     1
290
     0
176
     1
290
     0
176
     1
290
     0
176
     1
 90
       50
176
     1
 40
0.0
176
     1
 40
1.0
176
     1
 90
        0
176
     1
 62
    18
420
        0
176
     1
 90
       50
176
     1
 90
        3
176
     1
 62
     5
420
      255
176
     1
290
     0
176
     1
 90
       50
176
     1
 90
       50
176
     1
 90
       50
176
     1
290
     0
176
     1
 90
       50
176
     1
 62
   256
176
     0
 40
1.0
176
     0
 90
        2
176
     1
  1
strokes_ogs.tif
176
     1
290
     0
176
     1
 40
1.0
176
     1
 40
1.0
176
     1
  0
VISUALSTYLE
  5
3E
102
{ACAD_REACTORS
330
2A
102
}
330
2A
100
AcDbVisualStyle
  2
Shades of Gray
 70
    23
177
     3
291
     0
 70
    58
 90
        2
176
     1
 90
        2
176
     1
 90
        3
176
     1
 90
        0
176
     1
 40
0.6
176
     1
 40
30.0
176
     1
 62
     7
420
 16777215
176
     1
 90
        2
176
     1
 90
        2
176
     1
 62
     7
176
     1
 62
     7
176
     1
 90
        1
176
     1
 90
        1
176
     1
 40
40.0
176
     1
 90
        8
176
     1
 62
     7
176
     1
 40
1.0
176
     1
 90
        1
176
     1
 90
        6
176
     1
 90
        2
176
     1
 62
     7
176
     1
 90
        3
176
     1
 90
        0
176
     1
 90
        0
176
     1
290
     0
176
     1
 90
        1
176
     1
 40
0.0
176
     1
 90
        0
176
     1
290
     0
176
     1
290
     1
176
     1
290
     1
176
     1
290
     0
176
     1
290
     0
176
     1
290
     0
176
     1
290
     0
176
     1
290
     0
176
     1
290
     0
176
     1
 90
       50
176
     1
 40
0.0
176
     1
 40
1.0
176
     1
 90
        0
176
     1
 62
    18
420
        0
176
     1
 90
       50
176
     1
 90
        3
176
     1
 62
     5
420
      255
176
     1
290
     0
176
     1
 90
       50
176
     1
 90
       50
176
     1
 90
       50
176
     1
290
     0
176
     1
 90
       50
176
     1
 62
   256
176
     0
 40
1.0
176
     0
 90
        2
176
     1
  1
strokes_ogs.tif
176
     1
290
     0
176
     1
 40
1.0
176
     1
 40
1.0
176
     1
  0
VISUALSTYLE
  5
3F
102
{ACAD_REACTORS
330
2A
102
}
330
2A
100
AcDbVisualStyle
  2
Sketchy
 70
    24
177
     3
291
     0
 70
    58
 90
        1
176
     1
 90
        2
176
     1
 90
        2
176
     1
 90
        0
176
     1
 40
0.6
176
     1
 40
30.0
176
     1
 62
     7
420
 16777215
176
     1
 90
        2
176
     1
 90
        2
176
     1
 62
     7
176
     1
 62
     7
176
     1
 90
        1
176
     1
 90
        1
176
     1
 40
40.0
176
     1
 90
       11
176
     1
 62
     7
176
     1
 40
1.0
176
     1
 90
        1
176
     1
 90
        6
176
     1
 90
        2
176
     1
 62
     7
176
     1
 90
        6
176
     1
 90
        0
176
     1
 90
        0
176
     1
290
     0
176
     1
 90
        1
176
     1
 40
0.0
176
     1
 90
        0
176
     1
290
     0
176
     1
290
     1
176
     1
290
     1
176
     1
290
     0
176
     1
290
     0
176
     1
290
     0
176
     1
290
     0
176
     1
290
     0
176
     1
290
     0
176
     1
 90
       50
176
     1
 40
0.0
176
     1
 40
1.0
176
     1
 90
        0
176
     1
 62
    18
420
        0
176
     1
 90
       50
176
     1
 90
        3
176
     1
 62
     5
420
      255
176
     1
290
     0
176
     1
 90
       50
176
     1
 90
       50
176
     1
 90
       50
176
     1
290
     0
176
     1
 90
       50
176
     1
 62
   256
176
     0
 40
1.0
176
     0
 90
        2
176
     1
  1
strokes_ogs.tif
176
     1
290
     0
176
     1
 40
1.0
176
     1
 40
1.0
176
     1
  0
VISUALSTYLE
  5
37
102
{ACAD_REACTORS
330
2A
102
}
330
2A
100
AcDbVisualStyle
  2
Thicken
 70
    13
177
     3
291
     1
 70
    58
 90
        2
176
     1
 90
        2
176
     1
 90
        0
176
     1
 90
        0
176
     1
 40
0.6
176
     1
 40
30.0
176
     1
 62
     7
420
 16777215
176
     1
 90
        1
176
     1
 90
        4
176
     1
 62
     7
176
     1
 62
   257
176
     1
 90
        1
176
     1
 90
        1
176
     1
 40
1.0
176
     1
 90
       12
176
     1
 62
     7
176
     1
 40
1.0
176
     1
 90
        1
176
     1
 90
        6
176
     1
 90
        2
176
     1
 62
     7
176
     1
 90
        5
176
     1
 90
        0
176
     1
 90
        0
176
     1
290
     0
176
     1
 90
        1
176
     1
 40
0.0
176
     1
 90
        0
176
     1
290
     0
176
     1
290
     1
176
     1
290
     1
176
     1
290
     0
176
     1
290
     0
176
     1
290
     0
176
     1
290
     0
176
     1
290
     0
176
     1
290
     0
176
     1
 90
       50
176
     1
 40
0.0
176
     1
 40
1.0
176
     1
 90
        0
176
     1
 62
    18
420
        0
176
     1
 90
       50
176
     1
 90
        3
176
     1
 62
     5
420
      255
176
     1
290
     0
176
     1
 90
       50
176
     1
 90
       50
176
     1
 90
       50
176
     1
290
     0
176
     1
 90
       50
176
     1
 62
   256
176
     0
 40
1.0
176
     0
 90
        2
176
     1
  1
strokes_ogs.tif
176
     1
290
     0
176
     1
 40
1.0
176
     1
 40
1.0
176
     1
  0
VISUALSTYLE
  5
30
102
{ACAD_REACTORS
330
2A
102
}
330
2A
100
AcDbVisualStyle
  2
Wireframe
 70
     5
177
     3
291
     0
 70
    58
 90
        0
176
     1
 90
        2
176
     1
 90
        0
176
     1
 90
        0
176
     1
 40
0.6
176
     1
 40
30.0
176
     1
 62
     7
420
 16777215
176
     1
 90
        1
176
     1
 90
        4
176
     1
 62
     7
176
     1
 62
   257
176
     1
 90
        1
176
     1
 90
        1
176
     1
 40
1.0
176
     1
 90
        0
176
     1
 62
   257
176
     1
 40
1.0
176
     1
 90
        1
176
     1
 90
        6
176
     1
 90
        2
176
     1
 62
     7
176
     1
 90
        3
176
     1
 90
        0
176
     1
 90
        0
176
     1
290
     0
176
     1
 90
        1
176
     1
 40
0.0
176
     1
 90
        0
176
     1
290
     0
176
     1
290
     1
176
     1
290
     1
176
     1
290
     0
176
     1
290
     0
176
     1
290
     0
176
     1
290
     0
176
     1
290
     0
176
     1
290
     0
176
     1
 90
       50
176
     1
 40
0.0
176
     1
 40
1.0
176
     1
 90
        0
176
     1
 62
    18
420
        0
176
     1
 90
       50
176
     1
 90
        3
176
     1
 62
     5
420
      255
176
     1
290
     0
176
     1
 90
       50
176
     1
 90
       50
176
     1
 90
       50
176
     1
290
     0
176
     1
 90
       50
176
     1
 62
   256
176
     0
 40
1.0
176
     0
 90
        2
176
     1
  1
strokes_ogs.tif
176
     1
290
     0
176
     1
 40
1.0
176
     1
 40
1.0
176
     1
  0
VISUALSTYLE
  5
40
102
{ACAD_REACTORS
330
2A
102
}
330
2A
100
AcDbVisualStyle
  2
X-Ray
 70
    25
177
     3
291
     0
 70
    58
 90
        2
176
     1
 90
        2
176
     1
 90
        1
176
     1
 90
        1
176
     1
 40
0.5
176
     1
 40
30.0
176
     1
 62
     7
420
 16777215
176
     1
 90
        1
176
     1
 90
        0
176
     1
 62
     7
176
     1
 62
   257
176
     1
 90
        1
176
     1
 90
        1
176
     1
 40
1.0
176
     1
 90
        8
176
     1
 62
     7
176
     1
 40
1.0
176
     1
 90
        1
176
     1
 90
        6
176
     1
 90
        2
176
     1
 62
     7
176
     1
 90
        3
176
     1
 90
        0
176
     1
 90
        0
176
     1
290
     0
176
     1
 90
       13
176
     1
 40
0.0
176
     1
 90
        0
176
     1
290
     0
176
     1
290
     1
176
     1
290
     1
176
     1
290
     0
176
     1
290
     0
176
     1
290
     0
176
     1
290
     0
176
     1
290
     0
176
     1
290
     0
176
     1
 90
       50
176
     1
 40
0.0
176
     1
 40
1.0
176
     1
 90
        0
176
     1
 62
    18
420
        0
176
     1
 90
       50
176
     1
 90
        3
176
     1
 62
     5
420
      255
176
     1
290
     0
176
     1
 90
       50
176
     1
 90
       50
176
     1
 90
       50
176
     1
290
     0
176
     1
 90
       50
176
     1
 62
   256
176
     0
 40
1.0
176
     0
 90
        2
176
     1
  1
strokes_ogs.tif
176
     1
290
     0
176
     1
 40
1.0
176
     1
 40
1.0
176
     1
  0
DICTIONARYVAR
  5
58C
102
{ACAD_REACTORS
330
58B
102
}
330
58B
100
DictionaryVariables
280
     0
  1
1:1
  0
DICTIONARYVAR
  5
591
102
{ACAD_REACTORS
330
58B
102
}
330
58B
100
DictionaryVariables
280
     0
  1
Standard
  0
DICTIONARYVAR
  5
590
102
{ACAD_REACTORS
330
58B
102
}
330
58B
100
DictionaryVariables
280
     0
  1
Standard
  0
DICTIONARYVAR
  5
594
102
{ACAD_REACTORS
330
58B
102
}
330
58B
100
DictionaryVariables
280
     0
  1
6.000000
  0
DICTIONARY
  5
58D
330
6A
100
AcDbDictionary
280
     1
281
     1
  3
ACAD_ROUNDTRIP_2008_TABLESTYLE_CELLSTYLEMAP
360
58E
  0
CELLSTYLEMAP
  5
58E
102
{ACAD_REACTORS
330
58D
102
}
330
58D
100
AcDbCellStyleMap
 90
        3
300
CELLSTYLE
  1
TABLEFORMAT_BEGIN
 90
        5
170
     1
 91
        0
 92
    32768
 62
   257
 93
        1
300
CONTENTFORMAT
  1
CONTENTFORMAT_BEGIN
 90
        0
 91
        0
 92
        4
 93
        0
300

 40
0.0
140
1.0
 94
        5
 62
     0
340
11
144
6.0
309
CONTENTFORMAT_END
171
     1
301
MARGIN
  1
CELLMARGIN_BEGIN
 40
1.5
 40
1.5
 40
1.5
 40
1.5
 40
1.5
 40
1.5
309
CELLMARGIN_END
 94
        6
 95
        1
302
GRIDFORMAT
  1
GRIDFORMAT_BEGIN
 90
        0
 91
        1
 62
     0
 92
       -2
340
14
 93
        0
 40
0.045
309
GRIDFORMAT_END
 95
        2
302
GRIDFORMAT
  1
GRIDFORMAT_BEGIN
 90
        0
 91
        1
 62
     0
 92
       -2
340
14
 93
        0
 40
0.045
309
GRIDFORMAT_END
 95
        4
302
GRIDFORMAT
  1
GRIDFORMAT_BEGIN
 90
        0
 91
        1
 62
     0
 92
       -2
340
14
 93
        0
 40
0.045
309
GRIDFORMAT_END
 95
        8
302
GRIDFORMAT
  1
GRIDFORMAT_BEGIN
 90
        0
 91
        1
 62
     0
 92
       -2
340
14
 93
        0
 40
0.045
309
GRIDFORMAT_END
 95
       16
302
GRIDFORMAT
  1
GRIDFORMAT_BEGIN
 90
        0
 91
        1
 62
     0
 92
       -2
340
14
 93
        0
 40
0.045
309
GRIDFORMAT_END
 95
       32
302
GRIDFORMAT
  1
GRIDFORMAT_BEGIN
 90
        0
 91
        1
 62
     0
 92
       -2
340
14
 93
        0
 40
0.045
309
GRIDFORMAT_END
309
TABLEFORMAT_END
  1
CELLSTYLE_BEGIN
 90
        1
 91
        1
300
_TITLE
309
CELLSTYLE_END
300
CELLSTYLE
  1
TABLEFORMAT_BEGIN
 90
        5
170
     1
 91
        0
 92
        0
 62
   257
 93
        1
300
CONTENTFORMAT
  1
CONTENTFORMAT_BEGIN
 90
        0
 91
        0
 92
        4
 93
        0
300

 40
0.0
140
1.0
 94
        5
 62
     0
340
11
144
4.5
309
CONTENTFORMAT_END
171
     1
301
MARGIN
  1
CELLMARGIN_BEGIN
 40
1.5
 40
1.5
 40
1.5
 40
1.5
 40
1.5
 40
1.5
309
CELLMARGIN_END
 94
        6
 95
        1
302
GRIDFORMAT
  1
GRIDFORMAT_BEGIN
 90
        0
 91
        1
 62
     0
 92
       -2
340
14
 93
        0
 40
0.045
309
GRIDFORMAT_END
 95
        2
302
GRIDFORMAT
  1
GRIDFORMAT_BEGIN
 90
        0
 91
        1
 62
     0
 92
       -2
340
14
 93
        0
 40
0.045
309
GRIDFORMAT_END
 95
        4
302
GRIDFORMAT
  1
GRIDFORMAT_BEGIN
 90
        0
 91
        1
 62
     0
 92
       -2
340
14
 93
        0
 40
0.045
309
GRIDFORMAT_END
 95
        8
302
GRIDFORMAT
  1
GRIDFORMAT_BEGIN
 90
        0
 91
        1
 62
     0
 92
       -2
340
14
 93
        0
 40
0.045
309
GRIDFORMAT_END
 95
       16
302
GRIDFORMAT
  1
GRIDFORMAT_BEGIN
 90
        0
 91
        1
 62
     0
 92
       -2
340
14
 93
        0
 40
0.045
309
GRIDFORMAT_END
 95
       32
302
GRIDFORMAT
  1
GRIDFORMAT_BEGIN
 90
        0
 91
        1
 62
     0
 92
       -2
340
14
 93
        0
 40
0.045
309
GRIDFORMAT_END
309
TABLEFORMAT_END
  1
CELLSTYLE_BEGIN
 90
        2
 91
        1
300
_HEADER
309
CELLSTYLE_END
300
CELLSTYLE
  1
TABLEFORMAT_BEGIN
 90
        5
170
     1
 91
        0
 92
        0
 62
   257
 93
        1
300
CONTENTFORMAT
  1
CONTENTFORMAT_BEGIN
 90
        0
 91
        0
 92
        4
 93
        0
300

 40
0.0
140
1.0
 94
        2
 62
     0
340
11
144
4.5
309
CONTENTFORMAT_END
171
     1
301
MARGIN
  1
CELLMARGIN_BEGIN
 40
1.5
 40
1.5
 40
1.5
 40
1.5
 40
1.5
 40
1.5
309
CELLMARGIN_END
 94
        6
 95
        1
302
GRIDFORMAT
  1
GRIDFORMAT_BEGIN
 90
        0
 91
        1
 62
     0
 92
       -2
340
14
 93
        0
 40
0.045
309
GRIDFORMAT_END
 95
        2
302
GRIDFORMAT
  1
GRIDFORMAT_BEGIN
 90
        0
 91
        1
 62
     0
 92
       -2
340
14
 93
        0
 40
0.045
309
GRIDFORMAT_END
 95
        4
302
GRIDFORMAT
  1
GRIDFORMAT_BEGIN
 90
        0
 91
        1
 62
     0
 92
       -2
340
14
 93
        0
 40
0.045
309
GRIDFORMAT_END
 95
        8
302
GRIDFORMAT
  1
GRIDFORMAT_BEGIN
 90
        0
 91
        1
 62
     0
 92
       -2
340
14
 93
        0
 40
0.045
309
GRIDFORMAT_END
 95
       16
302
GRIDFORMAT
  1
GRIDFORMAT_BEGIN
 90
        0
 91
        1
 62
     0
 92
       -2
340
14
 93
        0
 40
0.045
309
GRIDFORMAT_END
 95
       32
302
GRIDFORMAT
  1
GRIDFORMAT_BEGIN
 90
        0
 91
        1
 62
     0
 92
       -2
340
14
 93
        0
 40
0.045
309
GRIDFORMAT_END
309
TABLEFORMAT_END
  1
CELLSTYLE_BEGIN
 90
        3
 91
        2
300
_DATA
309
CELLSTYLE_END
  0
ENDSEC
  0
EOF
